  0
SECTION
  2
HEADER
  9
$ACADVER
  1
AC1015
  9
$ACADMAINTVER
 70
     6
  9
$DWGCODEPAGE
  3
ANSI_1252
  9
$INSBASE
 10
0.0
 20
0.0
 30
0.0
  9
$EXTMIN
 10
-0.175
 20
-0.175
 30
0.0
  9
$EXTMAX
 10
420.175
 20
297.175
 30
0.0
  9
$LIMMIN
 10
-0.175
 20
-0.175
  9
$LIMMAX
 10
420.175
 20
297.175
  9
$ORTHOMODE
 70
     0
  9
$REGENMODE
 70
     1
  9
$FILLMODE
 70
     1
  9
$QTEXTMODE
 70
     0
  9
$MIRRTEXT
 70
     1
  9
$LTSCALE
 40
1.0
  9
$ATTMODE
 70
     1
  9
$TEXTSIZE
 40
2.5
  9
$TRACEWID
 40
1.0
  9
$TEXTSTYLE
  7
Standard
  9
$CLAYER
  8
0
  9
$CELTYPE
  6
ByLayer
  9
$CECOLOR
 62
   256
  9
$CELTSCALE
 40
1.0
  9
$DISPSILH
 70
     0
  9
$DIMSCALE
 40
1.0
  9
$DIMASZ
 40
2.5
  9
$DIMEXO
 40
0.625
  9
$DIMDLI
 40
3.75
  9
$DIMRND
 40
0.0
  9
$DIMDLE
 40
0.0
  9
$DIMEXE
 40
1.25
  9
$DIMTP
 40
0.0
  9
$DIMTM
 40
0.0
  9
$DIMTXT
 40
2.5
  9
$DIMCEN
 40
2.5
  9
$DIMTSZ
 40
0.0
  9
$DIMTOL
 70
     0
  9
$DIMLIM
 70
     0
  9
$DIMTIH
 70
     0
  9
$DIMTOH
 70
     0
  9
$DIMSE1
 70
     0
  9
$DIMSE2
 70
     0
  9
$DIMTAD
 70
     1
  9
$DIMZIN
 70
     8
  9
$DIMBLK
  1

  9
$DIMASO
 70
     1
  9
$DIMSHO
 70
     1
  9
$DIMPOST
  1

  9
$DIMAPOST
  1

  9
$DIMALT
 70
     0
  9
$DIMALTD
 70
     3
  9
$DIMALTF
 40
0.03937007874016
  9
$DIMLFAC
 40
1.0
  9
$DIMTOFL
 70
     1
  9
$DIMTVP
 40
0.0
  9
$DIMTIX
 70
     0
  9
$DIMSOXD
 70
     0
  9
$DIMSAH
 70
     0
  9
$DIMBLK1
  1

  9
$DIMBLK2
  1

  9
$DIMSTYLE
  2
ISO-25
  9
$DIMCLRD
 70
     0
  9
$DIMCLRE
 70
     0
  9
$DIMCLRT
 70
     0
  9
$DIMTFAC
 40
1.0
  9
$DIMGAP
 40
0.625
  9
$DIMJUST
 70
     0
  9
$DIMSD1
 70
     0
  9
$DIMSD2
 70
     0
  9
$DIMTOLJ
 70
     0
  9
$DIMTZIN
 70
     8
  9
$DIMALTZ
 70
     0
  9
$DIMALTTZ
 70
     0
  9
$DIMUPT
 70
     0
  9
$DIMDEC
 70
     2
  9
$DIMTDEC
 70
     2
  9
$DIMALTU
 70
     2
  9
$DIMALTTD
 70
     3
  9
$DIMTXSTY
  7
Standard
  9
$DIMAUNIT
 70
     0
  9
$DIMADEC
 70
     0
  9
$DIMALTRND
 40
0.0
  9
$DIMAZIN
 70
     0
  9
$DIMDSEP
 70
    44
  9
$DIMATFIT
 70
     3
  9
$DIMFRAC
 70
     0
  9
$DIMLDRBLK
  1

  9
$DIMLUNIT
 70
     2
  9
$DIMLWD
 70
    -2
  9
$DIMLWE
 70
    -2
  9
$DIMTMOVE
 70
     0
  9
$LUNITS
 70
     2
  9
$LUPREC
 70
     4
  9
$SKETCHINC
 40
1.0
  9
$FILLETRAD
 40
10.0
  9
$AUNITS
 70
     0
  9
$AUPREC
 70
     0
  9
$MENU
  1
.
  9
$ELEVATION
 40
0.0
  9
$PELEVATION
 40
0.0
  9
$THICKNESS
 40
0.0
  9
$LIMCHECK
 70
     0
  9
$CHAMFERA
 40
0.0
  9
$CHAMFERB
 40
0.0
  9
$CHAMFERC
 40
0.0
  9
$CHAMFERD
 40
0.0
  9
$SKPOLY
 70
     0
  9
$TDCREATE
 40
2458521.556096875
  9
$TDUCREATE
 40
2458521.514430208
  9
$TDUPDATE
 40
2458521.556097361
  9
$TDUUPDATE
 40
2458521.514430694
  9
$TDINDWG
 40
0.0000000116
  9
$TDUSRTIMER
 40
0.0000000116
  9
$USRTIMER
 70
     1
  9
$ANGBASE
 50
0.0
  9
$ANGDIR
 70
     0
  9
$PDMODE
 70
     0
  9
$PDSIZE
 40
0.0
  9
$PLINEWID
 40
0.0
  9
$SPLFRAME
 70
     0
  9
$SPLINETYPE
 70
     6
  9
$SPLINESEGS
 70
     8
  9
$HANDSEED
  5
28C
  9
$SURFTAB1
 70
     6
  9
$SURFTAB2
 70
     6
  9
$SURFTYPE
 70
     6
  9
$SURFU
 70
     6
  9
$SURFV
 70
     6
  9
$UCSBASE
  2

  9
$UCSNAME
  2

  9
$UCSORG
 10
0.0
 20
0.0
 30
0.0
  9
$UCSXDIR
 10
1.0
 20
0.0
 30
0.0
  9
$UCSYDIR
 10
0.0
 20
1.0
 30
0.0
  9
$UCSORTHOREF
  2

  9
$UCSORTHOVIEW
 70
     0
  9
$UCSORGTOP
 10
0.0
 20
0.0
 30
0.0
  9
$UCSORGBOTTOM
 10
0.0
 20
0.0
 30
0.0
  9
$UCSORGLEFT
 10
0.0
 20
0.0
 30
0.0
  9
$UCSORGRIGHT
 10
0.0
 20
0.0
 30
0.0
  9
$UCSORGFRONT
 10
0.0
 20
0.0
 30
0.0
  9
$UCSORGBACK
 10
0.0
 20
0.0
 30
0.0
  9
$PUCSBASE
  2

  9
$PUCSNAME
  2

  9
$PUCSORG
 10
0.0
 20
0.0
 30
0.0
  9
$PUCSXDIR
 10
1.0
 20
0.0
 30
0.0
  9
$PUCSYDIR
 10
0.0
 20
1.0
 30
0.0
  9
$PUCSORTHOREF
  2

  9
$PUCSORTHOVIEW
 70
     0
  9
$PUCSORGTOP
 10
0.0
 20
0.0
 30
0.0
  9
$PUCSORGBOTTOM
 10
0.0
 20
0.0
 30
0.0
  9
$PUCSORGLEFT
 10
0.0
 20
0.0
 30
0.0
  9
$PUCSORGRIGHT
 10
0.0
 20
0.0
 30
0.0
  9
$PUCSORGFRONT
 10
0.0
 20
0.0
 30
0.0
  9
$PUCSORGBACK
 10
0.0
 20
0.0
 30
0.0
  9
$USERI1
 70
     0
  9
$USERI2
 70
     0
  9
$USERI3
 70
     0
  9
$USERI4
 70
     0
  9
$USERI5
 70
     0
  9
$USERR1
 40
0.0
  9
$USERR2
 40
0.0
  9
$USERR3
 40
0.0
  9
$USERR4
 40
0.0
  9
$USERR5
 40
0.0
  9
$WORLDVIEW
 70
     1
  9
$SHADEDGE
 70
     3
  9
$SHADEDIF
 70
    70
  9
$TILEMODE
 70
     1
  9
$MAXACTVP
 70
    64
  9
$PINSBASE
 10
0.0
 20
0.0
 30
0.0
  9
$PLIMCHECK
 70
     0
  9
$PEXTMIN
 10
-0.175
 20
-0.175
 30
0.0
  9
$PEXTMAX
 10
420.175
 20
297.175
 30
0.0
  9
$PLIMMIN
 10
-0.175
 20
-0.175
  9
$PLIMMAX
 10
420.175
 20
297.175
  9
$UNITMODE
 70
     0
  9
$VISRETAIN
 70
     1
  9
$PLINEGEN
 70
     0
  9
$PSLTSCALE
 70
     1
  9
$TREEDEPTH
 70
  3020
  9
$CMLSTYLE
  2
Standard
  9
$CMLJUST
 70
     0
  9
$CMLSCALE
 40
20.0
  9
$PROXYGRAPHICS
 70
     1
  9
$MEASUREMENT
 70
     1
  9
$CELWEIGHT
370
    -1
  9
$ENDCAPS
280
     0
  9
$JOINSTYLE
280
     0
  9
$LWDISPLAY
290
     1
  9
$INSUNITS
 70
     4
  9
$HYPERLINKBASE
  1

  9
$STYLESHEET
  1

  9
$XEDIT
290
     1
  9
$CEPSNTYPE
380
     0
  9
$PSTYLEMODE
290
     1
  9
$FINGERPRINTGUID
  2
{d76c3c7a-2f2c-4144-b6d8-f34fd9a24e36}
  9
$VERSIONGUID
  2
{FAEB1C32-E019-11D5-929B-00C0DF256EC4}
  9
$EXTNAMES
290
     1
  9
$PSVPSCALE
 40
0.0
  9
$OLESTARTUP
290
     0
  0
ENDSEC
  0
SECTION
  2
CLASSES
  0
CLASS
  1
ACDBDICTIONARYWDFLT
  2
AcDbDictionaryWithDefault
  3
ObjectDBX Classes
 90
        0
280
     0
281
     0
  0
CLASS
  1
VISUALSTYLE
  2
AcDbVisualStyle
  3
ObjectDBX Classes
 90
     4095
280
     0
281
     0
  0
CLASS
  1
MATERIAL
  2
AcDbMaterial
  3
ObjectDBX Classes
 90
     1153
280
     0
281
     0
  0
CLASS
  1
SCALE
  2
AcDbScale
  3
ObjectDBX Classes
 90
     1153
280
     0
281
     0
  0
CLASS
  1
TABLESTYLE
  2
AcDbTableStyle
  3
ObjectDBX Classes
 90
     4095
280
     0
281
     0
  0
CLASS
  1
MLEADERSTYLE
  2
AcDbMLeaderStyle
  3
ACDB_MLEADERSTYLE_CLASS
 90
     4095
280
     0
281
     0
  0
CLASS
  1
SUN
  2
AcDbSun
  3
SCENEOE
 90
     1153
280
     0
281
     0
  0
CLASS
  1
RASTERVARIABLES
  2
AcDbRasterVariables
  3
ISM
 90
        0
280
     0
281
     0
  0
CLASS
  1
IMAGEDEF
  2
AcDbRasterImageDef
  3
ISM
 90
        0
280
     0
281
     0
  0
CLASS
  1
IMAGE
  2
AcDbRasterImage
  3
ISM
 90
      127
280
     0
281
     1
  0
CLASS
  1
IMAGEDEF_REACTOR
  2
AcDbRasterImageDefReactor
  3
ISM
 90
        1
280
     0
281
     0
  0
CLASS
  1
ACDBPLACEHOLDER
  2
AcDbPlaceHolder
  3
ObjectDBX Classes
 90
        0
280
     0
281
     0
  0
CLASS
  1
LAYOUT
  2
AcDbLayout
  3
ObjectDBX Classes
 90
        0
280
     0
281
     0
  0
ENDSEC
  0
SECTION
  2
TABLES
  0
TABLE
  2
VPORT
  5
8
330
0
100
AcDbSymbolTable
 70
     1
  0
VPORT
  5
29
330
8
100
AcDbSymbolTableRecord
100
AcDbViewportTableRecord
  2
*Active
 70
     0
 10
0.0
 20
0.0
 11
1.0
 21
1.0
 12
210.0
 22
148.5
 13
0.0
 23
0.0
 14
10.0
 24
10.0
 15
10.0
 25
10.0
 16
0.0
 26
0.0
 36
1.0
 17
0.0
 27
0.0
 37
0.0
 40
318.4469696969697
 41
1.32
 42
50.0
 43
0.0
 44
0.0
 50
0.0
 51
0.0
 71
     0
 72
   100
 73
     1
 74
     3
 75
     0
 76
     0
 77
     0
 78
     0
281
     0
 65
     1
110
0.0
120
0.0
130
0.0
111
1.0
121
0.0
131
0.0
112
0.0
122
1.0
132
0.0
 79
     0
146
0.0
  0
ENDTAB
  0
TABLE
  2
LTYPE
  5
5
330
0
100
AcDbSymbolTable
 70
     6
  0
LTYPE
  5
14
330
5
100
AcDbSymbolTableRecord
100
AcDbLinetypeTableRecord
  2
ByBlock
 70
     0
  3

 72
    65
 73
     0
 40
0.0
  0
LTYPE
  5
15
330
5
100
AcDbSymbolTableRecord
100
AcDbLinetypeTableRecord
  2
ByLayer
 70
     0
  3

 72
    65
 73
     0
 40
0.0
  0
LTYPE
  5
16
330
5
100
AcDbSymbolTableRecord
100
AcDbLinetypeTableRecord
  2
Continuous
 70
     0
  3
Solid line
 72
    65
 73
     0
 40
0.0
  0
LTYPE
  5
74
330
5
100
AcDbSymbolTableRecord
100
AcDbLinetypeTableRecord
  2
EPL_DASH
 70
     0
  3

 72
    65
 73
     2
 40
1.0
 49
0.5
 74
     0
 49
-0.5
 74
     0
  0
LTYPE
  5
76
330
5
100
AcDbSymbolTableRecord
100
AcDbLinetypeTableRecord
  2
EPL_DASHDOT
 70
     0
  3

 72
    65
 73
     4
 40
1.0
 49
0.8
 74
     0
 49
-0.1
 74
     0
 49
0.0
 74
     0
 49
-0.1
 74
     0
  0
LTYPE
  5
E4
330
5
100
AcDbSymbolTableRecord
100
AcDbLinetypeTableRecord
  2
EPL_DASH2
 70
     0
  3

 72
    65
 73
     2
 40
1.0
 49
0.66
 74
     0
 49
-0.34
 74
     0
  0
LTYPE
  5
ED
330
5
100
AcDbSymbolTableRecord
100
AcDbLinetypeTableRecord
  2
EPL_DASHDOTDOT
 70
     0
  3

 72
    65
 73
     6
 40
0.9999999999999999
 49
0.5
 74
     0
 49
-0.1
 74
     0
 49
0.1
 74
     0
 49
-0.1
 74
     0
 49
0.1
 74
     0
 49
-0.1
 74
     0
  0
LTYPE
  5
141
330
5
100
AcDbSymbolTableRecord
100
AcDbLinetypeTableRecord
  2
EPL_DOT
 70
     0
  3

 72
    65
 73
     4
 40
1.0
 49
0.0
 74
     0
 49
-0.5
 74
     0
 49
0.0
 74
     0
 49
-0.5
 74
     0
  0
ENDTAB
  0
TABLE
  2
LAYER
  5
2
330
0
100
AcDbSymbolTable
 70
   338
  0
LAYER
  5
10
330
2
100
AcDbSymbolTableRecord
100
AcDbLayerTableRecord
  2
0
 70
     0
 62
     7
  6
Continuous
370
    -3
390
F
  0
LAYER
  5
6F
330
2
100
AcDbSymbolTableRecord
100
AcDbLayerTableRecord
  2
EPLAN100
 70
     0
 62
     7
  6
Continuous
370
    50
390
F
1001
AcAecLayerStandard
1000

1000
Grafik.Allgemein
  0
LAYER
  5
71
330
2
100
AcDbSymbolTableRecord
100
AcDbLayerTableRecord
  2
EPLAN101
 70
     0
 62
     7
  6
Continuous
370
    50
390
F
1001
AcAecLayerStandard
1000

1000
Grafik.Breite Volllinien
  0
LAYER
  5
72
330
2
100
AcDbSymbolTableRecord
100
AcDbLayerTableRecord
  2
EPLAN102
 70
     0
 62
     7
  6
Continuous
370
    25
390
F
1001
AcAecLayerStandard
1000

1000
Grafik.Schmale Volllinien
  0
LAYER
  5
73
330
2
100
AcDbSymbolTableRecord
100
AcDbLayerTableRecord
  2
EPLAN103
 70
     0
 62
     7
  6
Continuous
370
    35
390
F
1001
AcAecLayerStandard
1000

1000
Grafik.Volllinien
  0
LAYER
  5
75
330
2
100
AcDbSymbolTableRecord
100
AcDbLayerTableRecord
  2
EPLAN104
 70
     0
 62
     7
  6
EPL_DASH
370
    25
390
F
1001
AcAecLayerStandard
1000

1000
Grafik.Schmale Strichlinen
  0
LAYER
  5
77
330
2
100
AcDbSymbolTableRecord
100
AcDbLayerTableRecord
  2
EPLAN105
 70
     0
 62
   251
  6
EPL_DASHDOT
370
    25
390
F
1001
AcAecLayerStandard
1000

1000
Grafik.Mittellinien
  0
LAYER
  5
78
330
2
100
AcDbSymbolTableRecord
100
AcDbLayerTableRecord
  2
EPLAN106
 70
     0
 62
   251
  6
EPL_DASHDOT
370
    13
390
F
1001
AcAecLayerStandard
1000

1000
Grafik.Konstruktionslinien
  0
LAYER
  5
79
330
2
100
AcDbSymbolTableRecord
100
AcDbLayerTableRecord
  2
EPLAN107
 70
     0
 62
     5
  6
Continuous
370
    25
390
F
1001
AcAecLayerStandard
1000

1000
Grafik.Bemaßungen
  0
LAYER
  5
7A
330
2
100
AcDbSymbolTableRecord
100
AcDbLayerTableRecord
  2
EPLAN108
 70
     0
 62
     5
  6
Continuous
370
    35
390
F
1001
AcAecLayerStandard
1000

1000
Grafik.Texte
  0
LAYER
  5
7B
330
2
100
AcDbSymbolTableRecord
100
AcDbLayerTableRecord
  2
EPLAN109
 70
     0
 62
     5
  6
Continuous
370
    35
390
F
1001
AcAecLayerStandard
1000

1000
Grafik.Kommentartexte
  0
LAYER
  5
7C
330
2
100
AcDbSymbolTableRecord
100
AcDbLayerTableRecord
  2
EPLAN110
 70
     0
 62
     6
  6
Continuous
370
    35
390
F
1001
AcAecLayerStandard
1000

1000
Grafik.Pfad-Funktionstexte
  0
LAYER
  5
7D
330
2
100
AcDbSymbolTableRecord
100
AcDbLayerTableRecord
  2
EPLAN200
 70
     0
 62
    73
  6
Continuous
370
    35
390
F
1001
AcAecLayerStandard
1000

1000
Grafik.Formulare
  0
LAYER
  5
7E
330
2
100
AcDbSymbolTableRecord
100
AcDbLayerTableRecord
  2
EPLAN201
 70
     0
 62
    73
  6
Continuous
370
    35
390
F
1001
AcAecLayerStandard
1000

1000
Grafik.Normblätter
  0
LAYER
  5
7F
330
2
100
AcDbSymbolTableRecord
100
AcDbLayerTableRecord
  2
EPLAN202
 70
     0
 62
     7
  6
Continuous
370
    35
390
F
1001
AcAecLayerStandard
1000

1000
Grafik.Klemmenleistendefinitionen
  0
LAYER
  5
80
330
2
100
AcDbSymbolTableRecord
100
AcDbLayerTableRecord
  2
EPLAN203
 70
     0
 62
     7
  6
Continuous
370
    35
390
F
1001
AcAecLayerStandard
1000

1000
Grafik.Steckerdefinitionen
  0
LAYER
  5
81
330
2
100
AcDbSymbolTableRecord
100
AcDbLayerTableRecord
  2
EPLAN204
 70
     0
 62
     7
  6
Continuous
370
    35
390
F
1001
AcAecLayerStandard
1000

1000
Grafik.Artikeldefinitionstexte
  0
LAYER
  5
82
330
2
100
AcDbSymbolTableRecord
100
AcDbLayerTableRecord
  2
EPLAN205
 70
     0
 62
     7
  6
Continuous
370
    35
390
F
1001
AcAecLayerStandard
1000

1000
Grafik.Bilder
  0
LAYER
  5
83
330
2
100
AcDbSymbolTableRecord
100
AcDbLayerTableRecord
  2
EPLAN206
 70
     0
 62
     7
  6
Continuous
370
    35
390
F
1001
AcAecLayerStandard
1000

1000
Grafik.Hyperlinks
  0
LAYER
  5
84
330
2
100
AcDbSymbolTableRecord
100
AcDbLayerTableRecord
  2
EPLAN300
 70
     0
 62
     5
  6
Continuous
370
    25
390
F
1001
AcAecLayerStandard
1000

1000
Symbolgrafik.Allgemein
  0
LAYER
  5
85
330
2
100
AcDbSymbolTableRecord
100
AcDbLayerTableRecord
  2
EPLAN301
 70
     0
 62
     7
  6
Continuous
370
    25
390
F
1001
AcAecLayerStandard
1000

1000
Symbolgrafik.Potenziale
  0
LAYER
  5
86
330
2
100
AcDbSymbolTableRecord
100
AcDbLayerTableRecord
  2
EPLAN302
 70
     0
 62
     5
  6
Continuous
370
    25
390
F
1001
AcAecLayerStandard
1000

1000
Symbolgrafik.Geräteanschlüsse
  0
LAYER
  5
87
330
2
100
AcDbSymbolTableRecord
100
AcDbLayerTableRecord
  2
EPLAN303
 70
     0
 62
     6
  6
Continuous
370
    25
390
F
1001
AcAecLayerStandard
1000

1000
Symbolgrafik.SPS-Anschlüsse
  0
LAYER
  5
88
330
2
100
AcDbSymbolTableRecord
100
AcDbLayerTableRecord
  2
EPLAN304
 70
     0
 62
     5
  6
Continuous
370
    25
390
F
1001
AcAecLayerStandard
1000

1000
Symbolgrafik.Kabeldefinitionslinien
  0
LAYER
  5
89
330
2
100
AcDbSymbolTableRecord
100
AcDbLayerTableRecord
  2
EPLAN305
 70
     0
 62
     5
  6
EPL_DASH
370
    25
390
F
1001
AcAecLayerStandard
1000

1000
Symbolgrafik.Gerätekästen
  0
LAYER
  5
8A
330
2
100
AcDbSymbolTableRecord
100
AcDbLayerTableRecord
  2
EPLAN306
 70
     0
 62
     6
  6
EPL_DASH
370
    25
390
F
1001
AcAecLayerStandard
1000

1000
Symbolgrafik.SPS-Kästen
  0
LAYER
  5
8B
330
2
100
AcDbSymbolTableRecord
100
AcDbLayerTableRecord
  2
EPLAN307
 70
     0
 62
   134
  6
EPL_DASHDOT
370
    25
390
F
1001
AcAecLayerStandard
1000

1000
Symbolgrafik.Strukturkästen
  0
LAYER
  5
8C
330
2
100
AcDbSymbolTableRecord
100
AcDbLayerTableRecord
  2
EPLAN308
 70
     0
 62
   251
  6
EPL_DASH
370
    25
390
F
1001
AcAecLayerStandard
1000

1000
Symbolgrafik.Makro.Makrokästen
  0
LAYER
  5
8D
330
2
100
AcDbSymbolTableRecord
100
AcDbLayerTableRecord
  2
EPLAN309
 70
     0
 62
     5
  6
Continuous
370
    25
390
F
1001
AcAecLayerStandard
1000

1000
Symbolgrafik.Artikelplatzierungen
  0
LAYER
  5
8E
330
2
100
AcDbSymbolTableRecord
100
AcDbLayerTableRecord
  2
EPLAN310
 70
     0
 62
     5
  6
Continuous
370
    25
390
F
1001
AcAecLayerStandard
1000

1000
Symbolgrafik.Montageplatten
  0
LAYER
  5
8F
330
2
100
AcDbSymbolTableRecord
100
AcDbLayerTableRecord
  2
EPLAN311
 70
     0
 62
     1
  6
Continuous
370
    25
390
F
1001
AcAecLayerStandard
1000

1000
Symbolgrafik.Verbindungssymbole.Autoconnecting
  0
LAYER
  5
90
330
2
100
AcDbSymbolTableRecord
100
AcDbLayerTableRecord
  2
EPLAN312
 70
     0
 62
     1
  6
Continuous
370
    25
390
F
1001
AcAecLayerStandard
1000

1000
Symbolgrafik.Verbindungsdefinitionspunkte
  0
LAYER
  5
91
330
2
100
AcDbSymbolTableRecord
100
AcDbLayerTableRecord
  2
EPLAN314
 70
     0
 62
     5
  6
EPL_DASH
370
    25
390
F
1001
AcAecLayerStandard
1000

1000
Symbolgrafik.Abschirmungen
  0
LAYER
  5
92
330
2
100
AcDbSymbolTableRecord
100
AcDbLayerTableRecord
  2
EPLAN315
 70
     0
 62
     5
  6
Continuous
370
    25
390
F
1001
AcAecLayerStandard
1000

1000
Symbolgrafik.Automatisch erzeugte Kabel
  0
LAYER
  5
93
330
2
100
AcDbSymbolTableRecord
100
AcDbLayerTableRecord
  2
EPLAN316
 70
     0
 62
   251
  6
EPL_DASH
370
     0
390
F
1001
AcAecLayerStandard
1000

1000
Symbolgrafik.Makro.Makroanfasspunkte
  0
LAYER
  5
94
330
2
100
AcDbSymbolTableRecord
100
AcDbLayerTableRecord
  2
EPLAN317
 70
     0
 62
     1
  6
Continuous
370
   100
390
F
1001
AcAecLayerStandard
1000

1000
Symbolgrafik.Stranganschlusssymbole.Verbindungsstranganschlüsse
  0
LAYER
  5
95
330
2
100
AcDbSymbolTableRecord
100
AcDbLayerTableRecord
  2
EPLAN318
 70
     0
 62
     1
  6
Continuous
370
    25
390
F
1001
AcAecLayerStandard
1000

1000
Eigenschaftsplatzierung.Stranganschlusssymbole.Verbindungsstranganschlüsse
  0
LAYER
  5
96
330
2
100
AcDbSymbolTableRecord
100
AcDbLayerTableRecord
  2
EPLAN319
 70
     0
 62
     1
  6
Continuous
370
    25
390
F
1001
AcAecLayerStandard
1000

1000
Eigenschaftsplatzierung.Anzahl der (einpoligen) Funktionen
  0
LAYER
  5
97
330
2
100
AcDbSymbolTableRecord
100
AcDbLayerTableRecord
  2
EPLAN320
 70
     0
 62
    -5
  6
Continuous
290
     0
370
    25
390
F
1001
AcAecLayerStandard
1000

1000
Grafik.Unsichtbar
  0
LAYER
  5
98
330
2
100
AcDbSymbolTableRecord
100
AcDbLayerTableRecord
  2
EPLAN321
 70
     0
 62
     5
  6
Continuous
370
    25
390
F
1001
AcAecLayerStandard
1000

1000
Symbolgrafik.Artikeldefinitionspunkte
  0
LAYER
  5
99
330
2
100
AcDbSymbolTableRecord
100
AcDbLayerTableRecord
  2
EPLAN322
 70
     0
 62
     7
  6
Continuous
370
    20
390
F
1001
AcAecLayerStandard
1000

1000
Symbolgrafik.Makro.Platzhalterobjekte
  0
LAYER
  5
9A
330
2
100
AcDbSymbolTableRecord
100
AcDbLayerTableRecord
  2
EPLAN323
 70
     0
 62
     5
  6
Continuous
370
    25
390
F
1001
AcAecLayerStandard
1000

1000
Symbolgrafik.Gerätekästen.Fluid
  0
LAYER
  5
9B
330
2
100
AcDbSymbolTableRecord
100
AcDbLayerTableRecord
  2
EPLAN324
 70
     0
 62
     7
  6
Continuous
370
    25
390
F
1001
AcAecLayerStandard
1000

1000
Symbolgrafik.Netzdefinitionspunkte
  0
LAYER
  5
9C
330
2
100
AcDbSymbolTableRecord
100
AcDbLayerTableRecord
  2
EPLAN325
 70
     0
 62
     7
  6
Continuous
370
    25
390
F
1001
AcAecLayerStandard
1000

1000
Symbolgrafik.Prozesse
  0
LAYER
  5
9D
330
2
100
AcDbSymbolTableRecord
100
AcDbLayerTableRecord
  2
EPLAN326
 70
     0
 62
     1
  6
EPL_DASH
290
     0
370
    25
390
F
1001
AcAecLayerStandard
1000

1000
Symbolgrafik.Makro.Makrokästen (definierend)
  0
LAYER
  5
9E
330
2
100
AcDbSymbolTableRecord
100
AcDbLayerTableRecord
  2
EPLAN327
 70
     0
 62
     5
  6
EPL_DASH
290
     0
370
    25
390
F
1001
AcAecLayerStandard
1000

1000
Symbolgrafik.Makro.Makrokästen (referenzierend)
  0
LAYER
  5
9F
330
2
100
AcDbSymbolTableRecord
100
AcDbLayerTableRecord
  2
EPLAN400
 70
     0
 62
     5
  6
Continuous
370
    35
390
F
1001
AcAecLayerStandard
1000

1000
Eigenschaftsplatzierung.Betriebsmittelkennzeichen
  0
LAYER
  5
A0
330
2
100
AcDbSymbolTableRecord
100
AcDbLayerTableRecord
  2
EPLAN401
 70
     0
 62
     5
  6
Continuous
370
    35
390
F
1001
AcAecLayerStandard
1000

1000
Eigenschaftsplatzierung.Klemmenleisten
  0
LAYER
  5
A1
330
2
100
AcDbSymbolTableRecord
100
AcDbLayerTableRecord
  2
EPLAN402
 70
     0
 62
     5
  6
Continuous
370
    35
390
F
1001
AcAecLayerStandard
1000

1000
Eigenschaftsplatzierung.Stecker
  0
LAYER
  5
A2
330
2
100
AcDbSymbolTableRecord
100
AcDbLayerTableRecord
  2
EPLAN403
 70
     0
 62
     5
  6
Continuous
370
    35
390
F
1001
AcAecLayerStandard
1000

1000
Eigenschaftsplatzierung.Abbruchstellenbezeichnungen
  0
LAYER
  5
A3
330
2
100
AcDbSymbolTableRecord
100
AcDbLayerTableRecord
  2
EPLAN404
 70
     0
 62
     5
  6
Continuous
370
    35
390
F
1001
AcAecLayerStandard
1000

1000
Eigenschaftsplatzierung.Potenzialnamen
  0
LAYER
  5
A4
330
2
100
AcDbSymbolTableRecord
100
AcDbLayerTableRecord
  2
EPLAN405
 70
     0
 62
     1
  6
Continuous
370
    25
390
F
1001
AcAecLayerStandard
1000

1000
Eigenschaftsplatzierung.Verbindungsdefinitionspunkte
  0
LAYER
  5
A5
330
2
100
AcDbSymbolTableRecord
100
AcDbLayerTableRecord
  2
EPLAN406
 70
     0
 62
     1
  6
Continuous
370
    25
390
F
1001
AcAecLayerStandard
1000

1000
Eigenschaftsplatzierung.Verbindungsdefinitionspunkte.Kabelverbindung
  0
LAYER
  5
A6
330
2
100
AcDbSymbolTableRecord
100
AcDbLayerTableRecord
  2
EPLAN407
 70
     0
 62
     5
  6
Continuous
370
    35
390
F
1001
AcAecLayerStandard
1000

1000
Eigenschaftsplatzierung.Kabel.Betriebsmittelkennzeichen
  0
LAYER
  5
A7
330
2
100
AcDbSymbolTableRecord
100
AcDbLayerTableRecord
  2
EPLAN408
 70
     0
 62
     5
  6
Continuous
370
    35
390
F
1001
AcAecLayerStandard
1000

1000
Eigenschaftsplatzierung.Klemmen.Betriebsmittelkennzeichen
  0
LAYER
  5
A8
330
2
100
AcDbSymbolTableRecord
100
AcDbLayerTableRecord
  2
EPLAN409
 70
     0
 62
     5
  6
Continuous
370
    35
390
F
1001
AcAecLayerStandard
1000

1000
Eigenschaftsplatzierung.Stecker.Betriebsmittelkennzeichen
  0
LAYER
  5
A9
330
2
100
AcDbSymbolTableRecord
100
AcDbLayerTableRecord
  2
EPLAN410
 70
     0
 62
     5
  6
Continuous
370
    35
390
F
1001
AcAecLayerStandard
1000

1000
Eigenschaftsplatzierung.Netznamen
  0
LAYER
  5
AA
330
2
100
AcDbSymbolTableRecord
100
AcDbLayerTableRecord
  2
EPLAN420
 70
     0
 62
     7
  6
Continuous
370
    35
390
F
1001
AcAecLayerStandard
1000

1000
Eigenschaftsplatzierung.Anschlussbezeichnungen
  0
LAYER
  5
AB
330
2
100
AcDbSymbolTableRecord
100
AcDbLayerTableRecord
  2
EPLAN421
 70
     0
 62
     5
  6
Continuous
370
    35
390
F
1001
AcAecLayerStandard
1000

1000
Eigenschaftsplatzierung.Anschlussbeschreibungen
  0
LAYER
  5
AC
330
2
100
AcDbSymbolTableRecord
100
AcDbLayerTableRecord
  2
EPLAN422
 70
     0
 62
     7
  6
Continuous
370
    35
390
F
1001
AcAecLayerStandard
1000

1000
Eigenschaftsplatzierung.Klemmenbezeichnungen
  0
LAYER
  5
AD
330
2
100
AcDbSymbolTableRecord
100
AcDbLayerTableRecord
  2
EPLAN423
 70
     0
 62
     7
  6
Continuous
370
    35
390
F
1001
AcAecLayerStandard
1000

1000
Eigenschaftsplatzierung.Steckerkontaktbezeichnungen
  0
LAYER
  5
AE
330
2
100
AcDbSymbolTableRecord
100
AcDbLayerTableRecord
  2
EPLAN424
 70
     0
 62
     7
  6
Continuous
370
    35
390
F
1001
AcAecLayerStandard
1000

1000
Eigenschaftsplatzierung.Geräteanschlussbezeichnungen
  0
LAYER
  5
AF
330
2
100
AcDbSymbolTableRecord
100
AcDbLayerTableRecord
  2
EPLAN425
 70
     0
 62
   251
  6
Continuous
370
    35
390
F
1001
AcAecLayerStandard
1000

1000
Eigenschaftsplatzierung.Symbolische Adressen
  0
LAYER
  5
B0
330
2
100
AcDbSymbolTableRecord
100
AcDbLayerTableRecord
  2
EPLAN426
 70
     0
 62
   251
  6
Continuous
370
    35
390
F
1001
AcAecLayerStandard
1000

1000
Eigenschaftsplatzierung.SPS-Adressen
  0
LAYER
  5
B1
330
2
100
AcDbSymbolTableRecord
100
AcDbLayerTableRecord
  2
EPLAN427
 70
     0
 62
   251
  6
Continuous
370
    35
390
F
1001
AcAecLayerStandard
1000

1000
Eigenschaftsplatzierung.SPS-Datentypen
  0
LAYER
  5
B2
330
2
100
AcDbSymbolTableRecord
100
AcDbLayerTableRecord
  2
EPLAN428
 70
     0
 62
   251
  6
Continuous
370
    35
390
F
1001
AcAecLayerStandard
1000

1000
Eigenschaftsplatzierung.SPS-Anschlussbezeichnungen
  0
LAYER
  5
B3
330
2
100
AcDbSymbolTableRecord
100
AcDbLayerTableRecord
  2
EPLAN429
 70
     0
 62
   251
  6
Continuous
370
    35
390
F
1001
AcAecLayerStandard
1000

1000
Eigenschaftsplatzierung.SPS-Funktionstexte
  0
LAYER
  5
B4
330
2
100
AcDbSymbolTableRecord
100
AcDbLayerTableRecord
  2
EPLAN430
 70
     0
 62
    -7
  6
Continuous
290
     0
370
    35
390
F
1001
AcAecLayerStandard
1000

1000
Eigenschaftsplatzierung.Klemmen-Anschlussbezeichnungen
  0
LAYER
  5
B5
330
2
100
AcDbSymbolTableRecord
100
AcDbLayerTableRecord
  2
EPLAN431
 70
     0
 62
    -7
  6
Continuous
290
     0
370
    35
390
F
1001
AcAecLayerStandard
1000

1000
Eigenschaftsplatzierung.Stecker-Anschlussbezeichnungen
  0
LAYER
  5
B6
330
2
100
AcDbSymbolTableRecord
100
AcDbLayerTableRecord
  2
EPLAN432
 70
     0
 62
     7
  6
Continuous
370
    35
390
F
1001
AcAecLayerStandard
1000

1000
Eigenschaftsplatzierung.SPS-Anschlussbezeichnungen (Logik)
  0
LAYER
  5
B7
330
2
100
AcDbSymbolTableRecord
100
AcDbLayerTableRecord
  2
EPLAN433
 70
     0
 62
   251
  6
Continuous
370
    35
390
F
1001
AcAecLayerStandard
1000

1000
Eigenschaftsplatzierung.Steckerbezeichnung
  0
LAYER
  5
B8
330
2
100
AcDbSymbolTableRecord
100
AcDbLayerTableRecord
  2
EPLAN434
 70
     0
 62
     7
  6
Continuous
370
    35
390
F
1001
AcAecLayerStandard
1000

1000
Eigenschaftsplatzierung.Klemmenbeschreibung
  0
LAYER
  5
B9
330
2
100
AcDbSymbolTableRecord
100
AcDbLayerTableRecord
  2
EPLAN435
 70
     0
 62
     7
  6
Continuous
370
    35
390
F
1001
AcAecLayerStandard
1000

1000
Eigenschaftsplatzierung.Steckerkontaktbeschreibung
  0
LAYER
  5
BA
330
2
100
AcDbSymbolTableRecord
100
AcDbLayerTableRecord
  2
EPLAN436
 70
     0
 62
   251
  6
Continuous
370
    35
390
F
1001
AcAecLayerStandard
1000

1000
Eigenschaftsplatzierung.Netzwerk- / Bus-Daten
  0
LAYER
  5
BB
330
2
100
AcDbSymbolTableRecord
100
AcDbLayerTableRecord
  2
EPLAN440
 70
     0
 62
    73
  6
Continuous
370
    35
390
F
1001
AcAecLayerStandard
1000

1000
Eigenschaftsplatzierung.Querverweise
  0
LAYER
  5
BC
330
2
100
AcDbSymbolTableRecord
100
AcDbLayerTableRecord
  2
EPLAN441
 70
     0
 62
    73
  6
Continuous
370
    35
390
F
1001
AcAecLayerStandard
1000

1000
Eigenschaftsplatzierung.SPS-Querverweise
  0
LAYER
  5
BD
330
2
100
AcDbSymbolTableRecord
100
AcDbLayerTableRecord
  2
EPLAN442
 70
     0
 62
    73
  6
Continuous
370
    35
390
F
1001
AcAecLayerStandard
1000

1000
Eigenschaftsplatzierung.Abbruchstellenquerverweise
  0
LAYER
  5
BE
330
2
100
AcDbSymbolTableRecord
100
AcDbLayerTableRecord
  2
EPLAN443
 70
     0
 62
    73
  6
Continuous
370
    35
390
F
1001
AcAecLayerStandard
1000

1000
Eigenschaftsplatzierung.Querverweise auf direkt angeschlossene Gegenstücke
  0
LAYER
  5
BF
330
2
100
AcDbSymbolTableRecord
100
AcDbLayerTableRecord
  2
EPLAN444
 70
     0
 62
    73
  6
Continuous
370
    35
390
F
1001
AcAecLayerStandard
1000

1000
Eigenschaftsplatzierung.Teilklemmenquerverweis
  0
LAYER
  5
C0
330
2
100
AcDbSymbolTableRecord
100
AcDbLayerTableRecord
  2
EPLAN445
 70
     0
 62
     7
  6
Continuous
370
    35
390
F
1001
AcAecLayerStandard
1000

1000
Eigenschaftsplatzierung.Anschlussquerschnitt /-durchmesser
  0
LAYER
  5
C1
330
2
100
AcDbSymbolTableRecord
100
AcDbLayerTableRecord
  2
EPLAN450
 70
     0
 62
    73
  6
Continuous
370
    35
390
F
1001
AcAecLayerStandard
1000

1000
Sondertexte.Platzhaltertexte
  0
LAYER
  5
C2
330
2
100
AcDbSymbolTableRecord
100
AcDbLayerTableRecord
  2
EPLAN451
 70
     0
 62
    73
  6
Continuous
370
    35
390
F
1001
AcAecLayerStandard
1000

1000
Sondertexte.Projekte
  0
LAYER
  5
C3
330
2
100
AcDbSymbolTableRecord
100
AcDbLayerTableRecord
  2
EPLAN452
 70
     0
 62
    73
  6
Continuous
370
    35
390
F
1001
AcAecLayerStandard
1000

1000
Sondertexte.Seiten
  0
LAYER
  5
C4
330
2
100
AcDbSymbolTableRecord
100
AcDbLayerTableRecord
  2
EPLAN453
 70
     0
 62
    73
  6
Continuous
370
    35
390
F
1001
AcAecLayerStandard
1000

1000
Sondertexte.Spalten / Zeilen
  0
LAYER
  5
C5
330
2
100
AcDbSymbolTableRecord
100
AcDbLayerTableRecord
  2
EPLAN454
 70
     0
 62
   254
  6
Continuous
370
   100
390
F
1001
AcAecLayerStandard
1000

1000
Sondertexte.Wasserzeichen
  0
LAYER
  5
C6
330
2
100
AcDbSymbolTableRecord
100
AcDbLayerTableRecord
  2
EPLAN460
 70
     0
 62
     7
  6
Continuous
370
    25
390
F
1001
AcAecLayerStandard
1000

1000
Eigenschaftsplatzierung.Kontaktspiegel
  0
LAYER
  5
C7
330
2
100
AcDbSymbolTableRecord
100
AcDbLayerTableRecord
  2
EPLAN480
 70
     0
 62
     7
  6
Continuous
370
    35
390
F
1001
AcAecLayerStandard
1000

1000
Eigenschaftsplatzierung.Artikelnummern
  0
LAYER
  5
C8
330
2
100
AcDbSymbolTableRecord
100
AcDbLayerTableRecord
  2
EPLAN481
 70
     0
 62
     7
  6
Continuous
370
    35
390
F
1001
AcAecLayerStandard
1000

1000
Eigenschaftsplatzierung.Typbezeichnungen
  0
LAYER
  5
C9
330
2
100
AcDbSymbolTableRecord
100
AcDbLayerTableRecord
  2
EPLAN490
 70
     0
 62
     5
  6
Continuous
370
    25
390
F
1001
AcAecLayerStandard
1000

1000
Eigenschaftsplatzierung.Artikelplatzierung.BMK
  0
LAYER
  5
CA
330
2
100
AcDbSymbolTableRecord
100
AcDbLayerTableRecord
  2
EPLAN491
 70
     0
 62
     5
  6
Continuous
370
    25
390
F
1001
AcAecLayerStandard
1000

1000
Eigenschaftsplatzierung.Artikelplatzierung.Artikelnummern
  0
LAYER
  5
CB
330
2
100
AcDbSymbolTableRecord
100
AcDbLayerTableRecord
  2
EPLAN492
 70
     0
 62
     5
  6
Continuous
370
    25
390
F
1001
AcAecLayerStandard
1000

1000
Eigenschaftsplatzierung.Artikelplatzierung.Typbezeichnungen
  0
LAYER
  5
CC
330
2
100
AcDbSymbolTableRecord
100
AcDbLayerTableRecord
  2
EPLAN493
 70
     0
 62
     5
  6
Continuous
370
    25
390
F
1001
AcAecLayerStandard
1000

1000
Eigenschaftsplatzierung.Artikelplatzierung.Legendenindizes
  0
LAYER
  5
CD
330
2
100
AcDbSymbolTableRecord
100
AcDbLayerTableRecord
  2
EPLAN500
 70
     0
 62
     7
  6
Continuous
370
    35
390
F
1001
AcAecLayerStandard
1000

1000
Eigenschaftsplatzierung.Beschreibender Block.Technische Kenngrößen
  0
LAYER
  5
CE
330
2
100
AcDbSymbolTableRecord
100
AcDbLayerTableRecord
  2
EPLAN501
 70
     0
 62
     7
  6
Continuous
370
    35
390
F
1001
AcAecLayerStandard
1000

1000
Eigenschaftsplatzierung.Beschreibender Block.Funktionstexte
  0
LAYER
  5
CF
330
2
100
AcDbSymbolTableRecord
100
AcDbLayerTableRecord
  2
EPLAN502
 70
     0
 62
     7
  6
Continuous
370
    35
390
F
1001
AcAecLayerStandard
1000

1000
Eigenschaftsplatzierung.Beschreibender Block.Gravierdaten
  0
LAYER
  5
D0
330
2
100
AcDbSymbolTableRecord
100
AcDbLayerTableRecord
  2
EPLAN503
 70
     0
 62
     7
  6
Continuous
370
    35
390
F
1001
AcAecLayerStandard
1000

1000
Eigenschaftsplatzierung.Beschreibender Block.Einbauorte
  0
LAYER
  5
D1
330
2
100
AcDbSymbolTableRecord
100
AcDbLayerTableRecord
  2
EPLAN504
 70
     0
 62
     7
  6
Continuous
370
    35
390
F
1001
AcAecLayerStandard
1000

1000
Eigenschaftsplatzierung.Beschreibender Block.Zusatzfelder
  0
LAYER
  5
D2
330
2
100
AcDbSymbolTableRecord
100
AcDbLayerTableRecord
  2
EPLAN505
 70
     0
 62
    -5
  6
Continuous
290
     0
370
    35
390
F
1001
AcAecLayerStandard
1000

1000
Eigenschaftsplatzierung.Betriebsmittelkennzeichen.Fluid-Leitungsverteiler / -verbinder
  0
LAYER
  5
D3
330
2
100
AcDbSymbolTableRecord
100
AcDbLayerTableRecord
  2
EPLAN506
 70
     0
 62
     5
  6
Continuous
370
    35
390
F
1001
AcAecLayerStandard
1000

1000
Eigenschaftsplatzierung.Betriebsmittelkennzeichen.Fluid-Funktionen
  0
LAYER
  5
D4
330
2
100
AcDbSymbolTableRecord
100
AcDbLayerTableRecord
  2
EPLAN507
 70
     0
 62
     1
  6
Continuous
370
    25
390
F
1001
AcAecLayerStandard
1000

1000
Symbolgrafik.Verbindungssymbole.Autoconnecting.Druckleitungen
  0
LAYER
  5
D5
330
2
100
AcDbSymbolTableRecord
100
AcDbLayerTableRecord
  2
EPLAN508
 70
     0
 62
     1
  6
Continuous
370
    25
390
F
1001
AcAecLayerStandard
1000

1000
Symbolgrafik.Verbindungssymbole.Autoconnecting.Steuerleitungen
  0
LAYER
  5
D6
330
2
100
AcDbSymbolTableRecord
100
AcDbLayerTableRecord
  2
EPLAN509
 70
     0
 62
     1
  6
Continuous
370
    25
390
F
1001
AcAecLayerStandard
1000

1000
Symbolgrafik.Verbindungssymbole.Autoconnecting.Leckölleitungen
  0
LAYER
  5
D7
330
2
100
AcDbSymbolTableRecord
100
AcDbLayerTableRecord
  2
EPLAN510
 70
     0
 62
     1
  6
Continuous
370
    25
390
F
1001
AcAecLayerStandard
1000

1000
Symbolgrafik.Verbindungssymbole.Autoconnecting.Interne Verbindungen / Direktverbindungen
  0
LAYER
  5
D8
330
2
100
AcDbSymbolTableRecord
100
AcDbLayerTableRecord
  2
EPLAN511
 70
     0
 62
     1
  6
Continuous
370
    25
390
F
1001
AcAecLayerStandard
1000

1000
Symbolgrafik.Leitungsverteiler / -verbinder
  0
LAYER
  5
D9
330
2
100
AcDbSymbolTableRecord
100
AcDbLayerTableRecord
  2
EPLAN512
 70
     0
 62
     3
  6
Continuous
370
    35
390
F
1001
AcAecLayerStandard
1000

1000
Eigenschaftsplatzierung.Blockeigenschaften
  0
LAYER
  5
DA
330
2
100
AcDbSymbolTableRecord
100
AcDbLayerTableRecord
  2
EPLAN513
 70
     0
 62
    -5
  6
Continuous
290
     0
370
    25
390
F
1001
AcAecLayerStandard
1000

1000
Symbolgrafik.Verbindungssymbole.Autoconnecting.Unterbrecher
  0
LAYER
  5
DB
330
2
100
AcDbSymbolTableRecord
100
AcDbLayerTableRecord
  2
EPLAN514
 70
     0
 62
     5
  6
Continuous
370
    35
390
F
1001
AcAecLayerStandard
1000

1000
Eigenschaftsplatzierung.Kabel
  0
LAYER
  5
DC
330
2
100
AcDbSymbolTableRecord
100
AcDbLayerTableRecord
  2
EPLAN515
 70
     0
 62
   251
  6
Continuous
370
    35
390
F
1001
AcAecLayerStandard
1000

1000
Eigenschaftsplatzierung.SPS-Adressen (Übersicht)
  0
LAYER
  5
DD
330
2
100
AcDbSymbolTableRecord
100
AcDbLayerTableRecord
  2
EPLAN516
 70
     0
 62
     1
  6
Continuous
370
    25
390
F
1001
AcAecLayerStandard
1000

1000
Symbolgrafik.Verbindungssymbole.Autoconnecting.Prozess-Medium
  0
LAYER
  5
DE
330
2
100
AcDbSymbolTableRecord
100
AcDbLayerTableRecord
  2
EPLAN517
 70
     0
 62
     1
  6
Continuous
370
    25
390
F
1001
AcAecLayerStandard
1000

1000
Symbolgrafik.Verbindungssymbole.Autoconnecting.Heiz- und Kühlmedium
  0
LAYER
  5
DF
330
2
100
AcDbSymbolTableRecord
100
AcDbLayerTableRecord
  2
EPLAN518
 70
     0
 62
    -7
  6
Continuous
290
     0
370
    35
390
F
1001
AcAecLayerStandard
1000

1000
Eigenschaftsplatzierung.Fluid-Leitungsverteiler / -verbinder.Anschlussbezeichnungen
  0
LAYER
  5
E0
330
2
100
AcDbSymbolTableRecord
100
AcDbLayerTableRecord
  2
EPLAN519
 70
     0
 62
     7
  6
Continuous
290
     0
370
    35
390
F
1001
AcAecLayerStandard
1000

1000
Grafik.Kommentare
  0
LAYER
  5
E1
330
2
100
AcDbSymbolTableRecord
100
AcDbLayerTableRecord
  2
EPLAN520
 70
     0
 62
    -7
  6
Continuous
290
     0
370
    35
390
F
1001
AcAecLayerStandard
1000

1000
Eigenschaftsplatzierung.Meldungstext
  0
LAYER
  5
E2
330
2
100
AcDbSymbolTableRecord
100
AcDbLayerTableRecord
  2
EPLAN521
 70
     0
 62
   140
  6
Continuous
370
    25
390
F
1001
AcAecLayerStandard
1000

1000
Symbolgrafik.Verbindungssymbole.Autoconnecting.Tankleitung
  0
LAYER
  5
E3
330
2
100
AcDbSymbolTableRecord
100
AcDbLayerTableRecord
  2
EPLAN522
 70
     0
 62
    70
  6
Continuous
370
    25
390
F
1001
AcAecLayerStandard
1000

1000
Symbolgrafik.Verbindungssymbole.Autoconnecting.Verbraucherleitung
  0
LAYER
  5
E5
330
2
100
AcDbSymbolTableRecord
100
AcDbLayerTableRecord
  2
EPLAN523
 70
     0
 62
     5
  6
EPL_DASH2
370
    25
390
F
1001
AcAecLayerStandard
1000

1000
Symbolgrafik.Verbindungssymbole.Autoconnecting.Steuerleitung intern
  0
LAYER
  5
E6
330
2
100
AcDbSymbolTableRecord
100
AcDbLayerTableRecord
  2
EPLAN524
 70
     0
 62
     5
  6
EPL_DASH
370
    25
390
F
1001
AcAecLayerStandard
1000

1000
Symbolgrafik.Verbindungssymbole.Autoconnecting.Leckölleitung intern
  0
LAYER
  5
E7
330
2
100
AcDbSymbolTableRecord
100
AcDbLayerTableRecord
  2
EPLAN525
 70
     0
 62
     5
  6
Continuous
370
    25
390
F
1001
AcAecLayerStandard
1000

1000
Symbolgrafik.Verbindungssymbole.Autoconnecting.Druckleitung intern
  0
LAYER
  5
E8
330
2
100
AcDbSymbolTableRecord
100
AcDbLayerTableRecord
  2
EPLAN526
 70
     0
 62
     5
  6
Continuous
370
    25
390
F
1001
AcAecLayerStandard
1000

1000
Symbolgrafik.Verbindungssymbole.Autoconnecting.Verbraucherleitung intern
  0
LAYER
  5
E9
330
2
100
AcDbSymbolTableRecord
100
AcDbLayerTableRecord
  2
EPLAN527
 70
     0
 62
     5
  6
Continuous
370
    25
390
F
1001
AcAecLayerStandard
1000

1000
Symbolgrafik.Verbindungssymbole.Autoconnecting.Tankleitung intern
  0
LAYER
  5
EA
330
2
100
AcDbSymbolTableRecord
100
AcDbLayerTableRecord
  2
EPLAN528
 70
     0
 62
     5
  6
Continuous
370
    25
390
F
1001
AcAecLayerStandard
1000

1000
Symbolgrafik.Verbindungssymbole.Autoconnecting.Heiz- und Kühlmedium intern
  0
LAYER
  5
EB
330
2
100
AcDbSymbolTableRecord
100
AcDbLayerTableRecord
  2
EPLAN529
 70
     0
 62
     5
  6
Continuous
370
    25
390
F
1001
AcAecLayerStandard
1000

1000
Symbolgrafik.Verbindungssymbole.Autoconnecting.Prozess-Medium intern
  0
LAYER
  5
EC
330
2
100
AcDbSymbolTableRecord
100
AcDbLayerTableRecord
  2
EPLAN531
 70
     0
 62
     1
  6
Continuous
370
    25
390
F
1001
AcAecLayerStandard
1000

1000
Symbolgrafik.Verbindungssymbole.Autoconnecting.Fluid undefiniert
  0
LAYER
  5
EE
330
2
100
AcDbSymbolTableRecord
100
AcDbLayerTableRecord
  2
EPLAN532
 70
     0
 62
     5
  6
EPL_DASHDOTDOT
370
   100
390
F
1001
AcAecLayerStandard
1000

1000
Symbolgrafik.Verbindungssymbole.Autoconnecting.Kabelbaum
  0
LAYER
  5
EF
330
2
100
AcDbSymbolTableRecord
100
AcDbLayerTableRecord
  2
EPLAN533
 70
     0
 62
     1
  6
Continuous
370
    25
390
F
1001
AcAecLayerStandard
1000

1000
Symbolgrafik.Verbindungssymbole.Autoconnecting.Stegbrücke
  0
LAYER
  5
F0
330
2
100
AcDbSymbolTableRecord
100
AcDbLayerTableRecord
  2
EPLAN540
 70
     0
 62
     1
  6
Continuous
370
    25
390
F
1001
AcAecLayerStandard
1000

1000
Symbolgrafik.Verbindungssymbole.Autoconnecting.Potenzialtyp [L]
  0
LAYER
  5
F1
330
2
100
AcDbSymbolTableRecord
100
AcDbLayerTableRecord
  2
EPLAN541
 70
     0
 62
     1
  6
Continuous
370
    25
390
F
1001
AcAecLayerStandard
1000

1000
Symbolgrafik.Verbindungssymbole.Autoconnecting.Potenzialtyp [N]
  0
LAYER
  5
F2
330
2
100
AcDbSymbolTableRecord
100
AcDbLayerTableRecord
  2
EPLAN542
 70
     0
 62
     1
  6
Continuous
370
    25
390
F
1001
AcAecLayerStandard
1000

1000
Symbolgrafik.Verbindungssymbole.Autoconnecting.Potenzialtyp [PE]
  0
LAYER
  5
F3
330
2
100
AcDbSymbolTableRecord
100
AcDbLayerTableRecord
  2
EPLAN543
 70
     0
 62
     1
  6
Continuous
370
    25
390
F
1001
AcAecLayerStandard
1000

1000
Symbolgrafik.Verbindungssymbole.Autoconnecting.Potenzialtyp [+]
  0
LAYER
  5
F4
330
2
100
AcDbSymbolTableRecord
100
AcDbLayerTableRecord
  2
EPLAN544
 70
     0
 62
     1
  6
Continuous
370
    25
390
F
1001
AcAecLayerStandard
1000

1000
Symbolgrafik.Verbindungssymbole.Autoconnecting.Potenzialtyp [M]
  0
LAYER
  5
F5
330
2
100
AcDbSymbolTableRecord
100
AcDbLayerTableRecord
  2
EPLAN545
 70
     0
 62
     1
  6
Continuous
370
    25
390
F
1001
AcAecLayerStandard
1000

1000
Symbolgrafik.Verbindungssymbole.Autoconnecting.Potenzialtyp [-]
  0
LAYER
  5
F6
330
2
100
AcDbSymbolTableRecord
100
AcDbLayerTableRecord
  2
EPLAN546
 70
     0
 62
     1
  6
Continuous
370
    25
390
F
1001
AcAecLayerStandard
1000

1000
Symbolgrafik.Verbindungssymbole.Autoconnecting.Potenzialtyp [SH]
  0
LAYER
  5
F7
330
2
100
AcDbSymbolTableRecord
100
AcDbLayerTableRecord
  2
EPLAN547
 70
     0
 62
     1
  6
Continuous
370
    25
390
F
1001
AcAecLayerStandard
1000

1000
Symbolgrafik.Verbindungssymbole.Autoconnecting.Potenzialtyp [PEN]
  0
LAYER
  5
F8
330
2
100
AcDbSymbolTableRecord
100
AcDbLayerTableRecord
  2
EPLAN550
 70
     0
 62
     5
  6
Continuous
370
    25
390
F
1001
AcAecLayerStandard
1000

1000
Symbolgrafik.Verbindungssymbole.Autoconnecting.Kabel
  0
LAYER
  5
F9
330
2
100
AcDbSymbolTableRecord
100
AcDbLayerTableRecord
  2
EPLAN551
 70
     0
 62
    -5
  6
Continuous
290
     0
370
    35
390
F
1001
AcAecLayerStandard
1000

1000
Eigenschaftsplatzierung.Platzhalterobjekte
  0
LAYER
  5
FA
330
2
100
AcDbSymbolTableRecord
100
AcDbLayerTableRecord
  2
EPLAN552
 70
     0
 62
     7
  6
Continuous
370
    35
390
F
1001
AcAecLayerStandard
1000

1000
Eigenschaftsplatzierung.Beschreibender Block.Zustandsfeld
  0
LAYER
  5
FB
330
2
100
AcDbSymbolTableRecord
100
AcDbLayerTableRecord
  2
EPLAN555
 70
     0
 62
    -1
  6
Continuous
290
     0
370
    25
390
F
1001
AcAecLayerStandard
1000

1000
Symbolgrafik.Verbindungssymbole.Abzweigung
  0
LAYER
  5
FC
330
2
100
AcDbSymbolTableRecord
100
AcDbLayerTableRecord
  2
EPLAN560
 70
     0
 62
   253
  6
Continuous
370
    50
390
F
1001
AcAecLayerStandard
1000

1000
3D-Grafik.Schrank
  0
LAYER
  5
FD
330
2
100
AcDbSymbolTableRecord
100
AcDbLayerTableRecord
  2
EPLAN561
 70
     0
 62
   253
  6
Continuous
370
    50
390
F
1001
AcAecLayerStandard
1000

1000
3D-Grafik.Schrank.Montageplatte
  0
LAYER
  5
FE
330
2
100
AcDbSymbolTableRecord
100
AcDbLayerTableRecord
  2
EPLAN562
 70
     0
 62
   252
  6
Continuous
370
    50
390
F
1001
AcAecLayerStandard
1000

1000
3D-Grafik.Betriebsmittel
  0
LAYER
  5
FF
330
2
100
AcDbSymbolTableRecord
100
AcDbLayerTableRecord
  2
EPLAN563
 70
     0
 62
    12
  6
Continuous
370
    50
390
F
1001
AcAecLayerStandard
1000

1000
3D-Grafik.Verdrahtungskanal
  0
LAYER
  5
100
330
2
100
AcDbSymbolTableRecord
100
AcDbLayerTableRecord
  2
EPLAN564
 70
     0
 62
    30
  6
Continuous
370
    50
390
F
1001
AcAecLayerStandard
1000

1000
3D-Grafik.Schienen.Tragschiene
  0
LAYER
  5
101
330
2
100
AcDbSymbolTableRecord
100
AcDbLayerTableRecord
  2
EPLAN565
 70
     0
 62
   135
  6
Continuous
370
    50
390
F
1001
AcAecLayerStandard
1000

1000
3D-Grafik.Schienen.C-Profilschiene
  0
LAYER
  5
102
330
2
100
AcDbSymbolTableRecord
100
AcDbLayerTableRecord
  2
EPLAN566
 70
     0
 62
     9
  6
Continuous
370
    50
390
F
1001
AcAecLayerStandard
1000

1000
3D-Grafik.Schienen.Benutzerdefinierte Schiene
  0
LAYER
  5
103
330
2
100
AcDbSymbolTableRecord
100
AcDbLayerTableRecord
  2
EPLAN567
 70
     0
 62
     9
  6
Continuous
370
    50
390
F
1001
AcAecLayerStandard
1000

1000
3D-Grafik.Sammelschienen.Sammelschiene
  0
LAYER
  5
104
330
2
100
AcDbSymbolTableRecord
100
AcDbLayerTableRecord
  2
EPLAN568
 70
     0
 62
     9
  6
Continuous
370
    50
390
F
1001
AcAecLayerStandard
1000

1000
3D-Grafik.Sammelschienen.Halter
  0
LAYER
  5
105
330
2
100
AcDbSymbolTableRecord
100
AcDbLayerTableRecord
  2
EPLAN571
 70
     0
 62
   211
  6
Continuous
370
    50
390
F
1001
AcAecLayerStandard
1000

1000
3D-Grafik.Sperrfläche
  0
LAYER
  5
106
330
2
100
AcDbSymbolTableRecord
100
AcDbLayerTableRecord
  2
EPLAN572
 70
     0
 62
    81
  6
Continuous
370
    50
390
F
1001
AcAecLayerStandard
1000

1000
3D-Grafik.Sperrfläche.Bohrsperrfläche
  0
LAYER
  5
107
330
2
100
AcDbSymbolTableRecord
100
AcDbLayerTableRecord
  2
EPLAN575
 70
     0
 62
     1
  6
Continuous
370
    50
390
F
1001
AcAecLayerStandard
1000

1000
3D-Grafik.Einbauabstand
  0
LAYER
  5
108
330
2
100
AcDbSymbolTableRecord
100
AcDbLayerTableRecord
  2
EPLAN576
 70
     0
 62
     7
  6
Continuous
370
    20
390
F
1001
AcAecLayerStandard
1000

1000
Grafik.Gelöschte Objekte
  0
LAYER
  5
109
330
2
100
AcDbSymbolTableRecord
100
AcDbLayerTableRecord
  2
EPLAN577
 70
     0
 62
     7
  6
Continuous
290
     0
370
    18
390
F
1001
AcAecLayerStandard
1000

1000
Grafik.Modell-Ansicht
  0
LAYER
  5
10A
330
2
100
AcDbSymbolTableRecord
100
AcDbLayerTableRecord
  2
EPLAN578
 70
     0
 62
     7
  6
Continuous
370
    50
390
F
1001
AcAecLayerStandard
1000

1000
Eigenschaftsplatzierung.Modell-Ansicht
  0
LAYER
  5
10B
330
2
100
AcDbSymbolTableRecord
100
AcDbLayerTableRecord
  2
EPLAN579
 70
     0
 62
     5
  6
Continuous
370
    35
390
F
1001
AcAecLayerStandard
1000

1000
Eigenschaftsplatzierung.3D-Artikelplatzierung.Artikelnummern.Betriebsmittel
  0
LAYER
  5
10C
330
2
100
AcDbSymbolTableRecord
100
AcDbLayerTableRecord
  2
EPLAN580
 70
     0
 62
     5
  6
Continuous
370
    35
390
F
1001
AcAecLayerStandard
1000

1000
Eigenschaftsplatzierung.3D-Artikelplatzierung.Artikelnummern.Schaltschrank
  0
LAYER
  5
10D
330
2
100
AcDbSymbolTableRecord
100
AcDbLayerTableRecord
  2
EPLAN581
 70
     0
 62
     5
  6
Continuous
370
    35
390
F
1001
AcAecLayerStandard
1000

1000
Eigenschaftsplatzierung.3D-Artikelplatzierung.Artikelnummern.Schiene / Verdrahtungskanal
  0
LAYER
  5
10E
330
2
100
AcDbSymbolTableRecord
100
AcDbLayerTableRecord
  2
EPLAN582
 70
     0
 62
     5
  6
Continuous
370
    35
390
F
1001
AcAecLayerStandard
1000

1000
Eigenschaftsplatzierung.3D-Artikelplatzierung.Artikelnummern.Systemzubehör
  0
LAYER
  5
10F
330
2
100
AcDbSymbolTableRecord
100
AcDbLayerTableRecord
  2
EPLAN583
 70
     0
 62
     5
  6
Continuous
370
    35
390
F
1001
AcAecLayerStandard
1000

1000
Eigenschaftsplatzierung.3D-Artikelplatzierung.BMK.Betriebsmittel
  0
LAYER
  5
110
330
2
100
AcDbSymbolTableRecord
100
AcDbLayerTableRecord
  2
EPLAN584
 70
     0
 62
     5
  6
Continuous
370
    35
390
F
1001
AcAecLayerStandard
1000

1000
Eigenschaftsplatzierung.3D-Artikelplatzierung.BMK.Schaltschrank
  0
LAYER
  5
111
330
2
100
AcDbSymbolTableRecord
100
AcDbLayerTableRecord
  2
EPLAN585
 70
     0
 62
     5
  6
Continuous
370
    35
390
F
1001
AcAecLayerStandard
1000

1000
Eigenschaftsplatzierung.3D-Artikelplatzierung.BMK.Schiene / Verdrahtungskanal
  0
LAYER
  5
112
330
2
100
AcDbSymbolTableRecord
100
AcDbLayerTableRecord
  2
EPLAN586
 70
     0
 62
     5
  6
Continuous
370
    35
390
F
1001
AcAecLayerStandard
1000

1000
Eigenschaftsplatzierung.3D-Artikelplatzierung.BMK.Systemzubehör
  0
LAYER
  5
113
330
2
100
AcDbSymbolTableRecord
100
AcDbLayerTableRecord
  2
EPLAN587
 70
     0
 62
     5
  6
Continuous
370
    35
390
F
1001
AcAecLayerStandard
1000

1000
Eigenschaftsplatzierung.3D-Artikelplatzierung.Bauteilbezeichnung.Schaltschrank
  0
LAYER
  5
114
330
2
100
AcDbSymbolTableRecord
100
AcDbLayerTableRecord
  2
EPLAN588
 70
     0
 62
     5
  6
Continuous
370
    35
390
F
1001
AcAecLayerStandard
1000

1000
Eigenschaftsplatzierung.3D-Artikelplatzierung.Bauteilbezeichnung.Schiene / Verdrahtungskanal
  0
LAYER
  5
115
330
2
100
AcDbSymbolTableRecord
100
AcDbLayerTableRecord
  2
EPLAN589
 70
     0
 62
     5
  6
Continuous
370
    35
390
F
1001
AcAecLayerStandard
1000

1000
Eigenschaftsplatzierung.3D-Artikelplatzierung.Bauteilbezeichnung.Systemzubehör
  0
LAYER
  5
116
330
2
100
AcDbSymbolTableRecord
100
AcDbLayerTableRecord
  2
EPLAN590
 70
     0
 62
     5
  6
Continuous
370
    35
390
F
1001
AcAecLayerStandard
1000

1000
Eigenschaftsplatzierung.3D-Artikelplatzierung.Legendenindizes.Betriebsmittel
  0
LAYER
  5
117
330
2
100
AcDbSymbolTableRecord
100
AcDbLayerTableRecord
  2
EPLAN591
 70
     0
 62
     5
  6
Continuous
370
    35
390
F
1001
AcAecLayerStandard
1000

1000
Eigenschaftsplatzierung.3D-Artikelplatzierung.Legendenindizes.Schaltschrank
  0
LAYER
  5
118
330
2
100
AcDbSymbolTableRecord
100
AcDbLayerTableRecord
  2
EPLAN592
 70
     0
 62
     5
  6
Continuous
370
    35
390
F
1001
AcAecLayerStandard
1000

1000
Eigenschaftsplatzierung.3D-Artikelplatzierung.Legendenindizes.Schiene / Verdrahtungskanal
  0
LAYER
  5
119
330
2
100
AcDbSymbolTableRecord
100
AcDbLayerTableRecord
  2
EPLAN593
 70
     0
 62
     5
  6
Continuous
370
    35
390
F
1001
AcAecLayerStandard
1000

1000
Eigenschaftsplatzierung.3D-Artikelplatzierung.Legendenindizes.Systemzubehör
  0
LAYER
  5
11A
330
2
100
AcDbSymbolTableRecord
100
AcDbLayerTableRecord
  2
EPLAN594
 70
     0
 62
     5
  6
Continuous
370
    35
390
F
1001
AcAecLayerStandard
1000

1000
Eigenschaftsplatzierung.3D-Artikelplatzierung.Typbezeichnungen.Betriebsmittel
  0
LAYER
  5
11B
330
2
100
AcDbSymbolTableRecord
100
AcDbLayerTableRecord
  2
EPLAN595
 70
     0
 62
     5
  6
Continuous
370
    35
390
F
1001
AcAecLayerStandard
1000

1000
Eigenschaftsplatzierung.3D-Artikelplatzierung.Typbezeichnungen.Schaltschrank
  0
LAYER
  5
11C
330
2
100
AcDbSymbolTableRecord
100
AcDbLayerTableRecord
  2
EPLAN596
 70
     0
 62
     5
  6
Continuous
370
    35
390
F
1001
AcAecLayerStandard
1000

1000
Eigenschaftsplatzierung.3D-Artikelplatzierung.Typbezeichnungen.Schiene / Verdrahtungskanal
  0
LAYER
  5
11D
330
2
100
AcDbSymbolTableRecord
100
AcDbLayerTableRecord
  2
EPLAN597
 70
     0
 62
     5
  6
Continuous
370
    35
390
F
1001
AcAecLayerStandard
1000

1000
Eigenschaftsplatzierung.3D-Artikelplatzierung.Typbezeichnungen.Systemzubehör
  0
LAYER
  5
11E
330
2
100
AcDbSymbolTableRecord
100
AcDbLayerTableRecord
  2
EPLAN598
 70
     0
 62
     5
  6
Continuous
370
    35
390
F
1001
AcAecLayerStandard
1000

1000
Eigenschaftsplatzierung.3D-Artikelplatzierung.BMK.Klemme
  0
LAYER
  5
11F
330
2
100
AcDbSymbolTableRecord
100
AcDbLayerTableRecord
  2
EPLAN599
 70
     0
 62
    -1
  6
Continuous
290
     0
370
    50
390
F
1001
AcAecLayerStandard
1000

1000
3D-Grafik.Einbaufläche.Bauteil
  0
LAYER
  5
120
330
2
100
AcDbSymbolTableRecord
100
AcDbLayerTableRecord
  2
EPLAN620
 70
     0
 62
     3
  6
Continuous
370
    50
390
F
1001
AcAecLayerStandard
1000

1000
3D-Grafik.Einbaufläche.Makro
  0
LAYER
  5
121
330
2
100
AcDbSymbolTableRecord
100
AcDbLayerTableRecord
  2
EPLAN621
 70
     0
 62
     7
  6
Continuous
370
    50
390
F
1001
AcAecLayerStandard
1000

1000
Eigenschaftsplatzierung.Modell-Ansicht.Artikelnummern.Betriebsmittel
  0
LAYER
  5
122
330
2
100
AcDbSymbolTableRecord
100
AcDbLayerTableRecord
  2
EPLAN622
 70
     0
 62
     7
  6
Continuous
370
    50
390
F
1001
AcAecLayerStandard
1000

1000
Eigenschaftsplatzierung.Modell-Ansicht.Artikelnummern.Schaltschrank
  0
LAYER
  5
123
330
2
100
AcDbSymbolTableRecord
100
AcDbLayerTableRecord
  2
EPLAN623
 70
     0
 62
     7
  6
Continuous
370
    50
390
F
1001
AcAecLayerStandard
1000

1000
Eigenschaftsplatzierung.Modell-Ansicht.Artikelnummern.Schiene/Verdrahtungskanal
  0
LAYER
  5
124
330
2
100
AcDbSymbolTableRecord
100
AcDbLayerTableRecord
  2
EPLAN624
 70
     0
 62
     7
  6
Continuous
370
    50
390
F
1001
AcAecLayerStandard
1000

1000
Eigenschaftsplatzierung.Modell-Ansicht.Artikelnummern.Systemzubehör
  0
LAYER
  5
125
330
2
100
AcDbSymbolTableRecord
100
AcDbLayerTableRecord
  2
EPLAN625
 70
     0
 62
     7
  6
Continuous
370
    50
390
F
1001
AcAecLayerStandard
1000

1000
Eigenschaftsplatzierung.Modell-Ansicht.BMK.Betriebsmittel
  0
LAYER
  5
126
330
2
100
AcDbSymbolTableRecord
100
AcDbLayerTableRecord
  2
EPLAN626
 70
     0
 62
     7
  6
Continuous
370
    50
390
F
1001
AcAecLayerStandard
1000

1000
Eigenschaftsplatzierung.Modell-Ansicht.BMK.Klemme
  0
LAYER
  5
127
330
2
100
AcDbSymbolTableRecord
100
AcDbLayerTableRecord
  2
EPLAN627
 70
     0
 62
     7
  6
Continuous
370
    50
390
F
1001
AcAecLayerStandard
1000

1000
Eigenschaftsplatzierung.Modell-Ansicht.BMK.Schaltschrank
  0
LAYER
  5
128
330
2
100
AcDbSymbolTableRecord
100
AcDbLayerTableRecord
  2
EPLAN628
 70
     0
 62
     7
  6
Continuous
370
    50
390
F
1001
AcAecLayerStandard
1000

1000
Eigenschaftsplatzierung.Modell-Ansicht.BMK.Schiene/Verdrahtungskanal
  0
LAYER
  5
129
330
2
100
AcDbSymbolTableRecord
100
AcDbLayerTableRecord
  2
EPLAN629
 70
     0
 62
     7
  6
Continuous
370
    50
390
F
1001
AcAecLayerStandard
1000

1000
Eigenschaftsplatzierung.Modell-Ansicht.BMK.Systemzubehör
  0
LAYER
  5
12A
330
2
100
AcDbSymbolTableRecord
100
AcDbLayerTableRecord
  2
EPLAN630
 70
     0
 62
     7
  6
Continuous
370
    50
390
F
1001
AcAecLayerStandard
1000

1000
Eigenschaftsplatzierung.Modell-Ansicht.Bauteilbezeichnung.Schaltschrank
  0
LAYER
  5
12B
330
2
100
AcDbSymbolTableRecord
100
AcDbLayerTableRecord
  2
EPLAN631
 70
     0
 62
     7
  6
Continuous
370
    50
390
F
1001
AcAecLayerStandard
1000

1000
Eigenschaftsplatzierung.Modell-Ansicht.Bauteilbezeichnung.Schiene/Verdrahtungskanal
  0
LAYER
  5
12C
330
2
100
AcDbSymbolTableRecord
100
AcDbLayerTableRecord
  2
EPLAN632
 70
     0
 62
     7
  6
Continuous
370
    50
390
F
1001
AcAecLayerStandard
1000

1000
Eigenschaftsplatzierung.Modell-Ansicht.Bauteilbezeichnung.Systemzubehör
  0
LAYER
  5
12D
330
2
100
AcDbSymbolTableRecord
100
AcDbLayerTableRecord
  2
EPLAN633
 70
     0
 62
     7
  6
Continuous
370
    50
390
F
1001
AcAecLayerStandard
1000

1000
Eigenschaftsplatzierung.Modell-Ansicht.Legendenindizes.Betriebsmittel
  0
LAYER
  5
12E
330
2
100
AcDbSymbolTableRecord
100
AcDbLayerTableRecord
  2
EPLAN634
 70
     0
 62
     7
  6
Continuous
370
    50
390
F
1001
AcAecLayerStandard
1000

1000
Eigenschaftsplatzierung.Modell-Ansicht.Legendenindizes.Schaltschrank
  0
LAYER
  5
12F
330
2
100
AcDbSymbolTableRecord
100
AcDbLayerTableRecord
  2
EPLAN635
 70
     0
 62
     7
  6
Continuous
370
    50
390
F
1001
AcAecLayerStandard
1000

1000
Eigenschaftsplatzierung.Modell-Ansicht.Legendenindizes.Schiene/Verdrahtungskanal
  0
LAYER
  5
130
330
2
100
AcDbSymbolTableRecord
100
AcDbLayerTableRecord
  2
EPLAN636
 70
     0
 62
     7
  6
Continuous
370
    50
390
F
1001
AcAecLayerStandard
1000

1000
Eigenschaftsplatzierung.Modell-Ansicht.Legendenindizes.Systemzubehör
  0
LAYER
  5
131
330
2
100
AcDbSymbolTableRecord
100
AcDbLayerTableRecord
  2
EPLAN637
 70
     0
 62
     7
  6
Continuous
370
    50
390
F
1001
AcAecLayerStandard
1000

1000
Eigenschaftsplatzierung.Modell-Ansicht.Typbezeichnungen.Betriebsmittel
  0
LAYER
  5
132
330
2
100
AcDbSymbolTableRecord
100
AcDbLayerTableRecord
  2
EPLAN638
 70
     0
 62
     7
  6
Continuous
370
    50
390
F
1001
AcAecLayerStandard
1000

1000
Eigenschaftsplatzierung.Modell-Ansicht.Typbezeichnungen.Schaltschrank
  0
LAYER
  5
133
330
2
100
AcDbSymbolTableRecord
100
AcDbLayerTableRecord
  2
EPLAN639
 70
     0
 62
     7
  6
Continuous
370
    50
390
F
1001
AcAecLayerStandard
1000

1000
Eigenschaftsplatzierung.Modell-Ansicht.Typbezeichnungen.Schiene/Verdrahtungskanal
  0
LAYER
  5
134
330
2
100
AcDbSymbolTableRecord
100
AcDbLayerTableRecord
  2
EPLAN640
 70
     0
 62
     7
  6
Continuous
370
    50
390
F
1001
AcAecLayerStandard
1000

1000
Eigenschaftsplatzierung.Modell-Ansicht.Typbezeichnungen.Systemzubehör
  0
LAYER
  5
135
330
2
100
AcDbSymbolTableRecord
100
AcDbLayerTableRecord
  2
EPLAN641
 70
     0
 62
     5
  6
Continuous
370
    35
390
F
1001
AcAecLayerStandard
1000

1000
Eigenschaftsplatzierung.3D-Artikelplatzierung.Artikelnummern.Sammelschiene
  0
LAYER
  5
136
330
2
100
AcDbSymbolTableRecord
100
AcDbLayerTableRecord
  2
EPLAN642
 70
     0
 62
     5
  6
Continuous
370
    35
390
F
1001
AcAecLayerStandard
1000

1000
Eigenschaftsplatzierung.3D-Artikelplatzierung.BMK.Sammelschiene
  0
LAYER
  5
137
330
2
100
AcDbSymbolTableRecord
100
AcDbLayerTableRecord
  2
EPLAN643
 70
     0
 62
     5
  6
Continuous
370
    35
390
F
1001
AcAecLayerStandard
1000

1000
Eigenschaftsplatzierung.3D-Artikelplatzierung.Bauteilbezeichnung.Sammelschiene
  0
LAYER
  5
138
330
2
100
AcDbSymbolTableRecord
100
AcDbLayerTableRecord
  2
EPLAN644
 70
     0
 62
     5
  6
Continuous
370
    35
390
F
1001
AcAecLayerStandard
1000

1000
Eigenschaftsplatzierung.3D-Artikelplatzierung.Legendenindizes.Sammelschiene
  0
LAYER
  5
139
330
2
100
AcDbSymbolTableRecord
100
AcDbLayerTableRecord
  2
EPLAN645
 70
     0
 62
     5
  6
Continuous
370
    35
390
F
1001
AcAecLayerStandard
1000

1000
Eigenschaftsplatzierung.3D-Artikelplatzierung.Typbezeichnungen.Sammelschiene
  0
LAYER
  5
13A
330
2
100
AcDbSymbolTableRecord
100
AcDbLayerTableRecord
  2
EPLAN646
 70
     0
 62
     5
  6
Continuous
370
    35
390
F
1001
AcAecLayerStandard
1000

1000
Eigenschaftsplatzierung.Modell-Ansicht.Artikelnummern.Sammelschiene
  0
LAYER
  5
13B
330
2
100
AcDbSymbolTableRecord
100
AcDbLayerTableRecord
  2
EPLAN647
 70
     0
 62
     5
  6
Continuous
370
    35
390
F
1001
AcAecLayerStandard
1000

1000
Eigenschaftsplatzierung.Modell-Ansicht.BMK.Sammelschiene
  0
LAYER
  5
13C
330
2
100
AcDbSymbolTableRecord
100
AcDbLayerTableRecord
  2
EPLAN648
 70
     0
 62
     5
  6
Continuous
370
    35
390
F
1001
AcAecLayerStandard
1000

1000
Eigenschaftsplatzierung.Modell-Ansicht.Bauteilbezeichnung.Sammelschiene
  0
LAYER
  5
13D
330
2
100
AcDbSymbolTableRecord
100
AcDbLayerTableRecord
  2
EPLAN649
 70
     0
 62
     5
  6
Continuous
370
    35
390
F
1001
AcAecLayerStandard
1000

1000
Eigenschaftsplatzierung.Modell-Ansicht.Legendenindizes.Sammelschiene
  0
LAYER
  5
13E
330
2
100
AcDbSymbolTableRecord
100
AcDbLayerTableRecord
  2
EPLAN650
 70
     0
 62
     5
  6
Continuous
370
    35
390
F
1001
AcAecLayerStandard
1000

1000
Eigenschaftsplatzierung.Modell-Ansicht.Typbezeichnungen.Sammelschiene
  0
LAYER
  5
13F
330
2
100
AcDbSymbolTableRecord
100
AcDbLayerTableRecord
  2
EPLAN651
 70
     0
 62
     7
  6
Continuous
370
    18
390
F
1001
AcAecLayerStandard
1000

1000
Grafik.Abwicklung
  0
LAYER
  5
140
330
2
100
AcDbSymbolTableRecord
100
AcDbLayerTableRecord
  2
EPLAN652
 70
     0
 62
     7
  6
EPL_DASHDOT
370
    18
390
F
1001
AcAecLayerStandard
1000

1000
Grafik.Abwicklung.Biegungslinie
  0
LAYER
  5
142
330
2
100
AcDbSymbolTableRecord
100
AcDbLayerTableRecord
  2
EPLAN653
 70
     0
 62
     7
  6
EPL_DOT
370
    18
390
F
1001
AcAecLayerStandard
1000

1000
Grafik.Abwicklung.Biegungsende
  0
LAYER
  5
143
330
2
100
AcDbSymbolTableRecord
100
AcDbLayerTableRecord
  2
EPLAN654
 70
     0
 62
     7
  6
Continuous
370
    18
390
F
1001
AcAecLayerStandard
1000

1000
Grafik.Abwicklung.Biegungshinweis
  0
LAYER
  5
144
330
2
100
AcDbSymbolTableRecord
100
AcDbLayerTableRecord
  2
EPLAN655
 70
     0
 62
     7
  6
Continuous
370
    18
390
F
1001
AcAecLayerStandard
1000

1000
Eigenschaftsplatzierung.Abwicklung
  0
LAYER
  5
145
330
2
100
AcDbSymbolTableRecord
100
AcDbLayerTableRecord
  2
EPLAN656
 70
     0
 62
     7
  6
EPL_DASHDOT
370
    18
390
F
1001
AcAecLayerStandard
1000

1000
Grafik.Abwicklung.Hilfslinie
  0
LAYER
  5
146
330
2
100
AcDbSymbolTableRecord
100
AcDbLayerTableRecord
  2
EPLAN657
 70
     0
 62
     7
  6
Continuous
370
    18
390
F
1001
AcAecLayerStandard
1000

1000
Grafik.Abwicklung.Kupfer
  0
LAYER
  5
147
330
2
100
AcDbSymbolTableRecord
100
AcDbLayerTableRecord
  2
EPLAN660
 70
     0
 62
     1
  6
Continuous
370
    50
390
F
1001
AcAecLayerStandard
1000

1000
3D-Grafik.Durchbrüche.Bohrung
  0
LAYER
  5
148
330
2
100
AcDbSymbolTableRecord
100
AcDbLayerTableRecord
  2
EPLAN661
 70
     0
 62
    30
  6
Continuous
370
    50
390
F
1001
AcAecLayerStandard
1000

1000
3D-Grafik.Durchbrüche.Gewindebohrung
  0
LAYER
  5
149
330
2
100
AcDbSymbolTableRecord
100
AcDbLayerTableRecord
  2
EPLAN662
 70
     0
 62
     1
  6
Continuous
370
    50
390
F
1001
AcAecLayerStandard
1000

1000
3D-Grafik.Durchbrüche.Standardkontur
  0
LAYER
  5
14A
330
2
100
AcDbSymbolTableRecord
100
AcDbLayerTableRecord
  2
EPLAN663
 70
     0
 62
     1
  6
Continuous
370
    50
390
F
1001
AcAecLayerStandard
1000

1000
3D-Grafik.Durchbrüche.Benutzerdefinierte Kontur
  0
LAYER
  5
14B
330
2
100
AcDbSymbolTableRecord
100
AcDbLayerTableRecord
  2
EPLAN664
 70
     0
 62
     1
  6
Continuous
370
    50
390
F
1001
AcAecLayerStandard
1000

1000
3D-Grafik.Durchbrüche.Feldgröße
  0
LAYER
  5
14C
330
2
100
AcDbSymbolTableRecord
100
AcDbLayerTableRecord
  2
EPLAN665
 70
     0
 62
     4
  6
Continuous
370
    50
390
F
1001
AcAecLayerStandard
1000

1000
3D-Grafik.Durchbrüche.Vererbte Durchbrüche
  0
LAYER
  5
14D
330
2
100
AcDbSymbolTableRecord
100
AcDbLayerTableRecord
  2
EPLAN670
 70
     0
 62
     7
  6
Continuous
370
    35
390
F
1001
AcAecLayerStandard
1000

1000
Grafik.Bohrschablone.Feld
  0
LAYER
  5
14E
330
2
100
AcDbSymbolTableRecord
100
AcDbLayerTableRecord
  2
EPLAN671
 70
     0
 62
   140
  6
Continuous
370
    35
390
F
1001
AcAecLayerStandard
1000

1000
Grafik.Bohrschablone.Bauteil
  0
LAYER
  5
14F
330
2
100
AcDbSymbolTableRecord
100
AcDbLayerTableRecord
  2
EPLAN672
 70
     0
 62
    30
  6
Continuous
370
    35
390
F
1001
AcAecLayerStandard
1000

1000
Grafik.Bohrschablone.Mechanische Bearbeitung
  0
LAYER
  5
150
330
2
100
AcDbSymbolTableRecord
100
AcDbLayerTableRecord
  2
EPLAN673
 70
     0
 62
    73
  6
Continuous
370
    35
390
F
1001
AcAecLayerStandard
1000

1000
Grafik.Bohrschablone.Sonstiges
  0
LAYER
  5
151
330
2
100
AcDbSymbolTableRecord
100
AcDbLayerTableRecord
  2
EPLAN675
 70
     0
 62
     7
  6
Continuous
370
    18
390
F
1001
AcAecLayerStandard
1000

1000
Grafik.Bohransicht
  0
LAYER
  5
152
330
2
100
AcDbSymbolTableRecord
100
AcDbLayerTableRecord
  2
EPLAN676
 70
     0
 62
   140
  6
Continuous
370
    35
390
F
1001
AcAecLayerStandard
1000

1000
Grafik.Bohransicht.Bauteil
  0
LAYER
  5
153
330
2
100
AcDbSymbolTableRecord
100
AcDbLayerTableRecord
  2
EPLAN677
 70
     0
 62
    30
  6
Continuous
370
    35
390
F
1001
AcAecLayerStandard
1000

1000
Grafik.Bohransicht.Mechanische Bearbeitung
  0
LAYER
  5
154
330
2
100
AcDbSymbolTableRecord
100
AcDbLayerTableRecord
  2
EPLAN678
 70
     0
 62
     7
  6
Continuous
370
    35
390
F
1001
AcAecLayerStandard
1000

1000
Grafik.Bohransicht.Montagefläche
  0
LAYER
  5
155
330
2
100
AcDbSymbolTableRecord
100
AcDbLayerTableRecord
  2
EPLAN679
 70
     0
 62
     7
  6
Continuous
370
    18
390
F
1001
AcAecLayerStandard
1000

1000
Eigenschaftsplatzierung.Bohransicht
  0
LAYER
  5
156
330
2
100
AcDbSymbolTableRecord
100
AcDbLayerTableRecord
  2
EPLAN680
 70
     0
 62
   153
  6
Continuous
370
    50
390
F
1001
AcAecLayerStandard
1000

1000
3D-Grafik.Verbindungen.Verlegte Verbindungen
  0
LAYER
  5
157
330
2
100
AcDbSymbolTableRecord
100
AcDbLayerTableRecord
  2
EPLAN681
 70
     0
 62
    13
  6
Continuous
370
    50
390
F
1001
AcAecLayerStandard
1000

1000
3D-Grafik.Verbindungen.Nicht verlegte Verbindungen
  0
LAYER
  5
158
330
2
100
AcDbSymbolTableRecord
100
AcDbLayerTableRecord
  2
EPLAN682
 70
     0
 62
     1
  6
Continuous
370
    50
390
F
1001
AcAecLayerStandard
1000

1000
3D-Grafik.Anschlüsse
  0
LAYER
  5
159
330
2
100
AcDbSymbolTableRecord
100
AcDbLayerTableRecord
  2
EPLAN684
 70
     0
 62
     5
  6
Continuous
370
    50
390
F
1001
AcAecLayerStandard
1000

1000
3D-Grafik.Verbindungen.Strecke
  0
LAYER
  5
15A
330
2
100
AcDbSymbolTableRecord
100
AcDbLayerTableRecord
  2
EPLAN685
 70
     0
 62
     1
  6
Continuous
370
    50
390
F
1001
AcAecLayerStandard
1000

1000
3D-Grafik.Verbindungen.Verlegebereich
  0
LAYER
  5
15B
330
2
100
AcDbSymbolTableRecord
100
AcDbLayerTableRecord
  2
EPLAN686
 70
     0
 62
    13
  6
Continuous
370
    50
390
F
1001
AcAecLayerStandard
1000

1000
3D-Grafik.Verbindungen.Verdrahtungsdurchbruch
  0
LAYER
  5
15C
330
2
100
AcDbSymbolTableRecord
100
AcDbLayerTableRecord
  2
EPLAN687
 70
     0
 62
   255
  6
Continuous
370
    50
390
F
1001
AcAecLayerStandard
1000

1000
3D-Grafik.Verbindungen.Modifikationspunkte
  0
LAYER
  5
15D
330
2
100
AcDbSymbolTableRecord
100
AcDbLayerTableRecord
  2
EPLAN690
 70
     0
 62
     7
  6
Continuous
370
    50
390
F
1001
AcAecLayerStandard
1000

1000
3D-Grafik.Linie
  0
LAYER
  5
15E
330
2
100
AcDbSymbolTableRecord
100
AcDbLayerTableRecord
  2
EPLAN700
 70
     0
 62
    12
  6
Continuous
370
    50
390
F
1001
AcAecLayerStandard
1000

1000
Symbolgrafik.Topologie.Strecke
  0
LAYER
  5
15F
330
2
100
AcDbSymbolTableRecord
100
AcDbLayerTableRecord
  2
EPLAN701
 70
     0
 62
    12
  6
Continuous
370
    50
390
F
1001
AcAecLayerStandard
1000

1000
Symbolgrafik.Topologie.Verlegepunkt
  0
LAYER
  5
160
330
2
100
AcDbSymbolTableRecord
100
AcDbLayerTableRecord
  2
EPLAN703
 70
     0
 62
    30
  6
Continuous
370
    13
390
F
1001
AcAecLayerStandard
1000

1000
Symbolgrafik.Topologie.Verbindung.unverlegt (Direktlinie)
  0
LAYER
  5
161
330
2
100
AcDbSymbolTableRecord
100
AcDbLayerTableRecord
  2
EPLAN704
 70
     0
 62
     6
  6
Continuous
370
    50
390
F
1001
AcAecLayerStandard
1000

1000
Symbolgrafik.Topologie.Verbindung.verlegt
  0
LAYER
  5
162
330
2
100
AcDbSymbolTableRecord
100
AcDbLayerTableRecord
  2
EPLAN705
 70
     0
 62
     9
  6
Continuous
370
    25
390
F
1001
AcAecLayerStandard
1000

1000
Grafik.Hintergrundbild
  0
LAYER
  5
163
330
2
100
AcDbSymbolTableRecord
100
AcDbLayerTableRecord
  2
EPLAN706
 70
     0
 62
     5
  6
Continuous
370
    25
390
F
1001
AcAecLayerStandard
1000

1000
Symbolgrafik.Topologie.Funktion
  0
LAYER
  5
164
330
2
100
AcDbSymbolTableRecord
100
AcDbLayerTableRecord
  2
EPLAN707
 70
     0
 62
    30
  6
Continuous
370
    35
390
F
1001
AcAecLayerStandard
1000

1000
Symbolgrafik.Topologie.Strecke automatisch
  0
LAYER
  5
165
330
2
100
AcDbSymbolTableRecord
100
AcDbLayerTableRecord
  2
EPLAN710
 70
     0
 62
     5
  6
Continuous
370
    35
390
F
1001
AcAecLayerStandard
1000

1000
Eigenschaftsplatzierung.Topologie.Strecke.BMK
  0
LAYER
  5
166
330
2
100
AcDbSymbolTableRecord
100
AcDbLayerTableRecord
  2
EPLAN711
 70
     0
 62
     5
  6
Continuous
370
    35
390
F
1001
AcAecLayerStandard
1000

1000
Eigenschaftsplatzierung.Topologie.Verlegepunkt.BMK
  0
LAYER
  5
167
330
2
100
AcDbSymbolTableRecord
100
AcDbLayerTableRecord
  2
EPLAN712
 70
     0
 62
     5
  6
Continuous
370
    35
390
F
1001
AcAecLayerStandard
1000

1000
Eigenschaftsplatzierung.Topologie.Ziele.BMK
  0
LAYER
  5
168
330
2
100
AcDbSymbolTableRecord
100
AcDbLayerTableRecord
  2
EPLAN713
 70
     0
 62
     5
  6
Continuous
370
    35
390
F
1001
AcAecLayerStandard
1000

1000
Eigenschaftsplatzierung.Topologie.Abbruchstelle.BMK
  0
LAYER
  5
169
330
2
100
AcDbSymbolTableRecord
100
AcDbLayerTableRecord
  2
EPLAN714
 70
     0
 62
     7
  6
Continuous
370
    35
390
F
1001
AcAecLayerStandard
1000

1000
Eigenschaftsplatzierung.Topologie.Strecke.Beschreibender Block
  0
LAYER
  5
16A
330
2
100
AcDbSymbolTableRecord
100
AcDbLayerTableRecord
  2
EPLAN715
 70
     0
 62
     7
  6
Continuous
370
    35
390
F
1001
AcAecLayerStandard
1000

1000
Eigenschaftsplatzierung.Topologie.Verlegepunkt.Beschreibender Block
  0
LAYER
  5
16B
330
2
100
AcDbSymbolTableRecord
100
AcDbLayerTableRecord
  2
EPLAN716
 70
     0
 62
    -5
  6
Continuous
290
     0
370
    35
390
F
1001
AcAecLayerStandard
1000

1000
Eigenschaftsplatzierung.Topologie.Strecke automatisch.BMK
  0
LAYER
  5
16C
330
2
100
AcDbSymbolTableRecord
100
AcDbLayerTableRecord
  2
EPLAN720
 70
     0
 62
     5
  6
Continuous
370
    35
390
F
1001
AcAecLayerStandard
1000

1000
Eigenschaftsplatzierung.Vorplanung
  0
LAYER
  5
16D
330
2
100
AcDbSymbolTableRecord
100
AcDbLayerTableRecord
  2
EPLAN721
 70
     0
 62
     5
  6
Continuous
370
    35
390
F
1001
AcAecLayerStandard
1000

1000
Eigenschaftsplatzierung.Vorplanung.Bezeichnung
  0
LAYER
  5
16E
330
2
100
AcDbSymbolTableRecord
100
AcDbLayerTableRecord
  2
EPLAN722
 70
     0
 62
    -7
  6
Continuous
290
     0
370
    35
390
F
1001
AcAecLayerStandard
1000

1000
Eigenschaftsplatzierung.Vorplanung.Beschreibung
  0
LAYER
  5
16F
330
2
100
AcDbSymbolTableRecord
100
AcDbLayerTableRecord
  2
EPLAN723
 70
     0
 62
     5
  6
Continuous
370
    35
390
F
1001
AcAecLayerStandard
1000

1000
Eigenschaftsplatzierung.Vorplanung.Strukturkennzeichen
  0
LAYER
  5
170
330
2
100
AcDbSymbolTableRecord
100
AcDbLayerTableRecord
  2
EPLAN724
 70
     0
 62
   134
  6
EPL_DASHDOT
370
    25
390
F
1001
AcAecLayerStandard
1000

1000
Symbolgrafik.Vorplanung.Struktursegment
  0
LAYER
  5
171
330
2
100
AcDbSymbolTableRecord
100
AcDbLayerTableRecord
  2
EPLAN725
 70
     0
 62
     5
  6
EPL_DASH
370
    25
390
F
1001
AcAecLayerStandard
1000

1000
Symbolgrafik.Vorplanung.Planungsobjekt
  0
LAYER
  5
172
330
2
100
AcDbSymbolTableRecord
100
AcDbLayerTableRecord
  2
EPLAN726
 70
     0
 62
     7
  6
Continuous
370
    35
390
F
1001
AcAecLayerStandard
1000

1000
Eigenschaftsplatzierung.Vorplanung.P&ID
  0
LAYER
  5
173
330
2
100
AcDbSymbolTableRecord
100
AcDbLayerTableRecord
  2
EPLAN750
 70
     0
 62
     1
  6
Continuous
370
   140
390
F
1001
AcAecLayerStandard
1000

1000
Symbolgrafik.Verbindungssymbole.Autoconnecting.P&ID.Ölhaltiger Dampf
  0
LAYER
  5
174
330
2
100
AcDbSymbolTableRecord
100
AcDbLayerTableRecord
  2
EPLAN751
 70
     0
 62
     3
  6
Continuous
370
    50
390
F
1001
AcAecLayerStandard
1000

1000
Symbolgrafik.Verbindungssymbole.Autoconnecting.P&ID.Ölhaltiges Wasser
  0
LAYER
  5
175
330
2
100
AcDbSymbolTableRecord
100
AcDbLayerTableRecord
  2
EPLAN752
 70
     0
 62
     3
  6
Continuous
370
    25
390
F
1001
AcAecLayerStandard
1000

1000
Symbolgrafik.Verbindungssymbole.Autoconnecting.P&ID.Rohwasser
  0
LAYER
  5
176
330
2
100
AcDbSymbolTableRecord
100
AcDbLayerTableRecord
  2
EPLAN753
 70
     0
 62
     3
  6
Continuous
370
    50
390
F
1001
AcAecLayerStandard
1000

1000
Symbolgrafik.Verbindungssymbole.Autoconnecting.P&ID.Schmutzwasser
  0
LAYER
  5
177
330
2
100
AcDbSymbolTableRecord
100
AcDbLayerTableRecord
  2
EPLAN754
 70
     0
 62
     6
  6
Continuous
370
    25
390
F
1001
AcAecLayerStandard
1000

1000
Symbolgrafik.Verbindungssymbole.Autoconnecting.P&ID.Lösungen, Chemikalien (Lauge)
  0
LAYER
  5
178
330
2
100
AcDbSymbolTableRecord
100
AcDbLayerTableRecord
  2
EPLAN755
 70
     0
 62
    30
  6
Continuous
370
    25
390
F
1001
AcAecLayerStandard
1000

1000
Symbolgrafik.Verbindungssymbole.Autoconnecting.P&ID.Lösungen, Chemikalien (Säure)
  0
LAYER
  5
179
330
2
100
AcDbSymbolTableRecord
100
AcDbLayerTableRecord
  2
EPLAN756
 70
     0
 62
    12
  6
Continuous
370
   120
390
F
1001
AcAecLayerStandard
1000

1000
Symbolgrafik.Verbindungssymbole.Autoconnecting.P&ID.Öl
  0
LAYER
  5
17A
330
2
100
AcDbSymbolTableRecord
100
AcDbLayerTableRecord
  2
EPLAN757
 70
     0
 62
     7
  6
Continuous
370
    50
390
F
1001
AcAecLayerStandard
1000

1000
Symbolgrafik.Verbindungssymbole.Autoconnecting.P&ID.Flüssigmetall
  0
LAYER
  5
17B
330
2
100
AcDbSymbolTableRecord
100
AcDbLayerTableRecord
  2
EPLAN758
 70
     0
 62
     7
  6
Continuous
370
   140
390
F
1001
AcAecLayerStandard
1000

1000
Symbolgrafik.Verbindungssymbole.Autoconnecting.P&ID.Luft
  0
LAYER
  5
17C
330
2
100
AcDbSymbolTableRecord
100
AcDbLayerTableRecord
  2
EPLAN759
 70
     0
 62
    30
  6
Continuous
370
   140
390
F
1001
AcAecLayerStandard
1000

1000
Symbolgrafik.Verbindungssymbole.Autoconnecting.P&ID.Brennbare Gase
  0
LAYER
  5
17D
330
2
100
AcDbSymbolTableRecord
100
AcDbLayerTableRecord
  2
EPLAN760
 70
     0
 62
     7
  6
Continuous
370
   211
390
F
1001
AcAecLayerStandard
1000

1000
Symbolgrafik.Verbindungssymbole.Autoconnecting.P&ID.Nicht brennbare Gase
  0
LAYER
  5
17E
330
2
100
AcDbSymbolTableRecord
100
AcDbLayerTableRecord
  2
EPLAN761
 70
     0
 62
     6
  6
Continuous
370
   211
390
F
1001
AcAecLayerStandard
1000

1000
Symbolgrafik.Verbindungssymbole.Autoconnecting.P&ID.Feste Brennstoffe
  0
LAYER
  5
17F
330
2
100
AcDbSymbolTableRecord
100
AcDbLayerTableRecord
  2
EPLAN762
 70
     0
 62
    12
  6
Continuous
370
   120
390
F
1001
AcAecLayerStandard
1000

1000
Symbolgrafik.Verbindungssymbole.Autoconnecting.P&ID.Brennbare Abfälle (Ölschlamm)
  0
LAYER
  5
180
330
2
100
AcDbSymbolTableRecord
100
AcDbLayerTableRecord
  2
EPLAN763
 70
     0
 62
     7
  6
Continuous
370
    25
390
F
1001
AcAecLayerStandard
1000

1000
Symbolgrafik.Verbindungssymbole.Autoconnecting.P&ID.Weitere Kennzeichnung
  0
LAYER
  5
181
330
2
100
AcDbSymbolTableRecord
100
AcDbLayerTableRecord
  2
EPLAN764
 70
     0
 62
     7
  6
Continuous
370
    25
390
F
1001
AcAecLayerStandard
1000

1000
Symbolgrafik.Verbindungssymbole.Autoconnecting.P&ID.Weitere Kennzeichnung
  0
LAYER
  5
182
330
2
100
AcDbSymbolTableRecord
100
AcDbLayerTableRecord
  2
EPLAN765
 70
     0
 62
    12
  6
Continuous
370
   120
390
F
1001
AcAecLayerStandard
1000

1000
Symbolgrafik.Verbindungssymbole.Autoconnecting.P&ID.Öl Emulsion
  0
LAYER
  5
183
330
2
100
AcDbSymbolTableRecord
100
AcDbLayerTableRecord
  2
EPLAN766
 70
     0
 62
     7
  6
Continuous
370
   211
390
F
1001
AcAecLayerStandard
1000

1000
Symbolgrafik.Verbindungssymbole.Autoconnecting.P&ID.Sonstige Stoffe
  0
LAYER
  5
184
330
2
100
AcDbSymbolTableRecord
100
AcDbLayerTableRecord
  2
EPLAN767
 70
     0
 62
     7
  6
Continuous
370
   211
390
F
1001
AcAecLayerStandard
1000

1000
Symbolgrafik.Verbindungssymbole.Autoconnecting.P&ID.Kalkstein
  0
LAYER
  5
185
330
2
100
AcDbSymbolTableRecord
100
AcDbLayerTableRecord
  2
EPLAN768
 70
     0
 62
     7
  6
Continuous
370
    25
390
F
1001
AcAecLayerStandard
1000

1000
Symbolgrafik.Verbindungssymbole.Autoconnecting.P&ID.Sauerstoff
  0
LAYER
  5
186
330
2
100
AcDbSymbolTableRecord
100
AcDbLayerTableRecord
  2
EPLAN769
 70
     0
 62
    30
  6
Continuous
370
    25
390
F
1001
AcAecLayerStandard
1000

1000
Symbolgrafik.Verbindungssymbole.Autoconnecting.P&ID.Wasserstoff
  0
LAYER
  5
187
330
2
100
AcDbSymbolTableRecord
100
AcDbLayerTableRecord
  2
EPLAN770
 70
     0
 62
     7
  6
Continuous
370
    25
390
F
1001
AcAecLayerStandard
1000

1000
Symbolgrafik.Verbindungssymbole.Autoconnecting.P&ID.Stickstoff
  0
LAYER
  5
188
330
2
100
AcDbSymbolTableRecord
100
AcDbLayerTableRecord
  2
EPLAN771
 70
     0
 62
     7
  6
Continuous
370
    20
390
F
1001
AcAecLayerStandard
1000

1000
Symbolgrafik.Verbindungssymbole.Autoconnecting.P&ID.Undefiniertes Signal
  0
LAYER
  5
189
330
2
100
AcDbSymbolTableRecord
100
AcDbLayerTableRecord
  2
EPLAN772
 70
     0
 62
     7
  6
Continuous
370
    20
390
F
1001
AcAecLayerStandard
1000

1000
Symbolgrafik.Verbindungssymbole.Autoconnecting.P&ID.Pneumatisches Signal
  0
LAYER
  5
18A
330
2
100
AcDbSymbolTableRecord
100
AcDbLayerTableRecord
  2
EPLAN773
 70
     0
 62
     7
  6
Continuous
370
    20
390
F
1001
AcAecLayerStandard
1000

1000
Symbolgrafik.Verbindungssymbole.Autoconnecting.P&ID.Hydraulisches Signal
  0
LAYER
  5
18B
330
2
100
AcDbSymbolTableRecord
100
AcDbLayerTableRecord
  2
EPLAN774
 70
     0
 62
     7
  6
Continuous
370
    20
390
F
1001
AcAecLayerStandard
1000

1000
Symbolgrafik.Verbindungssymbole.Autoconnecting.P&ID.Kapillarschlauch
  0
LAYER
  5
18C
330
2
100
AcDbSymbolTableRecord
100
AcDbLayerTableRecord
  2
EPLAN775
 70
     0
 62
     7
  6
Continuous
370
    20
390
F
1001
AcAecLayerStandard
1000

1000
Symbolgrafik.Verbindungssymbole.Autoconnecting.P&ID.Elektromagnetisches Signal
  0
LAYER
  5
18D
330
2
100
AcDbSymbolTableRecord
100
AcDbLayerTableRecord
  2
EPLAN776
 70
     0
 62
     7
  6
Continuous
370
    20
390
F
1001
AcAecLayerStandard
1000

1000
Symbolgrafik.Verbindungssymbole.Autoconnecting.P&ID.Kabelloses Signal
  0
LAYER
  5
18E
330
2
100
AcDbSymbolTableRecord
100
AcDbLayerTableRecord
  2
EPLAN777
 70
     0
 62
     7
  6
Continuous
370
    20
390
F
1001
AcAecLayerStandard
1000

1000
Symbolgrafik.Verbindungssymbole.Autoconnecting.P&ID.Kabellose Kommunikation
  0
LAYER
  5
18F
330
2
100
AcDbSymbolTableRecord
100
AcDbLayerTableRecord
  2
EPLAN778
 70
     0
 62
     7
  6
Continuous
370
    20
390
F
1001
AcAecLayerStandard
1000

1000
Symbolgrafik.Verbindungssymbole.Autoconnecting.P&ID.Bus-Signal
  0
LAYER
  5
190
330
2
100
AcDbSymbolTableRecord
100
AcDbLayerTableRecord
  2
EPLAN779
 70
     0
 62
     7
  6
Continuous
370
    20
390
F
1001
AcAecLayerStandard
1000

1000
Symbolgrafik.Verbindungssymbole.Autoconnecting.P&ID.Bus-Signal zwischen unabhängigen Systemen
  0
LAYER
  5
191
330
2
100
AcDbSymbolTableRecord
100
AcDbLayerTableRecord
  2
EPLAN780
 70
     0
 62
     7
  6
Continuous
370
    20
390
F
1001
AcAecLayerStandard
1000

1000
Symbolgrafik.Verbindungssymbole.Autoconnecting.P&ID.Bus-Signal über Feldbus
  0
LAYER
  5
192
330
2
100
AcDbSymbolTableRecord
100
AcDbLayerTableRecord
  2
EPLAN781
 70
     0
 62
     7
  6
Continuous
370
    20
390
F
1001
AcAecLayerStandard
1000

1000
Symbolgrafik.Verbindungssymbole.Autoconnecting.P&ID.Einstellungs- und Kalibrierungssignal
  0
LAYER
  5
193
330
2
100
AcDbSymbolTableRecord
100
AcDbLayerTableRecord
  2
EPLAN782
 70
     0
 62
     7
  6
Continuous
370
    20
390
F
1001
AcAecLayerStandard
1000

1000
Symbolgrafik.Verbindungssymbole.Autoconnecting.P&ID.Mechanische Verbindung
  0
LAYER
  5
194
330
2
100
AcDbSymbolTableRecord
100
AcDbLayerTableRecord
  2
EPLAN783
 70
     0
 62
     7
  6
Continuous
370
    25
390
F
1001
AcAecLayerStandard
1000

1000
Symbolgrafik.Verbindungssymbole.Autoconnecting.P&ID.Wellenlinie
  0
LAYER
  5
195
330
2
100
AcDbSymbolTableRecord
100
AcDbLayerTableRecord
  2
EPLAN784
 70
     0
 62
     7
  6
Continuous
370
   100
390
F
1001
AcAecLayerStandard
1000

1000
Symbolgrafik.Verbindungssymbole.Autoconnecting.P&ID.Erdungsleiter
  0
LAYER
  5
196
330
2
100
AcDbSymbolTableRecord
100
AcDbLayerTableRecord
  2
EPLAN785
 70
     0
 62
     7
  6
Continuous
370
   100
390
F
1001
AcAecLayerStandard
1000

1000
Symbolgrafik.Verbindungssymbole.Autoconnecting.P&ID.Erdung Hauptleiter
  0
LAYER
  5
197
330
2
100
AcDbSymbolTableRecord
100
AcDbLayerTableRecord
  2
EPLAN786
 70
     0
 62
     7
  6
Continuous
370
   100
390
F
1001
AcAecLayerStandard
1000

1000
Symbolgrafik.Verbindungssymbole.Autoconnecting.P&ID.Linie mit Brüchen
  0
LAYER
  5
198
330
2
100
AcDbSymbolTableRecord
100
AcDbLayerTableRecord
  2
EPLAN787
 70
     0
 62
     7
  6
Continuous
370
   100
390
F
1001
AcAecLayerStandard
1000

1000
Symbolgrafik.Verbindungssymbole.Autoconnecting.P&ID.Offene Leitungsführung eines Leiters
  0
LAYER
  5
199
330
2
100
AcDbSymbolTableRecord
100
AcDbLayerTableRecord
  2
EPLAN788
 70
     0
 62
     7
  6
Continuous
370
   100
390
F
1001
AcAecLayerStandard
1000

1000
Symbolgrafik.Verbindungssymbole.Autoconnecting.P&ID.Offene Leitungsführung eines Leiters überlappend
  0
LAYER
  5
19A
330
2
100
AcDbSymbolTableRecord
100
AcDbLayerTableRecord
  2
EPLAN789
 70
     0
 62
     7
  6
Continuous
370
   100
390
F
1001
AcAecLayerStandard
1000

1000
Symbolgrafik.Verbindungssymbole.Autoconnecting.P&ID.Verlegung in Kabelpritsche
  0
LAYER
  5
19B
330
2
100
AcDbSymbolTableRecord
100
AcDbLayerTableRecord
  2
EPLAN790
 70
     0
 62
     7
  6
Continuous
370
   100
390
F
1001
AcAecLayerStandard
1000

1000
Symbolgrafik.Verbindungssymbole.Autoconnecting.P&ID.Verlegung in Kabelkanal
  0
LAYER
  5
19C
330
2
100
AcDbSymbolTableRecord
100
AcDbLayerTableRecord
  2
EPLAN791
 70
     0
 62
     7
  6
Continuous
370
   100
390
F
1001
AcAecLayerStandard
1000

1000
Symbolgrafik.Verbindungssymbole.Autoconnecting.P&ID.Verlegung in Sockelleiste
  0
LAYER
  5
19D
330
2
100
AcDbSymbolTableRecord
100
AcDbLayerTableRecord
  2
EPLAN792
 70
     0
 62
     7
  6
Continuous
370
    50
390
F
1001
AcAecLayerStandard
1000

1000
Symbolgrafik.Verbindungssymbole.Autoconnecting.P&ID.Offene Verlegung im Rohr
  0
LAYER
  5
19E
330
2
100
AcDbSymbolTableRecord
100
AcDbLayerTableRecord
  2
EPLAN793
 70
     0
 62
     7
  6
Continuous
370
    50
390
F
1001
AcAecLayerStandard
1000

1000
Symbolgrafik.Verbindungssymbole.Autoconnecting.P&ID.Verlegung im Rohr
  0
LAYER
  5
19F
330
2
100
AcDbSymbolTableRecord
100
AcDbLayerTableRecord
  2
EPLAN794
 70
     0
 62
     5
  6
Continuous
370
    50
390
F
1001
AcAecLayerStandard
1000

1000
3D-Grafik.Verbindungen.Kurve
  0
LAYER
  5
1A0
330
2
100
AcDbSymbolTableRecord
100
AcDbLayerTableRecord
  2
EPLAN795
 70
     0
 62
   253
  6
Continuous
370
    50
390
F
1001
AcAecLayerStandard
1000

1000
3D-Grafik.Verlegezubehör.Kabel-/Schlauchbefestigung
  0
LAYER
  5
1A1
330
2
100
AcDbSymbolTableRecord
100
AcDbLayerTableRecord
  2
EPLAN796
 70
     0
 62
   253
  6
Continuous
370
    50
390
F
1001
AcAecLayerStandard
1000

1000
3D-Grafik.Verlegezubehör.Kabel-/Schlauchbinder
  0
LAYER
  5
1A2
330
2
100
AcDbSymbolTableRecord
100
AcDbLayerTableRecord
  2
EPLAN797
 70
     0
 62
   253
  6
Continuous
370
    50
390
F
1001
AcAecLayerStandard
1000

1000
3D-Grafik.Verlegezubehör.Kabel-/Schlauchschutz
  0
LAYER
  5
1A3
330
2
100
AcDbSymbolTableRecord
100
AcDbLayerTableRecord
  2
EPLAN798
 70
     0
 62
     1
  6
Continuous
370
    50
390
F
1001
AcAecLayerStandard
1000

1000
3D-Grafik.Verbindungen.Verlegewegvorgabe
  0
LAYER
  5
1A4
330
2
100
AcDbSymbolTableRecord
100
AcDbLayerTableRecord
  2
EPLAN799
 70
     0
 62
     1
  6
Continuous
370
    25
390
F
1001
AcAecLayerStandard
1000

1000
Grafik.Konturprüfung
  0
LAYER
  5
1A5
330
2
100
AcDbSymbolTableRecord
100
AcDbLayerTableRecord
  2
EPLAN800
 70
     0
 62
     9
  6
Continuous
370
    50
390
F
1001
AcAecLayerStandard
1000

1000
3D-Grafik.Sammelschienen.Sammelschienenabdeckung
  0
LAYER
  5
1A6
330
2
100
AcDbSymbolTableRecord
100
AcDbLayerTableRecord
  2
EPLAN801
 70
     0
 62
   251
  6
EPL_DASH
290
     0
370
    25
390
F
1001
AcAecLayerStandard
1000

1000
Grafik.Bohrbilderzeugung.Bohrbildkasten
  0
LAYER
  5
1A7
330
2
100
AcDbSymbolTableRecord
100
AcDbLayerTableRecord
  2
EPLAN802
 70
     0
 62
     6
  6
Continuous
370
    25
390
F
1001
AcAecLayerStandard
1000

1000
Grafik.Bohrbilderzeugung.Bauteile
  0
LAYER
  5
1A8
330
2
100
AcDbSymbolTableRecord
100
AcDbLayerTableRecord
  2
EPLAN803
 70
     0
 62
     3
  6
Continuous
370
    25
390
F
1001
AcAecLayerStandard
1000

1000
Grafik.Bohrbilderzeugung.Bohrungen
  0
LAYER
  5
1A9
330
2
100
AcDbSymbolTableRecord
100
AcDbLayerTableRecord
  2
EPLAN804
 70
     0
 62
     1
  6
Continuous
370
    25
390
F
1001
AcAecLayerStandard
1000

1000
Grafik.Bohrbilderzeugung.Gewindebohrungen
  0
LAYER
  5
1AA
330
2
100
AcDbSymbolTableRecord
100
AcDbLayerTableRecord
  2
EPLAN805
 70
     0
 62
     2
  6
Continuous
370
    25
390
F
1001
AcAecLayerStandard
1000

1000
Grafik.Bohrbilderzeugung.Konturen
  0
LAYER
  5
1AB
330
2
100
AcDbSymbolTableRecord
100
AcDbLayerTableRecord
  2
EPLAN806
 70
     0
 62
     5
  6
Continuous
370
    35
390
F
1001
AcAecLayerStandard
1000

1000
Eigenschaftsplatzierung.Betriebsmittelkennzeichen.P&ID-Leitungsverteiler / -verbinder
  0
LAYER
  5
1AC
330
2
100
AcDbSymbolTableRecord
100
AcDbLayerTableRecord
  2
EPLAN807
 70
     0
 62
     5
  6
Continuous
370
    35
390
F
1001
AcAecLayerStandard
1000

1000
Eigenschaftsplatzierung.Betriebsmittelkennzeichen.Elektroleitungsverteiler / -verbinder
  0
LAYER
  5
1AD
330
2
100
AcDbSymbolTableRecord
100
AcDbLayerTableRecord
  2
EPLAN808
 70
     0
 62
    -7
  6
Continuous
290
     0
370
    35
390
F
1001
AcAecLayerStandard
1000

1000
Eigenschaftsplatzierung.P&ID-Leitungsverteiler / -verbinder.Anschlussbezeichnungen
  0
LAYER
  5
1AE
330
2
100
AcDbSymbolTableRecord
100
AcDbLayerTableRecord
  2
EPLAN809
 70
     0
 62
    -7
  6
Continuous
290
     0
370
    35
390
F
1001
AcAecLayerStandard
1000

1000
Eigenschaftsplatzierung.Elektroleitungsverteiler / -verbinder.Anschlussbezeichnungen
  0
LAYER
  5
1AF
330
2
100
AcDbSymbolTableRecord
100
AcDbLayerTableRecord
  2
EPLAN810
 70
     0
 62
     5
  6
Continuous
370
    50
390
F
1001
AcAecLayerStandard
1000

1000
3D-Grafik.Thermische Auslegung.Kaltluftpfeil
  0
LAYER
  5
1B0
330
2
100
AcDbSymbolTableRecord
100
AcDbLayerTableRecord
  2
EPLAN811
 70
     0
 62
     1
  6
Continuous
370
    50
390
F
1001
AcAecLayerStandard
1000

1000
3D-Grafik.Thermische Auslegung.Warmluftpfeil
  0
LAYER
  5
1B1
330
2
100
AcDbSymbolTableRecord
100
AcDbLayerTableRecord
  2
EPLAN812
 70
     0
 62
   131
  6
Continuous
370
    50
390
F
1001
AcAecLayerStandard
1000

1000
3D-Grafik.Thermische Auslegung.Verlustleistungsdichte sehr gering
  0
LAYER
  5
1B2
330
2
100
AcDbSymbolTableRecord
100
AcDbLayerTableRecord
  2
EPLAN813
 70
     0
 62
    40
  6
Continuous
370
    50
390
F
1001
AcAecLayerStandard
1000

1000
3D-Grafik.Thermische Auslegung.Verlustleistungsdichte gering
  0
LAYER
  5
1B3
330
2
100
AcDbSymbolTableRecord
100
AcDbLayerTableRecord
  2
EPLAN814
 70
     0
 62
    30
  6
Continuous
370
    50
390
F
1001
AcAecLayerStandard
1000

1000
3D-Grafik.Thermische Auslegung.Verlustleistungsdichte mittel
  0
LAYER
  5
1B4
330
2
100
AcDbSymbolTableRecord
100
AcDbLayerTableRecord
  2
EPLAN815
 70
     0
 62
    20
  6
Continuous
370
    50
390
F
1001
AcAecLayerStandard
1000

1000
3D-Grafik.Thermische Auslegung.Verlustleistungsdichte hoch
  0
LAYER
  5
1B5
330
2
100
AcDbSymbolTableRecord
100
AcDbLayerTableRecord
  2
EPLAN816
 70
     0
 62
    10
  6
Continuous
370
    50
390
F
1001
AcAecLayerStandard
1000

1000
3D-Grafik.Thermische Auslegung.Verlustleistungsdichte sehr hoch
  0
LAYER
  5
1B6
330
2
100
AcDbSymbolTableRecord
100
AcDbLayerTableRecord
  2
EPLAN817
 70
     0
 62
   150
  6
Continuous
370
    50
390
F
1001
AcAecLayerStandard
1000

1000
3D-Grafik.Thermische Auslegung.Optimal klimatisierter Bereich
  0
LAYER
  5
1B7
330
2
100
AcDbSymbolTableRecord
100
AcDbLayerTableRecord
  2
EPLAN818
 70
     0
 62
     6
  6
Continuous
370
    50
390
F
1001
AcAecLayerStandard
1000

1000
3D-Grafik.Thermische Auslegung.Lüftungstechnischer Sperrraum
  0
LAYER
  5
1B8
330
2
100
AcDbSymbolTableRecord
100
AcDbLayerTableRecord
  2
EPLAN819
 70
     0
 62
     7
  6
Continuous
370
   200
390
F
1001
AcAecLayerStandard
1000

1000
Symbolgrafik.Verbindungssymbole.Autoconnecting.P&ID.EN1861.Rohrleitung, allgemein
  0
LAYER
  5
1B9
330
2
100
AcDbSymbolTableRecord
100
AcDbLayerTableRecord
  2
EPLAN820
 70
     0
 62
     7
  6
Continuous
370
   100
390
F
1001
AcAecLayerStandard
1000

1000
Symbolgrafik.Verbindungssymbole.Autoconnecting.P&ID.EN1861.Kältemittel Hauptkreislauf 
  0
LAYER
  5
1BA
330
2
100
AcDbSymbolTableRecord
100
AcDbLayerTableRecord
  2
EPLAN821
 70
     0
 62
     7
  6
Continuous
370
    50
390
F
1001
AcAecLayerStandard
1000

1000
Symbolgrafik.Verbindungssymbole.Autoconnecting.P&ID.EN1861.Kältemittel Nebenkreislauf 
  0
LAYER
  5
1BB
330
2
100
AcDbSymbolTableRecord
100
AcDbLayerTableRecord
  2
EPLAN822
 70
     0
 62
     7
  6
EPL_DASHDOT
370
   100
390
F
1001
AcAecLayerStandard
1000

1000
Symbolgrafik.Verbindungssymbole.Autoconnecting.P&ID.EN1861.Lösungen
  0
LAYER
  5
1BC
330
2
100
AcDbSymbolTableRecord
100
AcDbLayerTableRecord
  2
EPLAN823
 70
     0
 62
     7
  6
EPL_DASH2
370
    50
390
F
1001
AcAecLayerStandard
1000

1000
Symbolgrafik.Verbindungssymbole.Autoconnecting.P&ID.EN1861.Kühlwasser
  0
LAYER
  5
1BD
330
2
100
AcDbSymbolTableRecord
100
AcDbLayerTableRecord
  2
EPLAN824
 70
     0
 62
     7
  6
EPL_DASHDOT
370
    25
390
F
1001
AcAecLayerStandard
1000

1000
Symbolgrafik.Verbindungssymbole.Autoconnecting.P&ID.EN1861.Sonstige Stoffe
  0
LAYER
  5
1BE
330
2
100
AcDbSymbolTableRecord
100
AcDbLayerTableRecord
  2
EPLAN825
 70
     0
 62
     7
  6
Continuous
370
   100
390
F
1001
AcAecLayerStandard
1000

1000
Symbolgrafik.Verbindungssymbole.Autoconnecting.P&ID.EN1861.Kühlender oder erwärmender Stoff
  0
LAYER
  5
1BF
330
2
100
AcDbSymbolTableRecord
100
AcDbLayerTableRecord
  2
EPLAN826
 70
     0
 62
    -7
  6
Continuous
290
     0
370
    35
390
F
1001
AcAecLayerStandard
1000

1000
Eigenschaftsplatzierung.Anschlussbezeichnungen.P&ID
  0
LAYER
  5
1C0
330
2
100
AcDbSymbolTableRecord
100
AcDbLayerTableRecord
  2
EPLAN827
 70
     0
 62
    -5
  6
Continuous
290
     0
370
    35
390
F
1001
AcAecLayerStandard
1000

1000
Eigenschaftsplatzierung.Anschlussbeschreibungen.P&ID
  0
LAYER
  5
1C1
330
2
100
AcDbSymbolTableRecord
100
AcDbLayerTableRecord
  2
EPLAN828
 70
     0
 62
     7
  6
Continuous
370
   200
390
F
1001
AcAecLayerStandard
1000

1000
Symbolgrafik.Verbindungssymbole.Autoconnecting.P&ID.EN1861.Rohrleitung wärmegedämmt
  0
LAYER
  5
1C2
330
2
100
AcDbSymbolTableRecord
100
AcDbLayerTableRecord
  2
EPLAN829
 70
     0
 62
     7
  6
Continuous
370
   158
390
F
1001
AcAecLayerStandard
1000

1000
Symbolgrafik.Verbindungssymbole.Autoconnecting.P&ID.EN1861.Rohrleitung, beheizt oder gekühlt
  0
LAYER
  5
1C3
330
2
100
AcDbSymbolTableRecord
100
AcDbLayerTableRecord
  2
EPLAN830
 70
     0
 62
     7
  6
Continuous
370
   200
390
F
1001
AcAecLayerStandard
1000

1000
Symbolgrafik.Verbindungssymbole.Autoconnecting.P&ID.EN1861.Rohrleitung, beheizt oder gekühlt und wärmegedämmt
  0
LAYER
  5
1C4
330
2
100
AcDbSymbolTableRecord
100
AcDbLayerTableRecord
  2
EPLAN831
 70
     0
 62
     7
  6
Continuous
370
   100
390
F
1001
AcAecLayerStandard
1000

1000
Symbolgrafik.Verbindungssymbole.Autoconnecting.P&ID.EN1861.Wirklinie, allgemein
  0
LAYER
  5
1C5
330
2
100
AcDbSymbolTableRecord
100
AcDbLayerTableRecord
  2
EPLAN832
 70
     0
 62
    73
  6
Continuous
370
    35
390
F
1001
AcAecLayerStandard
1000

1000
Eigenschaftsplatzierung.Querverweise.P&ID
  0
ENDTAB
  0
TABLE
  2
STYLE
  5
3
330
0
100
AcDbSymbolTable
 70
     2
  0
STYLE
  5
11
330
3
100
AcDbSymbolTableRecord
100
AcDbTextStyleTableRecord
  2
Standard
 70
     0
 40
0.0
 41
1.0
 50
0.0
 71
     0
 42
2.5
  3
txt
  4

  0
STYLE
  5
1CB
330
3
100
AcDbSymbolTableRecord
100
AcDbTextStyleTableRecord
  2
Tahoma
 70
     0
 40
0.0
 41
1.0
 50
0.0
 71
     0
 42
2.5
  3

  4

1001
ACAD
1000
Tahoma
1071
      256
  0
ENDTAB
  0
TABLE
  2
VIEW
  5
6
330
0
100
AcDbSymbolTable
 70
     0
  0
ENDTAB
  0
TABLE
  2
UCS
  5
7
330
0
100
AcDbSymbolTable
 70
     0
  0
ENDTAB
  0
TABLE
  2
APPID
  5
9
330
0
100
AcDbSymbolTable
 70
     2
  0
APPID
  5
12
330
9
100
AcDbSymbolTableRecord
100
AcDbRegAppTableRecord
  2
ACAD
 70
     0
  0
APPID
  5
70
330
9
100
AcDbSymbolTableRecord
100
AcDbRegAppTableRecord
  2
AcAecLayerStandard
 70
     0
  0
ENDTAB
  0
TABLE
  2
DIMSTYLE
  5
A
330
0
100
AcDbSymbolTable
 70
     1
100
AcDbDimStyleTable
  0
DIMSTYLE
105
27
330
A
100
AcDbSymbolTableRecord
100
AcDbDimStyleTableRecord
  2
ISO-25
 70
     0
 41
2.5
 42
0.625
 43
3.75
 44
1.25
 73
     0
 74
     0
 77
     1
 78
     8
140
2.5
141
2.5
143
0.03937007874016
147
0.625
171
     3
172
     1
178
     0
271
     2
272
     2
274
     3
278
    44
283
     0
284
     8
340
11
  0
ENDTAB
  0
TABLE
  2
BLOCK_RECORD
  5
1
330
0
100
AcDbSymbolTable
 70
     4
  0
BLOCK_RECORD
  5
1F
330
1
100
AcDbSymbolTableRecord
100
AcDbBlockTableRecord
  2
*Model_Space
340
22
  0
BLOCK_RECORD
  5
1B
330
1
100
AcDbSymbolTableRecord
100
AcDbBlockTableRecord
  2
*Paper_Space
340
1E
  0
BLOCK_RECORD
  5
23
330
1
100
AcDbSymbolTableRecord
100
AcDbBlockTableRecord
  2
*Paper_Space0
340
26
  0
BLOCK_RECORD
  5
1C6
330
1
100
AcDbSymbolTableRecord
100
AcDbBlockTableRecord
  2
EPLFRAME
340
0
102
{BLKREFS
331
202
102
}
  0
BLOCK_RECORD
  5
223
330
1
100
AcDbSymbolTableRecord
100
AcDbBlockTableRecord
  2
EPLSYM_LibrarySPECIAL_Symbol1_Variant0_Placement3
340
0
102
{BLKREFS
331
22E
102
}
  0
BLOCK_RECORD
  5
240
330
1
100
AcDbSymbolTableRecord
100
AcDbBlockTableRecord
  2
EPLSYM_LibrarySPECIAL_Symbol13_Variant3_Placement3
340
0
102
{BLKREFS
331
248
331
250
331
258
331
268
331
271
331
27A
331
283
102
}
  0
ENDTAB
  0
ENDSEC
  0
SECTION
  2
BLOCKS
  0
BLOCK
  5
20
330
1F
100
AcDbEntity
  8
0
100
AcDbBlockBegin
  2
*Model_Space
 70
     0
 10
0.0
 20
0.0
 30
0.0
  3
*Model_Space
  1

  0
ENDBLK
  5
21
330
1F
100
AcDbEntity
  8
0
100
AcDbBlockEnd
  0
BLOCK
  5
1C
330
1B
100
AcDbEntity
 67
     1
  8
0
100
AcDbBlockBegin
  2
*Paper_Space
 70
     0
 10
0.0
 20
0.0
 30
0.0
  3
*Paper_Space
  1

  0
ENDBLK
  5
1D
330
1B
100
AcDbEntity
 67
     1
  8
0
100
AcDbBlockEnd
  0
BLOCK
  5
24
330
23
100
AcDbEntity
  8
0
100
AcDbBlockBegin
  2
*Paper_Space0
 70
     0
 10
0.0
 20
0.0
 30
0.0
  3
*Paper_Space0
  1

  0
ENDBLK
  5
25
330
23
100
AcDbEntity
  8
0
100
AcDbBlockEnd
  0
BLOCK
  5
1C7
330
1C6
100
AcDbEntity
  8
0
100
AcDbBlockBegin
  2
EPLFRAME
 70
     2
 10
0.0
 20
0.0
 30
0.0
  3
EPLFRAME
  1

  0
TEXT
  5
1CC
102
{ACAD_REACTORS
330
1CA
102
}
330
1C6
100
AcDbEntity
  8
EPLAN201
 62
    73
100
AcDbText
 10
306.0
 20
1.5
 30
0.0
 40
1.3545
  1
Geändert von
  7
Tahoma
100
AcDbText
  0
ATTDEF
  5
1CD
330
1C6
100
AcDbEntity
  8
EPLAN452
 62
    73
100
AcDbText
 10
335.896623
 20
1.5
 30
0.0
 40
1.3545
  1
4_3010
  7
Tahoma
 72
     2
 11
342.0
 21
1.5
 31
0.0
100
AcDbAttributeDefinition
  3
Letzter Bearbeiter: Kennung
  2
4_3010
 70
     0
  0
LINE
  5
1CE
102
{ACAD_REACTORS
330
1CA
102
}
330
1C6
100
AcDbEntity
  8
EPLAN201
  6
Continuous
 62
    73
 48
4.0
370
    25
100
AcDbLine
 10
420.0
 20
12.0
 30
0.0
 11
368.0
 21
12.0
 31
0.0
  0
LINE
  5
1CF
102
{ACAD_REACTORS
330
1CA
102
}
330
1C6
100
AcDbEntity
  8
EPLAN201
  6
Continuous
 62
    73
 48
4.0
370
    25
100
AcDbLine
 10
304.0
 20
0.0
 30
0.0
 11
304.0
 21
16.0
 31
0.0
  0
ATTDEF
  5
1D0
330
1C6
100
AcDbEntity
  8
EPLAN452
 62
    73
100
AcDbText
 10
369.0
 20
9.0
 30
0.0
 40
1.6254
  1
4_1220
  7
Tahoma
100
AcDbAttributeDefinition
  3
Einbauort
  2
4_1220
 70
     0
  0
TEXT
  5
1D1
102
{ACAD_REACTORS
330
1CA
102
}
330
1C6
100
AcDbEntity
  8
EPLAN201
 62
    73
100
AcDbText
 10
2.0
 20
7.0
 30
0.0
 40
1.6254
  1
Vorherige Seite
  7
Tahoma
100
AcDbText
  0
ATTDEF
  5
1D2
330
1C6
100
AcDbEntity
  8
EPLAN453
 62
    73
100
AcDbText
 10
184.1172984
 20
292.02476
 30
0.0
 40
1.6254
  1
53_19005
  7
Tahoma
 72
     1
 11
189.0
 21
292.83746
 31
0.0
100
AcDbAttributeDefinition
  3
Spaltennummer
  2
53_19005
 70
     0
 74
     2
  0
TEXT
  5
1D3
102
{ACAD_REACTORS
330
1CA
102
}
330
1C6
100
AcDbEntity
  8
EPLAN201
 62
    73
100
AcDbText
 10
346.0
 20
5.0
 30
0.0
 40
1.3545
  1
Gepr
  7
Tahoma
100
AcDbText
  0
ATTDEF
  5
1D4
330
1C6
100
AcDbEntity
  8
EPLAN453
 62
    73
100
AcDbText
 10
16.1172984
 20
292.02476
 30
0.0
 40
1.6254
  1
53_19005
  7
Tahoma
 72
     1
 11
21.0
 21
292.83746
 31
0.0
100
AcDbAttributeDefinition
  3
Spaltennummer
  2
53_19005_1
 70
     0
 74
     2
  0
TEXT
  5
1D5
102
{ACAD_REACTORS
330
1CA
102
}
330
1C6
100
AcDbEntity
  8
EPLAN201
 62
    73
100
AcDbText
 10
306.0
 20
5.0
 30
0.0
 40
1.3545
  1
Änderungsdatum
  7
Tahoma
100
AcDbText
  0
ATTDEF
  5
1D6
330
1C6
100
AcDbEntity
  8
EPLAN453
 62
    73
100
AcDbText
 10
394.1172984
 20
292.02476
 30
0.0
 40
1.6254
  1
53_19005
  7
Tahoma
 72
     1
 11
399.0
 21
292.83746
 31
0.0
100
AcDbAttributeDefinition
  3
Spaltennummer
  2
53_19005_2
 70
     0
 74
     2
  0
ATTDEF
  5
1D7
330
1C6
100
AcDbEntity
  8
EPLAN452
 62
    73
100
AcDbText
 10
2.0
 20
3.0
 30
0.0
 40
2.2575
  1
4_11041
  7
Tahoma
100
AcDbAttributeDefinition
  3
Rückblatt
  2
4_11041
 70
     0
  0
LINE
  5
1D8
102
{ACAD_REACTORS
330
1CA
102
}
330
1C6
100
AcDbEntity
  8
EPLAN201
  6
Continuous
 62
    73
 48
4.0
370
    25
100
AcDbLine
 10
304.0
 20
8.0
 30
0.0
 11
420.0
 21
8.0
 31
0.0
  0
ATTDEF
  5
1D9
330
1C6
100
AcDbEntity
  8
EPLAN453
 62
    73
100
AcDbText
 10
226.1172984
 20
292.02476
 30
0.0
 40
1.6254
  1
53_19005
  7
Tahoma
 72
     1
 11
231.0
 21
292.83746
 31
0.0
100
AcDbAttributeDefinition
  3
Spaltennummer
  2
53_19005_3
 70
     0
 74
     2
  0
ATTDEF
  5
1DA
330
1C6
100
AcDbEntity
  8
EPLAN452
 62
    73
100
AcDbText
 10
406.1323225
 20
5.0
 30
0.0
 40
2.2575
  1
4_11042
  7
Tahoma
 72
     2
 11
418.0
 21
5.0
 31
0.0
100
AcDbAttributeDefinition
  3
Seitennummer
  2
4_11042
 70
     0
  0
ATTDEF
  5
1DB
330
1C6
100
AcDbEntity
  8
EPLAN453
 62
    73
100
AcDbText
 10
352.1172984
 20
292.02476
 30
0.0
 40
1.6254
  1
53_19005
  7
Tahoma
 72
     1
 11
357.0
 21
292.83746
 31
0.0
100
AcDbAttributeDefinition
  3
Spaltennummer
  2
53_19005_4
 70
     0
 74
     2
  0
LINE
  5
1DC
102
{ACAD_REACTORS
330
1CA
102
}
330
1C6
100
AcDbEntity
  8
EPLAN201
  6
Continuous
 62
    73
 48
4.0
370
    35
100
AcDbLine
 10
228.0
 20
16.0
 30
0.0
 11
228.0
 21
0.0
 31
0.0
  0
ATTDEF
  5
1DD
330
1C6
100
AcDbEntity
  8
EPLAN453
 62
    73
100
AcDbText
 10
100.1172984
 20
292.02476
 30
0.0
 40
1.6254
  1
53_19005
  7
Tahoma
 72
     1
 11
105.0
 21
292.83746
 31
0.0
100
AcDbAttributeDefinition
  3
Spaltennummer
  2
53_19005_5
 70
     0
 74
     2
  0
TEXT
  5
1DE
102
{ACAD_REACTORS
330
1CA
102
}
330
1C6
100
AcDbEntity
  8
EPLAN201
 62
    73
100
AcDbText
 10
346.0
 20
1.5
 30
0.0
 40
1.3545
  1
Formular
  7
Tahoma
100
AcDbText
  0
ATTDEF
  5
1DF
330
1C6
100
AcDbEntity
  8
EPLAN452
 62
    73
100
AcDbText
 10
374.8793935
 20
1.5
 30
0.0
 40
1.3545
  1
4_11015
  7
Tahoma
 72
     2
 11
382.0
 21
1.5
 31
0.0
100
AcDbAttributeDefinition
  3
Formularname
  2
4_11015
 70
     0
  0
ATTDEF
  5
1E0
330
1C6
100
AcDbEntity
  8
EPLAN452
 62
    73
100
AcDbText
 10
260.31616125
 20
8.7336875
 30
0.0
 40
2.2575
  1
4_11011
  7
Tahoma
 72
     1
 11
266.25
 21
9.8624375
 31
0.0
100
AcDbAttributeDefinition
  3
Seitenbeschreibung
  2
4_11011
 70
     0
 74
     2
  0
ATTDEF
  5
1E1
330
1C6
100
AcDbEntity
  8
EPLAN452
 62
    73
100
AcDbText
 10
408.505858
 20
18.0
 30
0.0
 40
1.806
  1
4_11040
  7
Tahoma
 72
     2
 11
418.0
 21
18.0
 31
0.0
100
AcDbAttributeDefinition
  3
Folgeblatt
  2
4_11040
 70
     0
  0
ATTDEF
  5
1E2
330
1C6
100
AcDbEntity
  8
EPLAN453
 62
    73
100
AcDbText
 10
58.1172984
 20
292.02476
 30
0.0
 40
1.6254
  1
53_19005
  7
Tahoma
 72
     1
 11
63.0
 21
292.83746
 31
0.0
100
AcDbAttributeDefinition
  3
Spaltennummer
  2
53_19005_6
 70
     0
 74
     2
  0
LINE
  5
1E3
102
{ACAD_REACTORS
330
1CA
102
}
330
1C6
100
AcDbEntity
  8
EPLAN201
  6
Continuous
 62
    73
 48
4.0
370
    35
100
AcDbLine
 10
140.0
 20
0.0
 30
0.0
 11
140.0
 21
16.0
 31
0.0
  0
LWPOLYLINE
  5
1E4
102
{ACAD_REACTORS
330
1CA
102
}
330
1C6
100
AcDbEntity
  8
EPLAN201
  6
Continuous
 62
    73
 48
4.0
370
    35
100
AcDbPolyline
 90
        4
 70
     1
 43
0.0
 10
0.0
 20
0.0
 10
420.0
 20
0.0
 10
420.0
 20
297.0
 10
0.0
 20
297.0
  0
ATTDEF
  5
1E5
330
1C6
100
AcDbEntity
  8
EPLAN452
 62
    73
100
AcDbText
 10
374.8793935
 20
5.0
 30
0.0
 40
1.3545
  1
4_11080
  7
Tahoma
 72
     2
 11
382.0
 21
5.0
 31
0.0
100
AcDbAttributeDefinition
  3
Geprüft von
  2
4_11080
 70
     0
  0
TEXT
  5
1E6
102
{ACAD_REACTORS
330
1CA
102
}
330
1C6
100
AcDbEntity
  8
EPLAN201
 62
    73
100
AcDbText
 10
404.5790722
 20
21.5
 30
0.0
 40
1.6254
  1
Nächste Seite
  7
Tahoma
 72
     2
 11
418.0
 21
21.5
 31
0.0
100
AcDbText
  0
LINE
  5
1E7
102
{ACAD_REACTORS
330
1CA
102
}
330
1C6
100
AcDbEntity
  8
EPLAN201
  6
Continuous
 62
    73
 48
4.0
370
    35
100
AcDbLine
 10
140.0
 20
16.0
 30
0.0
 11
420.0
 21
16.0
 31
0.0
  0
LINE
  5
1E8
102
{ACAD_REACTORS
330
1CA
102
}
330
1C6
100
AcDbEntity
  8
EPLAN201
  6
Continuous
 62
    73
 48
4.0
370
    25
100
AcDbLine
 10
368.0
 20
16.0
 30
0.0
 11
368.0
 21
8.0
 31
0.0
  0
ATTDEF
  5
1E9
330
1C6
100
AcDbEntity
  8
EPLAN453
 62
    73
100
AcDbText
 10
310.1172984
 20
292.02476
 30
0.0
 40
1.6254
  1
53_19005
  7
Tahoma
 72
     1
 11
315.0
 21
292.83746
 31
0.0
100
AcDbAttributeDefinition
  3
Spaltennummer
  2
53_19005_7
 70
     0
 74
     2
  0
ATTDEF
  5
1EA
330
1C6
100
AcDbEntity
  8
EPLAN452
 62
    73
100
AcDbText
 10
397.0
 20
13.0
 30
0.0
 40
1.6254
  1
4_1120
  7
Tahoma
100
AcDbAttributeDefinition
  3
Anlage
  2
4_1120
 70
     0
  0
ATTDEF
  5
1EB
330
1C6
100
AcDbEntity
  8
EPLAN453
 62
    73
100
AcDbText
 10
268.1172984
 20
292.02476
 30
0.0
 40
1.6254
  1
53_19005
  7
Tahoma
 72
     1
 11
273.0
 21
292.83746
 31
0.0
100
AcDbAttributeDefinition
  3
Spaltennummer
  2
53_19005_8
 70
     0
 74
     2
  0
LINE
  5
1EC
102
{ACAD_REACTORS
330
1CA
102
}
330
1C6
100
AcDbEntity
  8
EPLAN201
  6
Continuous
 62
    73
 48
4.0
370
    13
100
AcDbLine
 10
344.0
 20
8.0
 30
0.0
 11
344.0
 21
0.0
 31
0.0
  0
TEXT
  5
1ED
102
{ACAD_REACTORS
330
1CA
102
}
330
1C6
100
AcDbEntity
  8
EPLAN201
 62
    73
100
AcDbText
 10
386.0
 20
5.0
 30
0.0
 40
2.2575
  1
Blatt
  7
Tahoma
100
AcDbText
  0
LINE
  5
1EE
102
{ACAD_REACTORS
330
1CA
102
}
330
1C6
100
AcDbEntity
  8
EPLAN201
  6
Continuous
 62
    73
 48
4.0
370
    25
100
AcDbLine
 10
384.0
 20
0.0
 30
0.0
 11
384.0
 21
8.0
 31
0.0
  0
ATTDEF
  5
1EF
330
1C6
100
AcDbEntity
  8
EPLAN453
 62
    73
100
AcDbText
 10
142.1172984
 20
292.02476
 30
0.0
 40
1.6254
  1
53_19005
  7
Tahoma
 72
     1
 11
147.0
 21
292.83746
 31
0.0
100
AcDbAttributeDefinition
  3
Spaltennummer
  2
53_19005_9
 70
     0
 74
     2
  0
ATTDEF
  5
1F0
330
1C6
100
AcDbEntity
  8
EPLAN452
 62
    73
100
AcDbText
 10
334.8793935
 20
5.0
 30
0.0
 40
1.3545
  1
4_11024
  7
Tahoma
 72
     2
 11
342.0
 21
5.0
 31
0.0
100
AcDbAttributeDefinition
  3
Änderungsdatum (automatisch)
  2
4_11024
 70
     0
  0
LWPOLYLINE
  5
1F1
102
{ACAD_REACTORS
330
1CA
102
}
330
1C6
100
AcDbEntity
  8
EPLAN201
  6
Continuous
 62
    73
 48
4.0
370
    35
100
AcDbPolyline
 90
        2
 70
     0
 43
0.0
 10
0.0
 20
289.0
 10
420.0
 20
289.0
  0
LWPOLYLINE
  5
1F2
102
{ACAD_REACTORS
330
1CA
102
}
330
1C6
100
AcDbEntity
  8
EPLAN201
  6
Continuous
 62
    73
 48
4.0
370
    35
100
AcDbPolyline
 90
        2
 70
     0
 43
0.0
 10
42.0
 20
297.0
 10
42.0
 20
289.0
  0
LWPOLYLINE
  5
1F3
102
{ACAD_REACTORS
330
1CA
102
}
330
1C6
100
AcDbEntity
  8
EPLAN201
  6
Continuous
 62
    73
 48
4.0
370
    35
100
AcDbPolyline
 90
        2
 70
     0
 43
0.0
 10
84.0
 20
297.0
 10
84.0
 20
289.0
  0
LWPOLYLINE
  5
1F4
102
{ACAD_REACTORS
330
1CA
102
}
330
1C6
100
AcDbEntity
  8
EPLAN201
  6
Continuous
 62
    73
 48
4.0
370
    35
100
AcDbPolyline
 90
        2
 70
     0
 43
0.0
 10
126.0
 20
297.0
 10
126.0
 20
289.0
  0
LWPOLYLINE
  5
1F5
102
{ACAD_REACTORS
330
1CA
102
}
330
1C6
100
AcDbEntity
  8
EPLAN201
  6
Continuous
 62
    73
 48
4.0
370
    35
100
AcDbPolyline
 90
        2
 70
     0
 43
0.0
 10
168.0
 20
297.0
 10
168.0
 20
289.0
  0
LWPOLYLINE
  5
1F6
102
{ACAD_REACTORS
330
1CA
102
}
330
1C6
100
AcDbEntity
  8
EPLAN201
  6
Continuous
 62
    73
 48
4.0
370
    35
100
AcDbPolyline
 90
        2
 70
     0
 43
0.0
 10
210.0
 20
297.0
 10
210.0
 20
289.0
  0
LWPOLYLINE
  5
1F7
102
{ACAD_REACTORS
330
1CA
102
}
330
1C6
100
AcDbEntity
  8
EPLAN201
  6
Continuous
 62
    73
 48
4.0
370
    35
100
AcDbPolyline
 90
        2
 70
     0
 43
0.0
 10
252.0
 20
297.0
 10
252.0
 20
289.0
  0
LWPOLYLINE
  5
1F8
102
{ACAD_REACTORS
330
1CA
102
}
330
1C6
100
AcDbEntity
  8
EPLAN201
  6
Continuous
 62
    73
 48
4.0
370
    35
100
AcDbPolyline
 90
        2
 70
     0
 43
0.0
 10
294.0
 20
297.0
 10
294.0
 20
289.0
  0
LWPOLYLINE
  5
1F9
102
{ACAD_REACTORS
330
1CA
102
}
330
1C6
100
AcDbEntity
  8
EPLAN201
  6
Continuous
 62
    73
 48
4.0
370
    35
100
AcDbPolyline
 90
        2
 70
     0
 43
0.0
 10
336.0
 20
297.0
 10
336.0
 20
289.0
  0
LWPOLYLINE
  5
1FA
102
{ACAD_REACTORS
330
1CA
102
}
330
1C6
100
AcDbEntity
  8
EPLAN201
  6
Continuous
 62
    73
 48
4.0
370
    35
100
AcDbPolyline
 90
        2
 70
     0
 43
0.0
 10
378.0
 20
297.0
 10
378.0
 20
289.0
  0
TEXT
  5
1FB
102
{ACAD_REACTORS
330
1CA
102
}
330
1C6
100
AcDbEntity
  8
EPLAN201
 62
    73
100
AcDbText
 10
369.0
 20
13.0
 30
0.0
 40
1.806
  1
Produktgruppe:
  7
Tahoma
100
AcDbText
  0
TEXT
  5
1FC
102
{ACAD_REACTORS
330
1CA
102
}
330
1C6
100
AcDbEntity
  8
EPLAN201
 62
    73
100
AcDbText
 10
386.0
 20
1.0
 30
0.0
 40
2.2575
  1
Gesamt
  7
Tahoma
100
AcDbText
  0
ATTDEF
  5
1FD
330
1C6
100
AcDbEntity
  8
EPLAN452
 62
    73
100
AcDbText
 10
406.1323225
 20
1.0
 30
0.0
 40
2.2575
  1
4_11043
  7
Tahoma
 72
     2
 11
418.0
 21
1.0
 31
0.0
100
AcDbAttributeDefinition
  3
Höchste Seitenzahl pro Struktur
  2
4_11043
 70
     0
  0
IMAGE
  5
200
330
1C6
100
AcDbEntity
  8
EPLAN205
 92
        8
310
0800000000000000
100
AcDbRasterImage
 90
        0
 10
144.5
 20
0.5248226950354611
 30
0.0
 11
0.2783687943262411
 21
0.0
 31
0.0
 12
0.0
 22
0.2783687943262411
 32
0.0
 13
282.0
 23
52.0
340
1FF
 70
    15
280
     0
281
    50
282
    50
283
     0
360
201
 71
     1
 91
        2
 14
-0.5
 24
-0.5
 14
281.5
 24
51.5
  0
ENDBLK
  5
1C8
330
1C6
100
AcDbEntity
  8
0
100
AcDbBlockEnd
  0
BLOCK
  5
224
330
223
100
AcDbEntity
  8
0
100
AcDbBlockBegin
  2
EPLSYM_LibrarySPECIAL_Symbol1_Variant0_Placement3
 70
     2
 10
0.0
 20
0.0
 30
0.0
  3
EPLSYM_LibrarySPECIAL_Symbol1_Variant0_Placement3
  1

  0
ATTDEF
  5
226
330
223
100
AcDbEntity
  8
EPLAN503
 62
     0
100
AcDbText
 10
-1.5
 20
-17.28829960679612
 30
0.0
 40
1.6254
  1
17_20024
  7
Tahoma
 11
-1.5
 21
-17.75
 31
0.0
100
AcDbAttributeDefinition
  3
Montageort (beschreibend)
  2
17_20024
 70
     0
 74
     1
  0
ATTDEF
  5
227
330
223
100
AcDbEntity
  8
EPLAN502
 62
     0
100
AcDbText
 10
-1.5
 20
-14.58829960679612
 30
0.0
 40
1.6254
  1
17_20025
  7
Tahoma
 11
-1.5
 21
-15.05
 31
0.0
100
AcDbAttributeDefinition
  3
Graviertext
  2
17_20025
 70
     0
 74
     1
  0
ATTDEF
  5
228
330
223
100
AcDbEntity
  8
EPLAN501
 62
     0
100
AcDbText
 10
-1.5
 20
-11.88829960679612
 30
0.0
 40
1.6254
  1
17_20011
  7
Tahoma
 11
-1.5
 21
-12.35
 31
0.0
100
AcDbAttributeDefinition
  3
Funktionstext
  2
17_20011
 70
     0
 74
     1
  0
ATTDEF
  5
229
330
223
100
AcDbEntity
  8
EPLAN504
 62
     0
100
AcDbText
 10
-1.5
 20
-9.188299606796116
 30
0.0
 40
1.6254
  1
17_20901[1]
  7
Tahoma
 11
-1.5
 21
-9.65
 31
0.0
100
AcDbAttributeDefinition
  3
Zusatzfeld[1]
  2
17_20901[1]
 70
     0
 74
     1
  0
ATTDEF
  5
22A
330
223
100
AcDbEntity
  8
EPLAN500
 62
     0
100
AcDbText
 10
-1.5
 20
-6.488299606796117
 30
0.0
 40
1.6254
  1
17_20027
  7
Tahoma
 11
-1.5
 21
-6.95
 31
0.0
100
AcDbAttributeDefinition
  3
Technische Kenngrößen
  2
17_20027
 70
     0
 74
     1
  0
ATTDEF
  5
22B
330
223
100
AcDbEntity
  8
EPLAN440
 62
    73
100
AcDbText
 10
-1.5
 20
-3.788299606796116
 30
0.0
 40
1.6254
  1
17_20300
  7
Tahoma
 11
-1.5
 21
-4.25
 31
0.0
100
AcDbAttributeDefinition
  3
Querverweis (Haupt- / Nebenfunktion)
  2
17_20300
 70
     0
 74
     1
  0
ATTDEF
  5
22C
330
223
100
AcDbEntity
  8
EPLAN400
 62
     5
100
AcDbText
 10
-1.5
 20
0.1412505461165049
 30
0.0
 40
2.2575
  1
17_20010
  7
Tahoma
 11
-1.5
 21
-0.5
 31
0.0
100
AcDbAttributeDefinition
  3
BMK (sichtbar)
  2
17_20010
 70
     0
 74
     1
  0
LWPOLYLINE
  5
22D
102
{ACAD_REACTORS
330
21D
102
}
330
223
100
AcDbEntity
  8
EPLAN306
  6
EPL_DASH
 62
     6
 48
4.0
370
    25
100
AcDbPolyline
 90
        4
 70
     1
 43
0.0
 10
0.0
 20
-212.0
 10
68.0
 20
-212.0
 10
68.0
 20
0.0
 10
0.0
 20
0.0
  0
ENDBLK
  5
225
330
223
100
AcDbEntity
  8
0
100
AcDbBlockEnd
  0
BLOCK
  5
241
330
240
100
AcDbEntity
  8
0
100
AcDbBlockBegin
  2
EPLSYM_LibrarySPECIAL_Symbol13_Variant3_Placement3
 70
     2
 10
0.0
 20
0.0
 30
0.0
  3
EPLSYM_LibrarySPECIAL_Symbol13_Variant3_Placement3
  1

  0
ATTDEF
  5
243
330
240
100
AcDbEntity
  8
EPLAN421
 62
     5
100
AcDbText
 10
-1.2263956
 20
4.333450283980582
 30
0.0
 40
1.1739
  1
17_20039
  7
Tahoma
 72
     1
 11
2.3
 21
4.0
 31
0.0
100
AcDbAttributeDefinition
  3
Anschlussbeschreibungen (alle)
  2
17_20039
 70
     0
 74
     1
  0
ATTDEF
  5
244
330
240
100
AcDbEntity
  8
EPLAN441
 62
    73
100
AcDbText
 10
-35.99
 20
-0.9752400000000001
 30
0.0
 40
1.6254
  1
17_20301
  7
Tahoma
 11
-35.99
 21
-0.16254
 31
0.0
100
AcDbAttributeDefinition
  3
Übersichtsquerverweis
  2
17_20301
 70
     0
 74
     2
  0
LINE
  5
246
102
{ACAD_REACTORS
330
245
102
}
330
240
100
AcDbEntity
  8
EPLAN303
  6
Continuous
 62
     6
 48
4.0
370
    25
100
AcDbLine
 10
4.0
 20
0.0
 30
0.0
 11
1.0
 21
0.0
 31
0.0
  0
CIRCLE
  5
247
102
{ACAD_REACTORS
330
245
102
}
330
240
100
AcDbEntity
  8
EPLAN303
  6
Continuous
 62
     6
 48
4.0
370
    25
100
AcDbCircle
 10
0.0
 20
0.0
 30
0.0
 40
1.0
  0
ENDBLK
  5
242
330
240
100
AcDbEntity
  8
0
100
AcDbBlockEnd
  0
ENDSEC
  0
SECTION
  2
ENTITIES
  0
INSERT
  5
202
330
1F
100
AcDbEntity
  8
0
100
AcDbBlockReference
 66
     1
  2
EPLFRAME
 10
0.0
 20
0.0
 30
0.0
  0
ATTRIB
  5
203
330
202
100
AcDbEntity
  8
EPLAN452
 62
    73
100
AcDbText
 10
342.0
 20
1.5
 30
0.0
 40
1.3545
  1

  7
Tahoma
 72
     2
 11
342.0
 21
1.5
 31
0.0
100
AcDbAttribute
  2
4_3010
 70
     0
  0
ATTRIB
  5
204
330
202
100
AcDbEntity
  8
EPLAN452
 62
    73
100
AcDbText
 10
369.0
 20
9.0
 30
0.0
 40
1.6254
  1
6ES7515_2RM00_0AB0
  7
Tahoma
100
AcDbAttribute
  2
4_1220
 70
     0
  0
ATTRIB
  5
205
330
202
100
AcDbEntity
  8
EPLAN453
 62
    73
100
AcDbText
 10
188.3896623
 20
292.02476
 30
0.0
 40
1.6254
  1
4
  7
Tahoma
 72
     1
 11
189.0
 21
292.83746
 31
0.0
100
AcDbAttribute
  2
53_19005
 70
     0
 74
     2
  0
ATTRIB
  5
206
330
202
100
AcDbEntity
  8
EPLAN453
 62
    73
100
AcDbText
 10
20.3896623
 20
292.02476
 30
0.0
 40
1.6254
  1
0
  7
Tahoma
 72
     1
 11
21.0
 21
292.83746
 31
0.0
100
AcDbAttribute
  2
53_19005_1
 70
     0
 74
     2
  0
ATTRIB
  5
207
330
202
100
AcDbEntity
  8
EPLAN453
 62
    73
100
AcDbText
 10
398.3896623
 20
292.02476
 30
0.0
 40
1.6254
  1
9
  7
Tahoma
 72
     1
 11
399.0
 21
292.83746
 31
0.0
100
AcDbAttribute
  2
53_19005_2
 70
     0
 74
     2
  0
ATTRIB
  5
208
330
202
100
AcDbEntity
  8
EPLAN452
 62
    73
100
AcDbText
 10
2.0
 20
3.0
 30
0.0
 40
2.2575
  1
+6ES7515_2FM01_0AB0/5
  7
Tahoma
100
AcDbAttribute
  2
4_11041
 70
     0
  0
ATTRIB
  5
209
330
202
100
AcDbEntity
  8
EPLAN453
 62
    73
100
AcDbText
 10
230.3896623
 20
292.02476
 30
0.0
 40
1.6254
  1
5
  7
Tahoma
 72
     1
 11
231.0
 21
292.83746
 31
0.0
100
AcDbAttribute
  2
53_19005_3
 70
     0
 74
     2
  0
ATTRIB
  5
20A
330
202
100
AcDbEntity
  8
EPLAN452
 62
    73
100
AcDbText
 10
416.3046175
 20
5.0
 30
0.0
 40
2.2575
  1
1
  7
Tahoma
 72
     2
 11
418.0
 21
5.0
 31
0.0
100
AcDbAttribute
  2
4_11042
 70
     0
  0
ATTRIB
  5
20B
330
202
100
AcDbEntity
  8
EPLAN453
 62
    73
100
AcDbText
 10
356.3896623
 20
292.02476
 30
0.0
 40
1.6254
  1
8
  7
Tahoma
 72
     1
 11
357.0
 21
292.83746
 31
0.0
100
AcDbAttribute
  2
53_19005_4
 70
     0
 74
     2
  0
ATTRIB
  5
20C
330
202
100
AcDbEntity
  8
EPLAN453
 62
    73
100
AcDbText
 10
104.3896623
 20
292.02476
 30
0.0
 40
1.6254
  1
2
  7
Tahoma
 72
     1
 11
105.0
 21
292.83746
 31
0.0
100
AcDbAttribute
  2
53_19005_5
 70
     0
 74
     2
  0
ATTRIB
  5
20D
330
202
100
AcDbEntity
  8
EPLAN452
 62
    73
100
AcDbText
 10
382.0
 20
1.5
 30
0.0
 40
1.3545
  1

  7
Tahoma
 72
     2
 11
382.0
 21
1.5
 31
0.0
100
AcDbAttribute
  2
4_11015
 70
     0
  0
ATTRIB
  5
20E
330
202
100
AcDbEntity
  8
EPLAN452
 62
    73
100
AcDbText
 10
250.90690125
 20
8.7336875
 30
0.0
 40
2.2575
  1
6ES7515-2RM00-0AB0
  7
Tahoma
 72
     1
 11
266.25
 21
9.8624375
 31
0.0
100
AcDbAttribute
  2
4_11011
 70
     0
 74
     2
  0
ATTRIB
  5
20F
330
202
100
AcDbEntity
  8
EPLAN452
 62
    73
100
AcDbText
 10
416.643694
 20
18.0
 30
0.0
 40
1.806
  1
2
  7
Tahoma
 72
     2
 11
418.0
 21
18.0
 31
0.0
100
AcDbAttribute
  2
4_11040
 70
     0
  0
ATTRIB
  5
210
330
202
100
AcDbEntity
  8
EPLAN453
 62
    73
100
AcDbText
 10
62.3896623
 20
292.02476
 30
0.0
 40
1.6254
  1
1
  7
Tahoma
 72
     1
 11
63.0
 21
292.83746
 31
0.0
100
AcDbAttribute
  2
53_19005_6
 70
     0
 74
     2
  0
ATTRIB
  5
211
330
202
100
AcDbEntity
  8
EPLAN452
 62
    73
100
AcDbText
 10
382.0
 20
5.0
 30
0.0
 40
1.3545
  1

  7
Tahoma
 72
     2
 11
382.0
 21
5.0
 31
0.0
100
AcDbAttribute
  2
4_11080
 70
     0
  0
ATTRIB
  5
212
330
202
100
AcDbEntity
  8
EPLAN453
 62
    73
100
AcDbText
 10
314.3896623
 20
292.02476
 30
0.0
 40
1.6254
  1
7
  7
Tahoma
 72
     1
 11
315.0
 21
292.83746
 31
0.0
100
AcDbAttribute
  2
53_19005_7
 70
     0
 74
     2
  0
ATTRIB
  5
213
330
202
100
AcDbEntity
  8
EPLAN452
 62
    73
100
AcDbText
 10
397.0
 20
13.0
 30
0.0
 40
1.6254
  1
S7-1500
  7
Tahoma
100
AcDbAttribute
  2
4_1120
 70
     0
  0
ATTRIB
  5
214
330
202
100
AcDbEntity
  8
EPLAN453
 62
    73
100
AcDbText
 10
272.3896623
 20
292.02476
 30
0.0
 40
1.6254
  1
6
  7
Tahoma
 72
     1
 11
273.0
 21
292.83746
 31
0.0
100
AcDbAttribute
  2
53_19005_8
 70
     0
 74
     2
  0
ATTRIB
  5
215
330
202
100
AcDbEntity
  8
EPLAN453
 62
    73
100
AcDbText
 10
146.3896623
 20
292.02476
 30
0.0
 40
1.6254
  1
3
  7
Tahoma
 72
     1
 11
147.0
 21
292.83746
 31
0.0
100
AcDbAttribute
  2
53_19005_9
 70
     0
 74
     2
  0
ATTRIB
  5
216
330
202
100
AcDbEntity
  8
EPLAN452
 62
    73
100
AcDbText
 10
332.73522
 20
5.0
 30
0.0
 40
1.3545
  1
06.02.2019
  7
Tahoma
 72
     2
 11
342.0
 21
5.0
 31
0.0
100
AcDbAttribute
  2
4_11024
 70
     0
  0
ATTRIB
  5
217
330
202
100
AcDbEntity
  8
EPLAN452
 62
    73
100
AcDbText
 10
416.3046175
 20
1.0
 30
0.0
 40
2.2575
  1
5
  7
Tahoma
 72
     2
 11
418.0
 21
1.0
 31
0.0
100
AcDbAttribute
  2
4_11043
 70
     0
  0
ATTRIB
  5
218
330
202
100
AcDbEntity
  8
EPLAN452
 62
    73
100
AcDbText
 10
252.1699725
 20
5.3474375
 30
0.0
 40
2.2575
  1
Übersicht/Variante A
  7
Tahoma
 72
     1
 11
266.25
 21
6.4761875
 31
0.0
100
AcDbAttribute
  2
4_11011/1
 70
     0
 74
     2
  0
SEQEND
  5
219
330
202
100
AcDbEntity
  8
0
  0
TEXT
  5
21E
102
{ACAD_REACTORS
330
21D
102
}
330
1F
100
AcDbEntity
  8
EPLAN400
 62
     5
100
AcDbText
 10
24.0
 20
37.291
 30
0.0
 40
2.2575
  1
Siemens\Automation_Systems\S7-1500\6ES7515-2RM00-0AB0.ema
  7
Tahoma
 11
24.0
 21
39.5485
 31
0.0
100
AcDbText
 73
     3
  0
TEXT
  5
21F
102
{ACAD_REACTORS
330
21D
102
}
330
1F
100
AcDbEntity
  8
EPLAN400
 62
     5
100
AcDbText
 10
24.0
 20
33.541
 30
0.0
 40
2.2575
  1
Übersicht
  7
Tahoma
 11
24.0
 21
35.7985
 31
0.0
100
AcDbText
 73
     3
  0
TEXT
  5
220
102
{ACAD_REACTORS
330
21D
102
}
330
1F
100
AcDbEntity
  8
EPLAN400
 62
     5
100
AcDbText
 10
24.0
 20
29.791
 30
0.0
 40
2.2575
  1
Variante A
  7
Tahoma
 11
24.0
 21
32.0485
 31
0.0
100
AcDbText
 73
     3
  0
TEXT
  5
221
102
{ACAD_REACTORS
330
21D
102
}
330
1F
100
AcDbEntity
  8
EPLAN400
 62
     5
100
AcDbText
 10
24.0
 20
26.041
 30
0.0
 40
2.2575
  1
2018-11 / P8 2.7
  7
Tahoma
 11
24.0
 21
28.2985
 31
0.0
100
AcDbText
 73
     3
  0
MTEXT
  5
222
102
{ACAD_REACTORS
330
21D
102
}
330
1F
100
AcDbEntity
  8
EPLAN400
 62
     5
100
AcDbMText
 10
24.0
 20
24.5
 30
0.0
 40
2.2575
 41
0.0
 71
     1
 72
     1
  1
CPU 1515 R\POverview
  7
Tahoma
 73
     2
 44
1.0
  0
INSERT
  5
22E
102
{ACAD_REACTORS
330
21D
102
}
330
1F
100
AcDbEntity
  8
0
100
AcDbBlockReference
 66
     1
  2
EPLSYM_LibrarySPECIAL_Symbol1_Variant0_Placement3
 10
28.0
 20
256.0
 30
0.0
  0
ATTRIB
  5
22F
330
22E
100
AcDbEntity
  8
EPLAN503
 62
     0
100
AcDbText
 10
28.0
 20
257.9617003932039
 30
0.0
 40
1.6254
  1

  7
Tahoma
 11
28.0
 21
257.5
 31
0.0
100
AcDbAttribute
  2
17_20024
 70
     0
 74
     1
  0
ATTRIB
  5
230
330
22E
100
AcDbEntity
  8
EPLAN502
 62
     0
100
AcDbText
 10
28.0
 20
256.4617003932039
 30
0.0
 40
1.6254
  1

  7
Tahoma
 11
28.0
 21
256.0
 31
0.0
100
AcDbAttribute
  2
17_20025
 70
     0
 74
     1
  0
ATTRIB
  5
231
330
22E
100
AcDbEntity
  8
EPLAN501
 62
     0
100
AcDbText
 10
28.0
 20
256.4617003932039
 30
0.0
 40
1.6254
  1

  7
Tahoma
 11
28.0
 21
256.0
 31
0.0
100
AcDbAttribute
  2
17_20011
 70
     0
 74
     1
  0
ATTRIB
  5
232
330
22E
100
AcDbEntity
  8
EPLAN504
 62
     0
100
AcDbText
 10
28.0
 20
256.4617003932039
 30
0.0
 40
1.6254
  1

  7
Tahoma
 11
28.0
 21
256.0
 31
0.0
100
AcDbAttribute
  2
17_20901[1]
 70
     0
 74
     1
  0
ATTRIB
  5
233
330
22E
100
AcDbEntity
  8
EPLAN500
 62
     0
100
AcDbText
 10
28.0
 20
256.4617003932039
 30
0.0
 40
1.6254
  1

  7
Tahoma
 11
28.0
 21
256.0
 31
0.0
100
AcDbAttribute
  2
17_20027
 70
     0
 74
     1
  0
ATTRIB
  5
234
330
22E
100
AcDbEntity
  8
EPLAN440
 62
    73
100
AcDbText
 10
28.0
 20
256.4617003932039
 30
0.0
 40
1.6254
  1

  7
Tahoma
 11
28.0
 21
256.0
 31
0.0
100
AcDbAttribute
  2
17_20300
 70
     0
 74
     1
  0
ATTRIB
  5
235
330
22E
100
AcDbEntity
  8
EPLAN400
 62
     5
100
AcDbText
 10
28.0
 20
262.3412505461165
 30
0.0
 40
2.2575
  1
-K1
  7
Tahoma
 11
28.0
 21
261.7
 31
0.0
100
AcDbAttribute
  2
17_20010
 70
     0
 74
     1
  0
ATTRIB
  5
236
330
22E
100
AcDbEntity
  8
EPLAN491
 62
     5
100
AcDbText
 10
28.0
 20
259.4617003932039
 30
0.0
 40
1.6254
  1

  7
Tahoma
 11
28.0
 21
259.0
 31
0.0
100
AcDbAttribute
  2
17_20100[2]
 70
     0
 74
     1
  0
ATTRIB
  5
237
330
22E
100
AcDbEntity
  8
EPLAN491
 62
     5
100
AcDbText
 10
28.0
 20
259.4617003932039
 30
0.0
 40
1.6254
  1
SIE.6ES7515-2RM00-0AB0
  7
Tahoma
 11
28.0
 21
259.0
 31
0.0
100
AcDbAttribute
  2
17_20100[1]
 70
     0
 74
     1
  0
ATTRIB
  5
238
330
22E
100
AcDbEntity
  8
EPLAN400
 62
     5
100
AcDbText
 10
28.0
 20
256.6412505461165
 30
0.0
 40
2.2575
  1

  7
Tahoma
 11
28.0
 21
256.0
 31
0.0
100
AcDbAttribute
  2
17_20411
 70
     0
 74
     1
  0
ATTRIB
  5
239
330
22E
100
AcDbEntity
  8
EPLAN400
 62
     5
100
AcDbText
 10
28.0
 20
256.6412505461165
 30
0.0
 40
2.2575
  1

  7
Tahoma
 11
28.0
 21
256.0
 31
0.0
100
AcDbAttribute
  2
17_20410
 70
     0
 74
     1
  0
ATTRIB
  5
23A
330
22E
100
AcDbEntity
  8
EPLAN400
 62
     5
100
AcDbText
 10
28.0
 20
256.6412505461165
 30
0.0
 40
2.2575
  1

  7
Tahoma
 11
28.0
 21
256.0
 31
0.0
100
AcDbAttribute
  2
17_20427
 70
     0
 74
     1
  0
ATTRIB
  5
23B
330
22E
100
AcDbEntity
  8
EPLAN108
 62
     5
100
AcDbText
 10
79.43927
 20
250.6455
 30
0.0
 40
2.2575
  1
SIEMENS
  7
Tahoma
 72
     2
 11
92.0
 21
251.77425
 31
0.0
100
AcDbAttribute
  2
17_20901[20]
 70
     0
 74
     2
  0
ATTRIB
  5
23C
330
22E
100
AcDbEntity
  8
EPLAN400
 62
     5
100
AcDbText
 10
32.0
 20
46.6455
 30
0.0
 40
2.2575
  1
6ES7515-2RM00-0AB0
  7
Tahoma
 11
32.0
 21
47.77425
 31
0.0
100
AcDbAttribute
  2
17_20901[21]
 70
     0
 74
     2
  0
ATTRIB
  5
23D
330
22E
100
AcDbEntity
  8
EPLAN400
 62
     5
100
AcDbText
 10
32.0
 20
246.6455
 30
0.0
 40
2.2575
  1
CPU 1515 R
  7
Tahoma
 11
32.0
 21
247.77425
 31
0.0
100
AcDbAttribute
  2
17_20901[22]
 70
     0
 74
     2
  0
ATTRIB
  5
23E
330
22E
100
AcDbEntity
  8
EPLAN400
 62
     5
100
AcDbText
 10
32.0
 20
250.6455
 30
0.0
 40
2.2575
  1
S7-1500
  7
Tahoma
 11
32.0
 21
251.77425
 31
0.0
100
AcDbAttribute
  2
17_20901[23]
 70
     0
 74
     2
  0
SEQEND
  5
23F
330
22E
100
AcDbEntity
  8
0
  0
INSERT
  5
248
102
{ACAD_REACTORS
330
21D
102
}
330
1F
100
AcDbEntity
  8
0
100
AcDbBlockReference
 66
     1
  2
EPLSYM_LibrarySPECIAL_Symbol13_Variant3_Placement3
 10
88.0
 20
228.0
 30
0.0
  0
ATTRIB
  5
249
330
248
100
AcDbEntity
  8
EPLAN421
 62
     5
100
AcDbText
 10
87.0162718
 20
224.8334502839806
 30
0.0
 40
1.1739
  1
PN
  7
Tahoma
 72
     1
 11
88.0
 21
224.5
 31
0.0
100
AcDbAttribute
  2
17_20039
 70
     0
 74
     1
  0
ATTRIB
  5
24A
330
248
100
AcDbEntity
  8
EPLAN441
 62
    73
100
AcDbText
 10
103.0
 20
227.02476
 30
0.0
 40
1.6254
  1

  7
Tahoma
 11
103.0
 21
227.83746
 31
0.0
100
AcDbAttribute
  2
17_20301
 70
     0
 74
     2
  0
ATTRIB
  5
24B
330
248
100
AcDbEntity
  8
EPLAN426
 62
   251
100
AcDbText
 10
86.0
 20
227.02476
 30
0.0
 40
1.6254
  1

  7
Tahoma
 72
     2
 11
86.0
 21
227.83746
 31
0.0
100
AcDbAttribute
  2
17_20400
 70
     0
 74
     2
  0
ATTRIB
  5
24C
330
248
100
AcDbEntity
  8
EPLAN428
 62
   251
100
AcDbText
 10
84.0770971
 20
229.4617003932039
 30
0.0
 40
1.6254
  1
X1P1 R:
  7
Tahoma
 72
     1
 11
88.0
 21
229.0
 31
0.0
100
AcDbAttribute
  2
17_20435
 70
     0
 74
     1
  0
ATTRIB
  5
24D
330
248
100
AcDbEntity
  8
EPLAN425
 62
   251
100
AcDbText
 10
118.0
 20
227.02476
 30
0.0
 40
1.6254
  1

  7
Tahoma
 11
118.0
 21
227.83746
 31
0.0
100
AcDbAttribute
  2
17_20404
 70
     0
 74
     2
  0
ATTRIB
  5
24E
330
248
100
AcDbEntity
  8
EPLAN501
 62
     0
100
AcDbText
 10
148.0
 20
227.02476
 30
0.0
 40
1.6254
  1

  7
Tahoma
 11
148.0
 21
227.83746
 31
0.0
100
AcDbAttribute
  2
17_20031
 70
     0
 74
     2
  0
SEQEND
  5
24F
330
248
100
AcDbEntity
  8
0
  0
INSERT
  5
250
102
{ACAD_REACTORS
330
21D
102
}
330
1F
100
AcDbEntity
  8
0
100
AcDbBlockReference
 66
     1
  2
EPLSYM_LibrarySPECIAL_Symbol13_Variant3_Placement3
 10
88.0
 20
220.0
 30
0.0
  0
ATTRIB
  5
251
330
250
100
AcDbEntity
  8
EPLAN426
 62
   251
100
AcDbText
 10
86.0
 20
219.02476
 30
0.0
 40
1.6254
  1

  7
Tahoma
 72
     2
 11
86.0
 21
219.83746
 31
0.0
100
AcDbAttribute
  2
17_20400
 70
     0
 74
     2
  0
ATTRIB
  5
252
330
250
100
AcDbEntity
  8
EPLAN428
 62
   251
100
AcDbText
 10
84.0770971
 20
221.4617003932039
 30
0.0
 40
1.6254
  1
X1P2 R:
  7
Tahoma
 72
     1
 11
88.0
 21
221.0
 31
0.0
100
AcDbAttribute
  2
17_20435
 70
     0
 74
     1
  0
ATTRIB
  5
253
330
250
100
AcDbEntity
  8
EPLAN421
 62
     5
100
AcDbText
 10
87.0162718
 20
216.8334502839806
 30
0.0
 40
1.1739
  1
PN
  7
Tahoma
 72
     1
 11
88.0
 21
216.5
 31
0.0
100
AcDbAttribute
  2
17_20039
 70
     0
 74
     1
  0
ATTRIB
  5
254
330
250
100
AcDbEntity
  8
EPLAN441
 62
    73
100
AcDbText
 10
103.0
 20
219.02476
 30
0.0
 40
1.6254
  1

  7
Tahoma
 11
103.0
 21
219.83746
 31
0.0
100
AcDbAttribute
  2
17_20301
 70
     0
 74
     2
  0
ATTRIB
  5
255
330
250
100
AcDbEntity
  8
EPLAN425
 62
   251
100
AcDbText
 10
118.0
 20
219.02476
 30
0.0
 40
1.6254
  1

  7
Tahoma
 11
118.0
 21
219.83746
 31
0.0
100
AcDbAttribute
  2
17_20404
 70
     0
 74
     2
  0
ATTRIB
  5
256
330
250
100
AcDbEntity
  8
EPLAN501
 62
     0
100
AcDbText
 10
148.0
 20
219.02476
 30
0.0
 40
1.6254
  1

  7
Tahoma
 11
148.0
 21
219.83746
 31
0.0
100
AcDbAttribute
  2
17_20031
 70
     0
 74
     2
  0
SEQEND
  5
257
330
250
100
AcDbEntity
  8
0
  0
INSERT
  5
258
102
{ACAD_REACTORS
330
21D
102
}
330
1F
100
AcDbEntity
  8
0
100
AcDbBlockReference
 66
     1
  2
EPLSYM_LibrarySPECIAL_Symbol13_Variant3_Placement3
 10
88.0
 20
208.0
 30
0.0
  0
ATTRIB
  5
259
330
258
100
AcDbEntity
  8
EPLAN426
 62
   251
100
AcDbText
 10
86.0
 20
207.02476
 30
0.0
 40
1.6254
  1

  7
Tahoma
 72
     2
 11
86.0
 21
207.83746
 31
0.0
100
AcDbAttribute
  2
17_20400
 70
     0
 74
     2
  0
ATTRIB
  5
25A
330
258
100
AcDbEntity
  8
EPLAN428
 62
   251
100
AcDbText
 10
85.1197912
 20
209.4617003932039
 30
0.0
 40
1.6254
  1
X2P1:
  7
Tahoma
 72
     1
 11
88.0
 21
209.0
 31
0.0
100
AcDbAttribute
  2
17_20435
 70
     0
 74
     1
  0
ATTRIB
  5
25B
330
258
100
AcDbEntity
  8
EPLAN421
 62
     5
100
AcDbText
 10
87.0162718
 20
204.8334502839806
 30
0.0
 40
1.1739
  1
PN
  7
Tahoma
 72
     1
 11
88.0
 21
204.5
 31
0.0
100
AcDbAttribute
  2
17_20039
 70
     0
 74
     1
  0
ATTRIB
  5
25C
330
258
100
AcDbEntity
  8
EPLAN441
 62
    73
100
AcDbText
 10
103.0
 20
207.02476
 30
0.0
 40
1.6254
  1

  7
Tahoma
 11
103.0
 21
207.83746
 31
0.0
100
AcDbAttribute
  2
17_20301
 70
     0
 74
     2
  0
ATTRIB
  5
25D
330
258
100
AcDbEntity
  8
EPLAN425
 62
   251
100
AcDbText
 10
118.0
 20
207.02476
 30
0.0
 40
1.6254
  1

  7
Tahoma
 11
118.0
 21
207.83746
 31
0.0
100
AcDbAttribute
  2
17_20404
 70
     0
 74
     2
  0
ATTRIB
  5
25E
330
258
100
AcDbEntity
  8
EPLAN501
 62
     0
100
AcDbText
 10
148.0
 20
207.02476
 30
0.0
 40
1.6254
  1

  7
Tahoma
 11
148.0
 21
207.83746
 31
0.0
100
AcDbAttribute
  2
17_20031
 70
     0
 74
     2
  0
SEQEND
  5
25F
330
258
100
AcDbEntity
  8
0
  0
LWPOLYLINE
  5
260
102
{ACAD_REACTORS
330
21C
102
}
330
1F
100
AcDbEntity
  8
EPLAN100
  6
Continuous
 62
     0
 48
4.0
370
    13
100
AcDbPolyline
 90
        4
 70
     0
 43
0.0
 10
82.0
 20
116.0
 10
80.0
 20
116.0
 10
80.0
 20
108.0
 10
82.0
 20
108.0
  0
LWPOLYLINE
  5
261
102
{ACAD_REACTORS
330
21C
102
}
330
1F
100
AcDbEntity
  8
EPLAN100
  6
Continuous
 62
     0
 48
4.0
370
    13
100
AcDbPolyline
 90
        4
 70
     0
 43
0.0
 10
82.0
 20
124.0
 10
76.0
 20
124.0
 10
76.0
 20
100.0
 10
82.0
 20
100.0
  0
LINE
  5
262
102
{ACAD_REACTORS
330
21C
102
}
330
1F
100
AcDbEntity
  8
EPLAN100
  6
Continuous
 62
     0
 48
4.0
370
    13
100
AcDbLine
 10
68.0
 20
124.0
 30
0.0
 11
56.0
 21
124.0
 31
0.0
  0
LINE
  5
263
102
{ACAD_REACTORS
330
21C
102
}
330
1F
100
AcDbEntity
  8
EPLAN100
  6
Continuous
 62
     0
 48
4.0
370
    13
100
AcDbLine
 10
68.0
 20
116.0
 30
0.0
 11
56.0
 21
116.0
 31
0.0
  0
LINE
  5
264
102
{ACAD_REACTORS
330
21C
102
}
330
1F
100
AcDbEntity
  8
EPLAN100
  6
Continuous
 62
     0
 48
4.0
370
    13
100
AcDbLine
 10
56.0
 20
116.0
 30
0.0
 11
56.0
 21
119.0
 31
0.0
  0
LINE
  5
265
102
{ACAD_REACTORS
330
21C
102
}
330
1F
100
AcDbEntity
  8
EPLAN100
  6
Continuous
 62
     0
 48
4.0
370
    13
100
AcDbLine
 10
56.0
 20
124.0
 30
0.0
 11
56.0
 21
121.0
 31
0.0
  0
LINE
  5
266
102
{ACAD_REACTORS
330
21C
102
}
330
1F
100
AcDbEntity
  8
EPLAN100
  6
Continuous
 62
     0
 48
4.0
370
    50
100
AcDbLine
 10
55.0
 20
119.0
 30
0.0
 11
57.0
 21
119.0
 31
0.0
  0
LINE
  5
267
102
{ACAD_REACTORS
330
21C
102
}
330
1F
100
AcDbEntity
  8
EPLAN100
  6
Continuous
 62
     0
 48
4.0
370
    13
100
AcDbLine
 10
53.0
 20
121.0
 30
0.0
 11
59.0
 21
121.0
 31
0.0
  0
INSERT
  5
268
102
{ACAD_REACTORS
330
21C
102
}
330
1F
100
AcDbEntity
  8
0
100
AcDbBlockReference
 66
     1
  2
EPLSYM_LibrarySPECIAL_Symbol13_Variant3_Placement3
 10
88.0
 20
116.0
 30
0.0
  0
ATTRIB
  5
269
330
268
100
AcDbEntity
  8
EPLAN426
 62
   251
100
AcDbText
 10
86.0
 20
115.02476
 30
0.0
 40
1.6254
  1

  7
Tahoma
 72
     2
 11
86.0
 21
115.83746
 31
0.0
100
AcDbAttribute
  2
17_20400
 70
     0
 74
     2
  0
ATTRIB
  5
26A
330
268
100
AcDbEntity
  8
EPLAN428
 62
   251
100
AcDbText
 10
84.7191301
 20
117.4617003932039
 30
0.0
 40
1.6254
  1
-X80:2
  7
Tahoma
 72
     1
 11
88.0
 21
117.0
 31
0.0
100
AcDbAttribute
  2
17_20435
 70
     0
 74
     1
  0
ATTRIB
  5
26B
330
268
100
AcDbEntity
  8
EPLAN400
 62
     5
100
AcDbText
 10
88.0
 20
116.4617003932039
 30
0.0
 40
1.6254
  1

  7
Tahoma
 72
     2
 11
88.0
 21
116.0
 31
0.0
100
AcDbAttribute
  2
17_20390
 70
     0
 74
     1
  0
ATTRIB
  5
26C
330
268
100
AcDbEntity
  8
EPLAN421
 62
     5
100
AcDbText
 10
86.9376205
 20
112.8334502839806
 30
0.0
 40
1.1739
  1
1M
  7
Tahoma
 72
     1
 11
88.0
 21
112.5
 31
0.0
100
AcDbAttribute
  2
17_20039
 70
     0
 74
     1
  0
ATTRIB
  5
26D
330
268
100
AcDbEntity
  8
EPLAN441
 62
    73
100
AcDbText
 10
103.0
 20
115.02476
 30
0.0
 40
1.6254
  1

  7
Tahoma
 11
103.0
 21
115.83746
 31
0.0
100
AcDbAttribute
  2
17_20301
 70
     0
 74
     2
  0
ATTRIB
  5
26E
330
268
100
AcDbEntity
  8
EPLAN425
 62
   251
100
AcDbText
 10
118.0
 20
115.02476
 30
0.0
 40
1.6254
  1

  7
Tahoma
 11
118.0
 21
115.83746
 31
0.0
100
AcDbAttribute
  2
17_20404
 70
     0
 74
     2
  0
ATTRIB
  5
26F
330
268
100
AcDbEntity
  8
EPLAN501
 62
     0
100
AcDbText
 10
148.0
 20
115.02476
 30
0.0
 40
1.6254
  1

  7
Tahoma
 11
148.0
 21
115.83746
 31
0.0
100
AcDbAttribute
  2
17_20031
 70
     0
 74
     2
  0
SEQEND
  5
270
330
268
100
AcDbEntity
  8
0
  0
INSERT
  5
271
102
{ACAD_REACTORS
330
21C
102
}
330
1F
100
AcDbEntity
  8
0
100
AcDbBlockReference
 66
     1
  2
EPLSYM_LibrarySPECIAL_Symbol13_Variant3_Placement3
 10
88.0
 20
124.0
 30
0.0
  0
ATTRIB
  5
272
330
271
100
AcDbEntity
  8
EPLAN426
 62
   251
100
AcDbText
 10
86.0
 20
123.02476
 30
0.0
 40
1.6254
  1

  7
Tahoma
 72
     2
 11
86.0
 21
123.83746
 31
0.0
100
AcDbAttribute
  2
17_20400
 70
     0
 74
     2
  0
ATTRIB
  5
273
330
271
100
AcDbEntity
  8
EPLAN428
 62
   251
100
AcDbText
 10
84.7191301
 20
125.4617003932039
 30
0.0
 40
1.6254
  1
-X80:1
  7
Tahoma
 72
     1
 11
88.0
 21
125.0
 31
0.0
100
AcDbAttribute
  2
17_20435
 70
     0
 74
     1
  0
ATTRIB
  5
274
330
271
100
AcDbEntity
  8
EPLAN400
 62
     5
100
AcDbText
 10
88.0
 20
124.4617003932039
 30
0.0
 40
1.6254
  1

  7
Tahoma
 72
     2
 11
88.0
 21
124.0
 31
0.0
100
AcDbAttribute
  2
17_20390
 70
     0
 74
     1
  0
ATTRIB
  5
275
330
271
100
AcDbEntity
  8
EPLAN421
 62
     5
100
AcDbText
 10
86.57077675
 20
120.8334502839806
 30
0.0
 40
1.1739
  1
1L+
  7
Tahoma
 72
     1
 11
88.0
 21
120.5
 31
0.0
100
AcDbAttribute
  2
17_20039
 70
     0
 74
     1
  0
ATTRIB
  5
276
330
271
100
AcDbEntity
  8
EPLAN441
 62
    73
100
AcDbText
 10
103.0
 20
123.02476
 30
0.0
 40
1.6254
  1

  7
Tahoma
 11
103.0
 21
123.83746
 31
0.0
100
AcDbAttribute
  2
17_20301
 70
     0
 74
     2
  0
ATTRIB
  5
277
330
271
100
AcDbEntity
  8
EPLAN425
 62
   251
100
AcDbText
 10
118.0
 20
123.02476
 30
0.0
 40
1.6254
  1

  7
Tahoma
 11
118.0
 21
123.83746
 31
0.0
100
AcDbAttribute
  2
17_20404
 70
     0
 74
     2
  0
ATTRIB
  5
278
330
271
100
AcDbEntity
  8
EPLAN501
 62
     0
100
AcDbText
 10
148.0
 20
123.02476
 30
0.0
 40
1.6254
  1

  7
Tahoma
 11
148.0
 21
123.83746
 31
0.0
100
AcDbAttribute
  2
17_20031
 70
     0
 74
     2
  0
SEQEND
  5
279
330
271
100
AcDbEntity
  8
0
  0
INSERT
  5
27A
102
{ACAD_REACTORS
330
21C
102
}
330
1F
100
AcDbEntity
  8
0
100
AcDbBlockReference
 66
     1
  2
EPLSYM_LibrarySPECIAL_Symbol13_Variant3_Placement3
 10
88.0
 20
100.0
 30
0.0
  0
ATTRIB
  5
27B
330
27A
100
AcDbEntity
  8
EPLAN426
 62
   251
100
AcDbText
 10
86.0
 20
99.02475999999999
 30
0.0
 40
1.6254
  1

  7
Tahoma
 72
     2
 11
86.0
 21
99.83746
 31
0.0
100
AcDbAttribute
  2
17_20400
 70
     0
 74
     2
  0
ATTRIB
  5
27C
330
27A
100
AcDbEntity
  8
EPLAN428
 62
   251
100
AcDbText
 10
84.7191301
 20
101.4617003932039
 30
0.0
 40
1.6254
  1
-X80:4
  7
Tahoma
 72
     1
 11
88.0
 21
101.0
 31
0.0
100
AcDbAttribute
  2
17_20435
 70
     0
 74
     1
  0
ATTRIB
  5
27D
330
27A
100
AcDbEntity
  8
EPLAN400
 62
     5
100
AcDbText
 10
88.0
 20
100.4617003932039
 30
0.0
 40
1.6254
  1

  7
Tahoma
 72
     2
 11
88.0
 21
100.0
 31
0.0
100
AcDbAttribute
  2
17_20390
 70
     0
 74
     1
  0
ATTRIB
  5
27E
330
27A
100
AcDbEntity
  8
EPLAN421
 62
     5
100
AcDbText
 10
86.57077675
 20
96.83345028398058
 30
0.0
 40
1.1739
  1
2L+
  7
Tahoma
 72
     1
 11
88.0
 21
96.5
 31
0.0
100
AcDbAttribute
  2
17_20039
 70
     0
 74
     1
  0
ATTRIB
  5
27F
330
27A
100
AcDbEntity
  8
EPLAN441
 62
    73
100
AcDbText
 10
103.0
 20
99.02475999999999
 30
0.0
 40
1.6254
  1

  7
Tahoma
 11
103.0
 21
99.83746
 31
0.0
100
AcDbAttribute
  2
17_20301
 70
     0
 74
     2
  0
ATTRIB
  5
280
330
27A
100
AcDbEntity
  8
EPLAN425
 62
   251
100
AcDbText
 10
118.0
 20
99.02475999999999
 30
0.0
 40
1.6254
  1

  7
Tahoma
 11
118.0
 21
99.83746
 31
0.0
100
AcDbAttribute
  2
17_20404
 70
     0
 74
     2
  0
ATTRIB
  5
281
330
27A
100
AcDbEntity
  8
EPLAN501
 62
     0
100
AcDbText
 10
148.0
 20
99.02475999999999
 30
0.0
 40
1.6254
  1

  7
Tahoma
 11
148.0
 21
99.83746
 31
0.0
100
AcDbAttribute
  2
17_20031
 70
     0
 74
     2
  0
SEQEND
  5
282
330
27A
100
AcDbEntity
  8
0
  0
INSERT
  5
283
102
{ACAD_REACTORS
330
21C
102
}
330
1F
100
AcDbEntity
  8
0
100
AcDbBlockReference
 66
     1
  2
EPLSYM_LibrarySPECIAL_Symbol13_Variant3_Placement3
 10
88.0
 20
108.0
 30
0.0
  0
ATTRIB
  5
284
330
283
100
AcDbEntity
  8
EPLAN426
 62
   251
100
AcDbText
 10
86.0
 20
107.02476
 30
0.0
 40
1.6254
  1

  7
Tahoma
 72
     2
 11
86.0
 21
107.83746
 31
0.0
100
AcDbAttribute
  2
17_20400
 70
     0
 74
     2
  0
ATTRIB
  5
285
330
283
100
AcDbEntity
  8
EPLAN428
 62
   251
100
AcDbText
 10
84.7191301
 20
109.4617003932039
 30
0.0
 40
1.6254
  1
-X80:3
  7
Tahoma
 72
     1
 11
88.0
 21
109.0
 31
0.0
100
AcDbAttribute
  2
17_20435
 70
     0
 74
     1
  0
ATTRIB
  5
286
330
283
100
AcDbEntity
  8
EPLAN400
 62
     5
100
AcDbText
 10
88.0
 20
108.4617003932039
 30
0.0
 40
1.6254
  1

  7
Tahoma
 72
     2
 11
88.0
 21
108.0
 31
0.0
100
AcDbAttribute
  2
17_20390
 70
     0
 74
     1
  0
ATTRIB
  5
287
330
283
100
AcDbEntity
  8
EPLAN421
 62
     5
100
AcDbText
 10
86.9376205
 20
104.8334502839806
 30
0.0
 40
1.1739
  1
2M
  7
Tahoma
 72
     1
 11
88.0
 21
104.5
 31
0.0
100
AcDbAttribute
  2
17_20039
 70
     0
 74
     1
  0
ATTRIB
  5
288
330
283
100
AcDbEntity
  8
EPLAN441
 62
    73
100
AcDbText
 10
103.0
 20
107.02476
 30
0.0
 40
1.6254
  1

  7
Tahoma
 11
103.0
 21
107.83746
 31
0.0
100
AcDbAttribute
  2
17_20301
 70
     0
 74
     2
  0
ATTRIB
  5
289
330
283
100
AcDbEntity
  8
EPLAN425
 62
   251
100
AcDbText
 10
118.0
 20
107.02476
 30
0.0
 40
1.6254
  1

  7
Tahoma
 11
118.0
 21
107.83746
 31
0.0
100
AcDbAttribute
  2
17_20404
 70
     0
 74
     2
  0
ATTRIB
  5
28A
330
283
100
AcDbEntity
  8
EPLAN501
 62
     0
100
AcDbText
 10
148.0
 20
107.02476
 30
0.0
 40
1.6254
  1

  7
Tahoma
 11
148.0
 21
107.83746
 31
0.0
100
AcDbAttribute
  2
17_20031
 70
     0
 74
     2
  0
SEQEND
  5
28B
330
283
100
AcDbEntity
  8
0
  0
ENDSEC
  0
SECTION
  2
OBJECTS
  0
DICTIONARY
  5
C
330
0
100
AcDbDictionary
281
     1
  3
ACAD_GROUP
350
D
  3
ACAD_IMAGE_DICT
350
1FE
  3
ACAD_IMAGE_VARS
350
6E
  3
ACAD_LAYOUT
350
1A
  3
ACAD_MLINESTYLE
350
17
  3
ACAD_PLOTSETTINGS
350
19
  3
ACAD_PLOTSTYLENAME
350
E
  3
ACAD_SCALELIST
350
47
  0
IMAGEDEF_REACTOR
  5
201
330
200
100
AcDbRasterImageDefReactor
 90
        2
330
200
  0
DICTIONARY
  5
D
102
{ACAD_REACTORS
330
C
102
}
330
C
100
AcDbDictionary
281
     1
  3
EPLGROUP
350
1C9
  3
EPLGROUP_1
350
1CA
  3
EPLGROUP_2
350
21A
  3
EPLGROUP_3
350
21B
  3
EPLGROUP_4
350
21C
  3
EPLGROUP_5
350
21D
  3
EPLGROUP_6
350
245
  0
DICTIONARY
  5
1FE
102
{ACAD_REACTORS
330
C
102
}
330
C
100
AcDbDictionary
281
     1
  3
Siemens_Logo
350
1FF
  0
RASTERVARIABLES
  5
6E
102
{ACAD_REACTORS
330
C
102
}
330
C
100
AcDbRasterVariables
 90
        0
 70
     0
 71
     1
 72
     1
  0
DICTIONARY
  5
1A
102
{ACAD_REACTORS
330
C
102
}
330
C
100
AcDbDictionary
281
     1
  3
Layout1
350
1E
  3
Layout2
350
26
  3
Model
350
22
  0
DICTIONARY
  5
17
102
{ACAD_REACTORS
330
C
102
}
330
C
100
AcDbDictionary
281
     1
  3
Standard
350
18
  0
DICTIONARY
  5
19
102
{ACAD_REACTORS
330
C
102
}
330
C
100
AcDbDictionary
281
     1
  0
ACDBDICTIONARYWDFLT
  5
E
102
{ACAD_REACTORS
330
C
102
}
330
C
100
AcDbDictionary
281
     1
  3
Normal
350
F
100
AcDbDictionaryWithDefault
340
F
  0
DICTIONARY
  5
47
102
{ACAD_REACTORS
330
C
102
}
330
C
100
AcDbDictionary
281
     1
  3
A0
350
48
  3
A1
350
49
  3
A2
350
4A
  3
A3
350
4B
  3
A4
350
4C
  3
A5
350
4D
  3
A6
350
4E
  3
A7
350
4F
  3
A8
350
50
  3
A9
350
51
  3
B0
350
52
  3
B1
350
53
  3
B2
350
54
  3
B3
350
55
  3
B4
350
56
  3
B5
350
57
  3
B6
350
58
  3
B7
350
59
  3
B8
350
5A
  3
B9
350
5B
  3
C0
350
5C
  3
C1
350
5D
  3
C2
350
5E
  3
C3
350
5F
  3
C4
350
60
  3
C5
350
61
  3
C6
350
62
  3
C7
350
63
  3
C8
350
64
  3
C9
350
65
  3
D0
350
66
  3
D1
350
67
  3
D2
350
68
  0
GROUP
  5
1C9
102
{ACAD_REACTORS
330
D
102
}
330
D
100
AcDbGroup
300

 70
     0
 71
     1
  0
GROUP
  5
1CA
102
{ACAD_REACTORS
330
D
102
}
330
D
100
AcDbGroup
300

 70
     0
 71
     1
340
1CC
340
1CE
340
1CF
340
1D1
340
1D3
340
1D5
340
1D8
340
1DC
340
1DE
340
1E3
340
1E4
340
1E6
340
1E7
340
1E8
340
1EC
340
1ED
340
1EE
340
1F1
340
1F2
340
1F3
340
1F4
340
1F5
340
1F6
340
1F7
340
1F8
340
1F9
340
1FA
340
1FB
340
1FC
  0
GROUP
  5
21A
102
{ACAD_REACTORS
330
D
102
}
330
D
100
AcDbGroup
300

 70
     0
 71
     1
  0
GROUP
  5
21B
102
{ACAD_REACTORS
330
D
102
}
330
D
100
AcDbGroup
300

 70
     0
 71
     1
  0
GROUP
  5
21C
102
{ACAD_REACTORS
330
D
102
}
330
D
100
AcDbGroup
300

 70
     0
 71
     1
340
260
340
261
340
262
340
263
340
264
340
265
340
266
340
267
340
268
340
271
340
27A
340
283
  0
GROUP
  5
21D
102
{ACAD_REACTORS
330
D
102
}
330
D
100
AcDbGroup
300

 70
     0
 71
     1
340
21E
340
21F
340
220
340
221
340
222
340
22D
340
22E
340
248
340
250
340
258
  0
GROUP
  5
245
102
{ACAD_REACTORS
330
D
102
}
330
D
100
AcDbGroup
300

 70
     0
 71
     1
340
246
340
247
  0
IMAGEDEF
  5
1FF
102
{ACAD_REACTORS
330
1FE
330
201
102
}
330
1FE
100
AcDbRasterImageDef
 90
        0
  1
C:\Users\Public\EPLAN\Data_V28\Projekte\WIN7_I_V28\S7-1500.edb\Images\Siemens_Logo.jpg
 10
282.0
 20
52.0
 11
0.003546099290780142
 21
0.003546099290780142
280
     1
281
     1
  0
LAYOUT
  5
1E
102
{ACAD_REACTORS
330
1A
102
}
330
1A
100
AcDbPlotSettings
  1

  2
none_device
  4

  6

 40
0.0
 41
0.0
 42
0.0
 43
0.0
 44
0.0
 45
0.0
 46
0.0
 47
0.0
 48
0.0
 49
0.0
140
0.0
141
0.0
142
1.0
143
1.0
 70
   688
 72
     1
 73
     0
 74
     5
  7

 75
    16
147
1.0
148
0.0
149
0.0
100
AcDbLayout
  1
Layout1
 70
     1
 71
     1
 10
-0.175
 20
-0.175
 11
420.175
 21
297.175
 12
0.0
 22
0.0
 32
0.0
 14
-0.175
 24
-0.175
 34
0.0
 15
420.175
 25
297.175
 35
0.0
146
0.0
 13
0.0
 23
0.0
 33
0.0
 16
1.0
 26
0.0
 36
0.0
 17
0.0
 27
1.0
 37
0.0
 76
     0
330
1B
  0
LAYOUT
  5
26
102
{ACAD_REACTORS
330
1A
102
}
330
1A
100
AcDbPlotSettings
  1

  2
none_device
  4

  6

 40
0.0
 41
0.0
 42
0.0
 43
0.0
 44
0.0
 45
0.0
 46
0.0
 47
0.0
 48
0.0
 49
0.0
140
0.0
141
0.0
142
1.0
143
1.0
 70
   688
 72
     1
 73
     0
 74
     5
  7

 75
    16
147
1.0
148
0.0
149
0.0
100
AcDbLayout
  1
Layout2
 70
     1
 71
     2
 10
0.0
 20
0.0
 11
0.0
 21
0.0
 12
0.0
 22
0.0
 32
0.0
 14
0.0
 24
0.0
 34
0.0
 15
0.0
 25
0.0
 35
0.0
146
0.0
 13
0.0
 23
0.0
 33
0.0
 16
1.0
 26
0.0
 36
0.0
 17
0.0
 27
1.0
 37
0.0
 76
     0
330
23
  0
LAYOUT
  5
22
102
{ACAD_REACTORS
330
1A
102
}
330
1A
100
AcDbPlotSettings
  1

  2
none_device
  4
Letter_(8.50_x_11.00_Inches)
  6

 40
6.35
 41
6.35
 42
6.35000508
 43
6.35000508
 44
215.9
 45
279.4
 46
0.0
 47
0.0
 48
0.0
 49
0.0
140
0.0
141
0.0
142
1.0
143
1.0
 70
  1712
 72
     1
 73
     0
 74
     0
  7

 75
     0
147
1.0
148
0.0
149
0.0
100
AcDbLayout
  1
Model
 70
     1
 71
     0
 10
-0.175
 20
-0.175
 11
420.175
 21
297.175
 12
0.0
 22
0.0
 32
0.0
 14
-0.175
 24
-0.175
 34
0.0
 15
420.175
 25
297.175
 35
0.0
146
0.0
 13
0.0
 23
0.0
 33
0.0
 16
1.0
 26
0.0
 36
0.0
 17
0.0
 27
1.0
 37
0.0
 76
     0
330
1F
331
29
  0
MLINESTYLE
  5
18
102
{ACAD_REACTORS
330
17
102
}
330
17
100
AcDbMlineStyle
  2
Standard
 70
     0
  3

 62
   256
 51
90.0
 52
90.0
 71
     2
 49
0.5
 62
   256
  6
BYLAYER
 49
-0.5
 62
   256
  6
BYLAYER
  0
ACDBPLACEHOLDER
  5
F
102
{ACAD_REACTORS
330
E
102
}
330
E
  0
SCALE
  5
48
102
{ACAD_REACTORS
330
47
102
}
330
47
100
AcDbScale
 70
     0
300
1:1
140
1.0
141
1.0
290
     1
  0
SCALE
  5
49
102
{ACAD_REACTORS
330
47
102
}
330
47
100
AcDbScale
 70
     0
300
1:2
140
1.0
141
2.0
290
     0
  0
SCALE
  5
4A
102
{ACAD_REACTORS
330
47
102
}
330
47
100
AcDbScale
 70
     0
300
1:4
140
1.0
141
4.0
290
     0
  0
SCALE
  5
4B
102
{ACAD_REACTORS
330
47
102
}
330
47
100
AcDbScale
 70
     0
300
1:5
140
1.0
141
5.0
290
     0
  0
SCALE
  5
4C
102
{ACAD_REACTORS
330
47
102
}
330
47
100
AcDbScale
 70
     0
300
1:8
140
1.0
141
8.0
290
     0
  0
SCALE
  5
4D
102
{ACAD_REACTORS
330
47
102
}
330
47
100
AcDbScale
 70
     0
300
1:10
140
1.0
141
10.0
290
     0
  0
SCALE
  5
4E
102
{ACAD_REACTORS
330
47
102
}
330
47
100
AcDbScale
 70
     0
300
1:16
140
1.0
141
16.0
290
     0
  0
SCALE
  5
4F
102
{ACAD_REACTORS
330
47
102
}
330
47
100
AcDbScale
 70
     0
300
1:20
140
1.0
141
20.0
290
     0
  0
SCALE
  5
50
102
{ACAD_REACTORS
330
47
102
}
330
47
100
AcDbScale
 70
     0
300
1:30
140
1.0
141
30.0
290
     0
  0
SCALE
  5
51
102
{ACAD_REACTORS
330
47
102
}
330
47
100
AcDbScale
 70
     0
300
1:40
140
1.0
141
40.0
290
     0
  0
SCALE
  5
52
102
{ACAD_REACTORS
330
47
102
}
330
47
100
AcDbScale
 70
     0
300
1:50
140
1.0
141
50.0
290
     0
  0
SCALE
  5
53
102
{ACAD_REACTORS
330
47
102
}
330
47
100
AcDbScale
 70
     0
300
1:100
140
1.0
141
100.0
290
     0
  0
SCALE
  5
54
102
{ACAD_REACTORS
330
47
102
}
330
47
100
AcDbScale
 70
     0
300
2:1
140
2.0
141
1.0
290
     0
  0
SCALE
  5
55
102
{ACAD_REACTORS
330
47
102
}
330
47
100
AcDbScale
 70
     0
300
4:1
140
4.0
141
1.0
290
     0
  0
SCALE
  5
56
102
{ACAD_REACTORS
330
47
102
}
330
47
100
AcDbScale
 70
     0
300
8:1
140
8.0
141
1.0
290
     0
  0
SCALE
  5
57
102
{ACAD_REACTORS
330
47
102
}
330
47
100
AcDbScale
 70
     0
300
10:1
140
10.0
141
1.0
290
     0
  0
SCALE
  5
58
102
{ACAD_REACTORS
330
47
102
}
330
47
100
AcDbScale
 70
     0
300
100:1
140
100.0
141
1.0
290
     0
  0
SCALE
  5
59
102
{ACAD_REACTORS
330
47
102
}
330
47
100
AcDbScale
 70
     0
300
1/128" = 1'-0"
140
0.0078125
141
12.0
290
     0
  0
SCALE
  5
5A
102
{ACAD_REACTORS
330
47
102
}
330
47
100
AcDbScale
 70
     0
300
1/64" = 1'-0"
140
0.015625
141
12.0
290
     0
  0
SCALE
  5
5B
102
{ACAD_REACTORS
330
47
102
}
330
47
100
AcDbScale
 70
     0
300
1/32" = 1'-0"
140
0.03125
141
12.0
290
     0
  0
SCALE
  5
5C
102
{ACAD_REACTORS
330
47
102
}
330
47
100
AcDbScale
 70
     0
300
1/16" = 1'-0"
140
0.0625
141
12.0
290
     0
  0
SCALE
  5
5D
102
{ACAD_REACTORS
330
47
102
}
330
47
100
AcDbScale
 70
     0
300
3/32" = 1'-0"
140
0.09375
141
12.0
290
     0
  0
SCALE
  5
5E
102
{ACAD_REACTORS
330
47
102
}
330
47
100
AcDbScale
 70
     0
300
1/8" = 1'-0"
140
0.125
141
12.0
290
     0
  0
SCALE
  5
5F
102
{ACAD_REACTORS
330
47
102
}
330
47
100
AcDbScale
 70
     0
300
3/16" = 1'-0"
140
0.1875
141
12.0
290
     0
  0
SCALE
  5
60
102
{ACAD_REACTORS
330
47
102
}
330
47
100
AcDbScale
 70
     0
300
1/4" = 1'-0"
140
0.25
141
12.0
290
     0
  0
SCALE
  5
61
102
{ACAD_REACTORS
330
47
102
}
330
47
100
AcDbScale
 70
     0
300
3/8" = 1'-0"
140
0.375
141
12.0
290
     0
  0
SCALE
  5
62
102
{ACAD_REACTORS
330
47
102
}
330
47
100
AcDbScale
 70
     0
300
1/2" = 1'-0"
140
0.5
141
12.0
290
     0
  0
SCALE
  5
63
102
{ACAD_REACTORS
330
47
102
}
330
47
100
AcDbScale
 70
     0
300
3/4" = 1'-0"
140
0.75
141
12.0
290
     0
  0
SCALE
  5
64
102
{ACAD_REACTORS
330
47
102
}
330
47
100
AcDbScale
 70
     0
300
1" = 1'-0"
140
1.0
141
12.0
290
     0
  0
SCALE
  5
65
102
{ACAD_REACTORS
330
47
102
}
330
47
100
AcDbScale
 70
     0
300
1-1/2" = 1'-0"
140
1.5
141
12.0
290
     0
  0
SCALE
  5
66
102
{ACAD_REACTORS
330
47
102
}
330
47
100
AcDbScale
 70
     0
300
3" = 1'-0"
140
3.0
141
12.0
290
     0
  0
SCALE
  5
67
102
{ACAD_REACTORS
330
47
102
}
330
47
100
AcDbScale
 70
     0
300
6" = 1'-0"
140
6.0
141
12.0
290
     0
  0
SCALE
  5
68
102
{ACAD_REACTORS
330
47
102
}
330
47
100
AcDbScale
 70
     0
300
1'-0" = 1'-0"
140
12.0
141
12.0
290
     0
  0
ENDSEC
  0
EOF
