  0
SECTION
  2
HEADER
  9
$ACADVER
  1
AC1015
  9
$ACADMAINTVER
 70
     6
  9
$DWGCODEPAGE
  3
ANSI_1252
  9
$INSBASE
 10
0.0
 20
0.0
 30
0.0
  9
$EXTMIN
 10
69.395417
 20
287.976483
 30
-1.0
  9
$EXTMAX
 10
1026.514554
 20
492.804657
 30
0.7
  9
$LIMMIN
 10
0.0
 20
0.0
  9
$LIMMAX
 10
12.0
 20
9.0
  9
$ORTHOMODE
 70
     0
  9
$REGENMODE
 70
     1
  9
$FILLMODE
 70
     1
  9
$QTEXTMODE
 70
     0
  9
$MIRRTEXT
 70
     0
  9
$LTSCALE
 40
5.0
  9
$ATTMODE
 70
     1
  9
$TEXTSIZE
 40
0.2
  9
$TRACEWID
 40
0.05
  9
$TEXTSTYLE
  7
STANDARD
  9
$CLAYER
  8
0
  9
$CELTYPE
  6
ByLayer
  9
$CECOLOR
 62
   256
  9
$CELTSCALE
 40
1.0
  9
$DISPSILH
 70
     0
  9
$DIMSCALE
 40
1.0
  9
$DIMASZ
 40
0.18
  9
$DIMEXO
 40
0.0625
  9
$DIMDLI
 40
0.38
  9
$DIMRND
 40
0.0
  9
$DIMDLE
 40
0.0
  9
$DIMEXE
 40
0.18
  9
$DIMTP
 40
0.0
  9
$DIMTM
 40
0.0
  9
$DIMTXT
 40
0.18
  9
$DIMCEN
 40
0.09
  9
$DIMTSZ
 40
0.0
  9
$DIMTOL
 70
     0
  9
$DIMLIM
 70
     0
  9
$DIMTIH
 70
     1
  9
$DIMTOH
 70
     1
  9
$DIMSE1
 70
     0
  9
$DIMSE2
 70
     0
  9
$DIMTAD
 70
     0
  9
$DIMZIN
 70
     0
  9
$DIMBLK
  1

  9
$DIMASO
 70
     1
  9
$DIMSHO
 70
     1
  9
$DIMPOST
  1

  9
$DIMAPOST
  1

  9
$DIMALT
 70
     0
  9
$DIMALTD
 70
     2
  9
$DIMALTF
 40
25.4
  9
$DIMLFAC
 40
1.0
  9
$DIMTOFL
 70
     0
  9
$DIMTVP
 40
0.0
  9
$DIMTIX
 70
     0
  9
$DIMSOXD
 70
     0
  9
$DIMSAH
 70
     0
  9
$DIMBLK1
  1

  9
$DIMBLK2
  1

  9
$DIMSTYLE
  2
STANDARD
  9
$DIMCLRD
 70
     0
  9
$DIMCLRE
 70
     0
  9
$DIMCLRT
 70
     0
  9
$DIMTFAC
 40
1.0
  9
$DIMGAP
 40
0.09
  9
$DIMJUST
 70
     0
  9
$DIMSD1
 70
     0
  9
$DIMSD2
 70
     0
  9
$DIMTOLJ
 70
     1
  9
$DIMTZIN
 70
     0
  9
$DIMALTZ
 70
     0
  9
$DIMALTTZ
 70
     0
  9
$DIMUPT
 70
     0
  9
$DIMDEC
 70
     4
  9
$DIMTDEC
 70
     4
  9
$DIMALTU
 70
     2
  9
$DIMALTTD
 70
     2
  9
$DIMTXSTY
  7
STANDARD
  9
$DIMAUNIT
 70
     0
  9
$DIMADEC
 70
     0
  9
$DIMALTRND
 40
0.0
  9
$DIMAZIN
 70
     0
  9
$DIMDSEP
 70
     0
  9
$DIMATFIT
 70
     3
  9
$DIMFRAC
 70
     0
  9
$DIMLDRBLK
  1

  9
$DIMLUNIT
 70
     2
  9
$DIMLWD
 70
     0
  9
$DIMLWE
 70
     0
  9
$DIMTMOVE
 70
     0
  9
$LUNITS
 70
     2
  9
$LUPREC
 70
     4
  9
$SKETCHINC
 40
0.1
  9
$FILLETRAD
 40
0.0
  9
$AUNITS
 70
     0
  9
$AUPREC
 70
     0
  9
$MENU
  1
.
  9
$ELEVATION
 40
0.0
  9
$PELEVATION
 40
0.0
  9
$THICKNESS
 40
0.0
  9
$LIMCHECK
 70
     0
  9
$CHAMFERA
 40
0.0
  9
$CHAMFERB
 40
0.0
  9
$CHAMFERC
 40
0.0
  9
$CHAMFERD
 40
0.0
  9
$SKPOLY
 70
     0
  9
$TDCREATE
 40
2453353.758792454
  9
$TDUCREATE
 40
0.000000000
  9
$TDUPDATE
 40
0.000000000
  9
$TDUUPDATE
 40
2447892.958333334
  9
$TDINDWG
 40
78332576.0667047050
  9
$TDUSRTIMER
 40
0.0000000000
  9
$USRTIMER
 70
     1
  9
$ANGBASE
 50
0.0
  9
$ANGDIR
 70
     0
  9
$PDMODE
 70
     0
  9
$PDSIZE
 40
0.0
  9
$PLINEWID
 40
0.0
  9
$SPLFRAME
 70
     0
  9
$SPLINETYPE
 70
     6
  9
$SPLINESEGS
 70
     8
  9
$HANDSEED
  5
17F1
  9
$SURFTAB1
 70
     6
  9
$SURFTAB2
 70
     6
  9
$SURFTYPE
 70
     6
  9
$SURFU
 70
     6
  9
$SURFV
 70
     6
  9
$UCSBASE
  2

  9
$UCSNAME
  2

  9
$UCSORG
 10
0.0
 20
0.0
 30
0.0
  9
$UCSXDIR
 10
1.0
 20
0.0
 30
0.0
  9
$UCSYDIR
 10
0.0
 20
1.0
 30
0.0
  9
$UCSORTHOREF
  2

  9
$UCSORTHOVIEW
 70
     0
  9
$UCSORGTOP
 10
0.0
 20
0.0
 30
0.0
  9
$UCSORGBOTTOM
 10
0.0
 20
0.0
 30
0.0
  9
$UCSORGLEFT
 10
0.0
 20
0.0
 30
0.0
  9
$UCSORGRIGHT
 10
0.0
 20
0.0
 30
0.0
  9
$UCSORGFRONT
 10
0.0
 20
0.0
 30
0.0
  9
$UCSORGBACK
 10
0.0
 20
0.0
 30
0.0
  9
$PUCSBASE
  2

  9
$PUCSNAME
  2

  9
$PUCSORG
 10
0.0
 20
0.0
 30
0.0
  9
$PUCSXDIR
 10
1.0
 20
0.0
 30
0.0
  9
$PUCSYDIR
 10
0.0
 20
1.0
 30
0.0
  9
$PUCSORTHOREF
  2

  9
$PUCSORTHOVIEW
 70
     0
  9
$PUCSORGTOP
 10
0.0
 20
0.0
 30
0.0
  9
$PUCSORGBOTTOM
 10
0.0
 20
0.0
 30
0.0
  9
$PUCSORGLEFT
 10
0.0
 20
0.0
 30
0.0
  9
$PUCSORGRIGHT
 10
0.0
 20
0.0
 30
0.0
  9
$PUCSORGFRONT
 10
0.0
 20
0.0
 30
0.0
  9
$PUCSORGBACK
 10
0.0
 20
0.0
 30
0.0
  9
$USERI1
 70
     0
  9
$USERI2
 70
     0
  9
$USERI3
 70
     0
  9
$USERI4
 70
     0
  9
$USERI5
 70
     0
  9
$USERR1
 40
0.0
  9
$USERR2
 40
0.0
  9
$USERR3
 40
0.0
  9
$USERR4
 40
0.0
  9
$USERR5
 40
0.0
  9
$WORLDVIEW
 70
     1
  9
$SHADEDGE
 70
     3
  9
$SHADEDIF
 70
    70
  9
$TILEMODE
 70
     1
  9
$MAXACTVP
 70
    64
  9
$PINSBASE
 10
0.0
 20
0.0
 30
0.0
  9
$PLIMCHECK
 70
     0
  9
$PEXTMIN
 10
0.0
 20
0.0
 30
0.0
  9
$PEXTMAX
 10
0.0
 20
0.0
 30
0.0
  9
$PLIMMIN
 10
0.0
 20
0.0
  9
$PLIMMAX
 10
0.0
 20
0.0
  9
$UNITMODE
 70
     0
  9
$VISRETAIN
 70
     1
  9
$PLINEGEN
 70
     0
  9
$PSLTSCALE
 70
     1
  9
$TREEDEPTH
 70
  3020
  9
$CMLSTYLE
  2
Standard
  9
$CMLJUST
 70
     0
  9
$CMLSCALE
 40
1.0
  9
$PROXYGRAPHICS
 70
     0
  9
$MEASUREMENT
 70
     0
  9
$CELWEIGHT
370
     0
  9
$ENDCAPS
280
     0
  9
$JOINSTYLE
280
     0
  9
$LWDISPLAY
290
     0
  9
$INSUNITS
 70
     0
  9
$HYPERLINKBASE
  1

  9
$STYLESHEET
  1

  9
$XEDIT
290
     1
  9
$CEPSNTYPE
380
     0
  9
$PSTYLEMODE
290
     1
  9
$FINGERPRINTGUID
  2

  9
$VERSIONGUID
  2

  9
$EXTNAMES
290
     1
  9
$PSVPSCALE
 40
0.0
  0
ENDSEC
  0
SECTION
  2
CLASSES
  0
CLASS
  1
LWPOLYLINE
  2
AcDbPolyline
  3
AutoCAD 2000
 90
        0
280
     0
281
     1
  0
CLASS
  1
IMAGE
  2
AcDbRasterImage
  3
ISM
 90
      127
280
     0
281
     1
  0
CLASS
  1
OLE2FRAME
  2
AcDbOle2Frame
  3
AutoCAD 2000
 90
        0
280
     0
281
     1
  0
CLASS
  1
HATCH
  2
AcDbHatch
  3
AutoCAD 2000
 90
        0
280
     0
281
     1
  0
CLASS
  1
DICTIONARYVAR
  2
AcDbDictionaryVar
  3
AutoCAD 2000
 90
        0
280
     0
281
     0
  0
CLASS
  1
RASTERVARIABLES
  2
AcDbRasterVariables
  3
ISM
 90
        0
280
     0
281
     0
  0
CLASS
  1
IMAGEDEF
  2
AcDbRasterImageDef
  3
ISM
 90
        0
280
     0
281
     0
  0
CLASS
  1
IMAGEDEF_REACTOR
  2
AcDbRasterImageDefReactor
  3
ISM
 90
        1
280
     0
281
     0
  0
CLASS
  1
IDBUFFER
  2
AcDbIdBuffer
  3
AutoCAD 2000
 90
        0
280
     0
281
     0
  0
CLASS
  1
SPATIAL_FILTER
  2
AcDbSpatialFilter
  3
AutoCAD 2000
 90
        0
280
     0
281
     0
  0
CLASS
  1
XRECORD
  2
AcDbXrecord
  3
AutoCAD 2000
 90
        0
280
     0
281
     0
  0
CLASS
  1
SORTENTSTABLE
  2
AcDbSortentsTable
  3
AutoCAD 2000
 90
        0
280
     0
281
     0
  0
CLASS
  1
LAYER_INDEX
  2
AcDbLayerIndex
  3
AutoCAD 2000
 90
        0
280
     0
281
     0
  0
CLASS
  1
SPATIAL_INDEX
  2
AcDbSpatialIndex
  3
AutoCAD 2000
 90
        0
280
     0
281
     0
  0
CLASS
  1
OBJECT_PTR
  2
CAseDLPNTableRecord
  3
"ASE-LPNTableRecord"
 90
        1
280
     0
281
     0
  0
CLASS
  1
LAYOUT
  2
AcDbLayout
  3
AutoCAD 2000
 90
        0
280
     0
281
     0
  0
CLASS
  1
PLOTSETTINGS
  2
AcDbPlotSettings
  3
AutoCAD 2000
 90
        0
280
     0
281
     0
  0
CLASS
  1
ACDBDICTIONARYWDFLT
  2
AcDbDictionaryWithDefault
  3
AutoCAD 2000
 90
        0
280
     0
281
     0
  0
CLASS
  1
ACDBPLACEHOLDER
  2
AcDbPlaceHolder
  3
AutoCAD 2000
 90
        0
280
     0
281
     0
  0
CLASS
  1
VBA_PROJECT
  2
AcDbVbaProject
  3
acadvba
 90
        0
280
     0
281
     0
  0
CLASS
  1
WIPEOUT
  2
AcDbWipeout
  3
WipeOut|AutoCAD Express Tool|expresstools@autodesk.com
 90
      127
280
     0
281
     1
  0
CLASS
  1
WIPEOUTVARIABLES
  2
AcDbWipeoutVariables
  3
WipeOut|AutoCAD Express Tool|expresstools@autodesk.com
 90
        0
280
     0
281
     0
  0
CLASS
  1
RTEXT
  2
RText
  3
RText|AutoCAD Express Tool|expresstools@autodesk.com
 90
        0
280
     0
281
     1
  0
CLASS
  1
ARCALIGNEDTEXT
  2
AcDbArcAlignedText
  3
ATEXT|AutoCAD Express Tool|expresstools@autodesk.com
 90
        0
280
     0
281
     1
  0
ENDSEC
  0
SECTION
  2
TABLES
  0
TABLE
  2
VPORT
  5
1094
100
AcDbSymbolTable
 70
     1
  0
VPORT
  5
10BB
100
AcDbSymbolTableRecord
100
AcDbViewportTableRecord
  2
*ACTIVE
 70
     0
 10
0.0
 20
0.0
 11
1.0
 21
1.0
 12
450.328833
 22
266.374849
 13
0.0
 23
0.0
 14
0.5
 24
0.5
 15
0.5
 25
0.5
 16
0.0
 26
0.0
 36
1.0
 17
0.0
 27
0.0
 37
0.0
 40
620.078606
 41
1.701534
 42
50.0
 43
0.0
 44
0.0
 50
0.0
 51
0.0
 71
    16
 72
  1000
 73
     1
 74
     3
 75
     0
 76
     0
 77
     0
 78
     0
281
     0
 65
     0
110
0.0
120
0.0
130
0.0
111
1.0
121
0.0
131
0.0
112
0.0
122
1.0
132
0.0
345
0
346
0
 79
     0
146
0.0
  0
ENDTAB
  0
TABLE
  2
LTYPE
  5
1091
100
AcDbSymbolTable
 70
     6
  0
LTYPE
  5
109A
100
AcDbSymbolTableRecord
100
AcDbLinetypeTableRecord
  2
ByBlock
 70
    64
  3

 72
    65
 73
     0
 40
0.0
  0
LTYPE
  5
109B
100
AcDbSymbolTableRecord
100
AcDbLinetypeTableRecord
  2
ByLayer
 70
    64
  3

 72
    65
 73
     0
 40
0.0
  0
LTYPE
  5
109C
100
AcDbSymbolTableRecord
100
AcDbLinetypeTableRecord
  2
CONTINUOUS
 70
     0
  3
Solid line
 72
    65
 73
     0
 40
0.0
  0
LTYPE
  5
109D
100
AcDbSymbolTableRecord
100
AcDbLinetypeTableRecord
  2
CENTER
 70
     0
  3
____ _ ____ _ ____ _ ____ _ ____ _ ____ _ ____
 72
    65
 73
     4
 40
0.6
 49
0.375
 74
     0
 49
-0.075
 74
     0
 49
0.075
 74
     0
 49
-0.075
 74
     0
  0
LTYPE
  5
109E
100
AcDbSymbolTableRecord
100
AcDbLinetypeTableRecord
  2
ACAD_ISO02W100
 70
     0
  3
ISO Strichlinie __ __ __ __ __ __ __ __ __ __ _
 72
    65
 73
     2
 40
15.0
 49
12.0
 74
     0
 49
-3.0
 74
     0
  0
LTYPE
  5
109F
100
AcDbSymbolTableRecord
100
AcDbLinetypeTableRecord
  2
DASHED
 70
     0
  3
_ _ _ _ _ _ _ _ _ _ _ _ _ _ _ _ _ _ _ _ _ _ _ _
 72
    65
 73
     2
 40
0.375
 49
0.25
 74
     0
 49
-0.125
 74
     0
  0
ENDTAB
  0
TABLE
  2
LAYER
  5
108F
100
AcDbSymbolTable
 70
     8
  0
LAYER
  5
10A0
100
AcDbSymbolTableRecord
100
AcDbLayerTableRecord
  2
0
 70
     0
 62
     7
  6
CONTINUOUS
290
     1
370
    -3
390
0
  0
LAYER
  5
10A1
100
AcDbSymbolTableRecord
100
AcDbLayerTableRecord
  2
90000_FRAME
 70
     0
 62
     7
  6
CONTINUOUS
290
     1
370
    -3
390
0
  0
LAYER
  5
10A2
100
AcDbSymbolTableRecord
100
AcDbLayerTableRecord
  2
91000_TIP
 70
     0
 62
     7
  6
CONTINUOUS
290
     1
370
    -3
390
0
  0
LAYER
  5
10A3
100
AcDbSymbolTableRecord
100
AcDbLayerTableRecord
  2
10000_FRONT
 70
     0
 62
     7
  6
CONTINUOUS
290
     1
370
    -3
390
0
  0
LAYER
  5
10A4
100
AcDbSymbolTableRecord
100
AcDbLayerTableRecord
  2
11000_LEFT
 70
     0
 62
     7
  6
CONTINUOUS
290
     1
370
    -3
390
0
  0
LAYER
  5
10A7
100
AcDbSymbolTableRecord
100
AcDbLayerTableRecord
  2
DEFPOINTS
 70
     0
 62
     7
  6
CONTINUOUS
290
     0
370
    -3
390
0
  0
LAYER
  5
10A8
100
AcDbSymbolTableRecord
100
AcDbLayerTableRecord
  2
10100_FRONT_DIM
 70
     0
 62
     7
  6
CONTINUOUS
290
     1
370
    -3
390
0
  0
LAYER
  5
10A9
100
AcDbSymbolTableRecord
100
AcDbLayerTableRecord
  2
11100_LEFT_DIM
 70
     0
 62
     7
  6
CONTINUOUS
290
     1
370
    -3
390
0
  0
ENDTAB
  0
TABLE
  2
STYLE
  5
1090
100
AcDbSymbolTable
 70
     1
  0
STYLE
  5
10C0
100
AcDbSymbolTableRecord
100
AcDbTextStyleTableRecord
  2
STANDARD
 70
     0
 40
0.0
 41
1.0
 50
0.0
 71
     0
 42
0.2
  3
txt.shx
  4

  0
ENDTAB
  0
TABLE
  2
VIEW
  5
1092
100
AcDbSymbolTable
 70
     0
  0
ENDTAB
  0
TABLE
  2
UCS
  5
1093
100
AcDbSymbolTable
 70
     0
  0
ENDTAB
  0
TABLE
  2
APPID
  5
1095
100
AcDbSymbolTable
 70
     4
  0
APPID
  5
10BC
100
AcDbSymbolTableRecord
100
AcDbRegAppTableRecord
  2
ACAD
 70
     0
  0
APPID
  5
10BD
100
AcDbSymbolTableRecord
100
AcDbRegAppTableRecord
  2
AUSTER_ANSICHT
 70
     0
  0
APPID
  5
10BE
100
AcDbSymbolTableRecord
100
AcDbRegAppTableRecord
  2
AUSTER_FOLIE
 70
     0
  0
APPID
  5
10BF
100
AcDbSymbolTableRecord
100
AcDbRegAppTableRecord
  2
ACAECLAYERSTANDARD
 70
     0
  0
ENDTAB
  0
TABLE
  2
DIMSTYLE
  5
1096
100
AcDbSymbolTable
 70
     3
100
AcDbDimStyleTable
 71
     0
  0
DIMSTYLE
105
10CA
100
AcDbSymbolTableRecord
100
AcDbDimStyleTableRecord
  2
STANDARD
 70
     0
  3

  4

 40
1.0
 41
0.18
 42
0.0625
 43
0.38
 44
0.18
 45
0.0
 46
0.0
 47
0.0
 48
0.0
 71
     0
 72
     0
 73
     1
 74
     1
 75
     0
 76
     0
 77
     0
 78
     0
 79
     0
140
0.18
141
0.09
142
0.0
143
25.4
144
1.0
145
0.0
146
1.0
147
0.09
148
0.0
170
     0
171
     2
172
     0
173
     0
174
     0
175
     0
176
     0
177
     0
178
     0
179
     0
271
     4
272
     4
273
     2
274
     2
275
     0
276
     0
277
     2
278
    46
279
     0
280
     0
281
     0
282
     0
283
     1
284
     0
285
     0
286
     0
288
     0
289
     3
340
10C0
341
0
342
0
343
0
344
0
371
    -2
372
    -2
  0
DIMSTYLE
105
10CB
100
AcDbSymbolTableRecord
100
AcDbDimStyleTableRecord
  2
DSTYLE1
 70
     0
  3

  4

 40
1.0
 41
3.0
 42
0.0
 43
0.38
 44
1.0
 45
0.0
 46
0.0
 47
0.0
 48
0.0
 71
     0
 72
     0
 73
     0
 74
     0
 75
     0
 76
     0
 77
     1
 78
     3
 79
     0
140
2.5
141
0.09
142
0.0
143
0.03937
144
1.0
145
0.0
146
1.0
147
1.0
148
0.0
170
     0
171
     2
172
     0
173
     0
174
     0
175
     0
176
     0
177
     0
178
     0
179
     0
271
     4
272
     4
273
     2
274
     2
275
     0
276
     0
277
     2
278
    46
279
     0
280
     0
281
     0
282
     0
283
     1
284
     0
285
     0
286
     0
288
     0
289
     3
340
10C0
341
0
342
0
343
0
344
0
371
    -2
372
    -2
  0
DIMSTYLE
105
10CC
100
AcDbSymbolTableRecord
100
AcDbDimStyleTableRecord
  2
H035
 70
     0
  3

  4

 40
0.0
 41
3.5
 42
0.0
 43
3.75
 44
2.0
 45
0.0
 46
0.0
 47
0.0
 48
0.0
 71
     0
 72
     0
 73
     0
 74
     0
 75
     0
 76
     0
 77
     1
 78
     8
 79
     0
140
3.5
141
2.5
142
0.0
143
0.039
144
1.0
145
0.0
146
1.0
147
0.5
148
0.0
170
     0
171
     4
172
     1
173
     0
174
     0
175
     0
176
   256
177
     7
178
     7
179
     0
271
     4
272
     4
273
     2
274
     2
275
     0
276
     0
277
     2
278
    46
279
     0
280
     0
281
     0
282
     0
283
     1
284
     0
285
     0
286
     0
288
     0
289
     3
340
10C0
341
0
342
0
343
0
344
0
371
    -2
372
    -2
  0
ENDTAB
  0
TABLE
  2
BLOCK_RECORD
  5
10C5
100
AcDbSymbolTable
 70
     2
  0
BLOCK_RECORD
  5
10C3
100
AcDbSymbolTableRecord
100
AcDbBlockTableRecord
  2
*Model_Space
340
0
  0
BLOCK_RECORD
  5
10C4
100
AcDbSymbolTableRecord
100
AcDbBlockTableRecord
  2
*Paper_Space
340
0
  0
BLOCK_RECORD
  5
10C1
100
AcDbSymbolTableRecord
100
AcDbBlockTableRecord
  2
$MODEL_SPACE
340
0
  0
BLOCK_RECORD
  5
10C2
100
AcDbSymbolTableRecord
100
AcDbBlockTableRecord
  2
$PAPER_SPACE
340
0
  0
ENDTAB
  0
ENDSEC
  0
SECTION
  2
BLOCKS
  0
BLOCK
  5
10C6
100
AcDbEntity
  8
0
390
0
100
AcDbBlockBegin
  2
*Model_Space
 70
     0
 10
0.0
 20
0.0
 30
0.0
  3
*Model_Space
  1

  0
ENDBLK
  5
10C7
100
AcDbEntity
  8
0
390
0
100
AcDbBlockEnd
  0
BLOCK
  5
10C8
100
AcDbEntity
 67
     1
  8
0
390
0
100
AcDbBlockBegin
  2
*Paper_Space
 70
     0
 10
0.0
 20
0.0
 30
0.0
  3
*Paper_Space
  1

  0
ENDBLK
  5
10C9
100
AcDbEntity
 67
     1
  8
0
390
0
100
AcDbBlockEnd
  0
BLOCK
  5
10CD
100
AcDbEntity
  8
0
100
AcDbBlockBegin
  2
$MODEL_SPACE
 70
     0
 10
0.0
 20
0.0
 30
0.0
  3
$MODEL_SPACE
  1

  0
ENDBLK
  5
21
100
AcDbEntity
  8
0
100
AcDbBlockEnd
  0
BLOCK
  5
10CE
100
AcDbEntity
  8
0
100
AcDbBlockBegin
  2
$PAPER_SPACE
 70
     0
 10
0.0
 20
0.0
 30
0.0
  3
$PAPER_SPACE
  1

  0
ENDBLK
  5
76
100
AcDbEntity
  8
0
100
AcDbBlockEnd
  0
ENDSEC
  0
SECTION
  2
ENTITIES
  0
LINE
  5
10D4
100
AcDbEntity
  8
10000_FRONT
370
    25
390
0
  6
CONTINUOUS
 62
     7
100
AcDbLine
 10
158.831586
 20
153.491098
 30
0.0
 11
158.825
 21
153.599194
 31
0.0
  0
LINE
  5
10D5
100
AcDbEntity
  8
10000_FRONT
370
    25
390
0
  6
CONTINUOUS
 62
     7
100
AcDbLine
 10
158.831586
 20
163.591098
 30
0.0
 11
158.825
 21
163.699193
 31
0.0
  0
LINE
  5
10D6
100
AcDbEntity
  8
10000_FRONT
370
    25
390
0
  6
CONTINUOUS
 62
     7
100
AcDbLine
 10
158.831585
 20
143.39112
 30
0.0
 11
158.825
 21
143.499193
 31
0.0
  0
LINE
  5
10D7
100
AcDbEntity
  8
10000_FRONT
370
    25
390
0
  6
CONTINUOUS
 62
     7
100
AcDbLine
 10
158.849393
 20
143.285395
 30
0.0
 11
158.831585
 21
143.39112
 31
0.0
  0
LINE
  5
10D8
100
AcDbEntity
  8
10000_FRONT
370
    25
390
0
  6
CONTINUOUS
 62
     7
100
AcDbLine
 10
158.849396
 20
153.385376
 30
0.0
 11
158.831586
 21
153.491098
 31
0.0
  0
LINE
  5
10D9
100
AcDbEntity
  8
10000_FRONT
370
    25
390
0
  6
CONTINUOUS
 62
     7
100
AcDbLine
 10
158.849396
 20
163.485376
 30
0.0
 11
158.831586
 21
163.591098
 31
0.0
  0
LINE
  5
10DA
100
AcDbEntity
  8
10000_FRONT
370
    25
390
0
  6
CONTINUOUS
 62
     7
100
AcDbLine
 10
158.875505
 20
143.182213
 30
0.0
 11
158.849393
 21
143.285395
 31
0.0
  0
LINE
  5
10DB
100
AcDbEntity
  8
10000_FRONT
370
    25
390
0
  6
CONTINUOUS
 62
     7
100
AcDbLine
 10
158.875508
 20
163.382209
 30
0.0
 11
158.849396
 21
163.485376
 31
0.0
  0
LINE
  5
10DC
100
AcDbEntity
  8
10000_FRONT
370
    25
390
0
  6
CONTINUOUS
 62
     7
100
AcDbLine
 10
158.875508
 20
153.28221
 30
0.0
 11
158.849396
 21
153.385376
 31
0.0
  0
LINE
  5
10DD
100
AcDbEntity
  8
10000_FRONT
370
    25
390
0
  6
CONTINUOUS
 62
     7
100
AcDbLine
 10
158.907003
 20
143.081649
 30
0.0
 11
158.875505
 21
143.182213
 31
0.0
  0
LINE
  5
10DE
100
AcDbEntity
  8
10000_FRONT
370
    25
390
0
  6
CONTINUOUS
 62
     7
100
AcDbLine
 10
158.907006
 20
153.181658
 30
0.0
 11
158.875508
 21
153.28221
 31
0.0
  0
LINE
  5
10DF
100
AcDbEntity
  8
10000_FRONT
370
    25
390
0
  6
CONTINUOUS
 62
     7
100
AcDbLine
 10
158.907006
 20
163.281657
 30
0.0
 11
158.875508
 21
163.382209
 31
0.0
  0
LINE
  5
10E0
100
AcDbEntity
  8
10000_FRONT
370
    25
390
0
  6
CONTINUOUS
 62
     7
100
AcDbLine
 10
159.325
 20
152.05
 30
0.0
 11
159.287224
 21
152.158139
 31
0.0
  0
LINE
  5
10E1
100
AcDbEntity
  8
10000_FRONT
370
    25
390
0
  6
CONTINUOUS
 62
     7
100
AcDbLine
 10
159.325
 20
162.150001
 30
0.0
 11
159.287224
 21
162.25814
 31
0.0
  0
LINE
  5
10E2
100
AcDbEntity
  8
10000_FRONT
370
    25
390
0
  6
CONTINUOUS
 62
     7
100
AcDbLine
 10
159.325
 20
141.95
 30
0.0
 11
159.287196
 21
142.05813
 31
0.0
  0
LINE
  5
10E3
100
AcDbEntity
  8
10000_FRONT
370
    25
390
0
  6
CONTINUOUS
 62
     7
100
AcDbLine
 10
158.941713
 20
142.982571
 30
0.0
 11
158.907003
 21
143.081649
 31
0.0
  0
LINE
  5
10E4
100
AcDbEntity
  8
10000_FRONT
370
    25
390
0
  6
CONTINUOUS
 62
     7
100
AcDbLine
 10
158.941719
 20
153.082589
 30
0.0
 11
158.907006
 21
153.181658
 31
0.0
  0
LINE
  5
10E5
100
AcDbEntity
  8
10000_FRONT
370
    25
390
0
  6
CONTINUOUS
 62
     7
100
AcDbLine
 10
158.941719
 20
163.18259
 30
0.0
 11
158.907006
 21
163.281657
 31
0.0
  0
LINE
  5
10E6
100
AcDbEntity
  8
10000_FRONT
370
    25
390
0
  6
CONTINUOUS
 62
     7
100
AcDbLine
 10
159.287224
 20
152.158139
 30
0.0
 11
159.249273
 21
152.265794
 31
0.0
  0
LINE
  5
10E7
100
AcDbEntity
  8
10000_FRONT
370
    25
390
0
  6
CONTINUOUS
 62
     7
100
AcDbLine
 10
159.287224
 20
162.25814
 30
0.0
 11
159.249273
 21
162.365794
 31
0.0
  0
LINE
  5
10E8
100
AcDbEntity
  8
10000_FRONT
370
    25
390
0
  6
CONTINUOUS
 62
     7
100
AcDbLine
 10
159.287196
 20
142.05813
 30
0.0
 11
159.249237
 21
142.165784
 31
0.0
  0
LINE
  5
10E9
100
AcDbEntity
  8
10000_FRONT
370
    25
390
0
  6
CONTINUOUS
 62
     7
100
AcDbLine
 10
163.441715
 20
142.61354
 30
0.0
 11
163.075
 21
143.644107
 31
0.0
  0
LINE
  5
10EA
100
AcDbEntity
  8
10000_FRONT
370
    25
390
0
  6
CONTINUOUS
 62
     7
100
AcDbLine
 10
163.475
 20
143.235893
 30
0.0
 11
163.108285
 21
144.26646
 31
0.0
  0
LINE
  5
10EB
100
AcDbEntity
  8
10000_FRONT
370
    25
390
0
  6
CONTINUOUS
 62
     7
100
AcDbLine
 10
163.441715
 20
152.71354
 30
0.0
 11
163.075
 21
153.744107
 31
0.0
  0
LINE
  5
10EC
100
AcDbEntity
  8
10000_FRONT
370
    25
390
0
  6
CONTINUOUS
 62
     7
100
AcDbLine
 10
163.475
 20
153.335893
 30
0.0
 11
163.108285
 21
154.36646
 31
0.0
  0
LINE
  5
10ED
100
AcDbEntity
  8
10000_FRONT
370
    25
390
0
  6
CONTINUOUS
 62
     7
100
AcDbLine
 10
159.249237
 20
142.165784
 30
0.0
 11
159.211105
 21
142.272654
 31
0.0
  0
LINE
  5
10EE
100
AcDbEntity
  8
10000_FRONT
370
    25
390
0
  6
CONTINUOUS
 62
     7
100
AcDbLine
 10
159.249273
 20
152.265794
 30
0.0
 11
159.211135
 21
152.372662
 31
0.0
  0
LINE
  5
10EF
100
AcDbEntity
  8
10000_FRONT
370
    25
390
0
  6
CONTINUOUS
 62
     7
100
AcDbLine
 10
159.249273
 20
162.365794
 30
0.0
 11
159.211135
 21
162.472661
 31
0.0
  0
LINE
  5
10F0
100
AcDbEntity
  8
10000_FRONT
370
    25
390
0
  6
CONTINUOUS
 62
     7
100
AcDbLine
 10
159.211105
 20
142.272654
 30
0.0
 11
159.172781
 21
142.378432
 31
0.0
  0
LINE
  5
10F1
100
AcDbEntity
  8
10000_FRONT
370
    25
390
0
  6
CONTINUOUS
 62
     7
100
AcDbLine
 10
159.211135
 20
162.472661
 30
0.0
 11
159.172799
 21
162.578437
 31
0.0
  0
LINE
  5
10F2
100
AcDbEntity
  8
10000_FRONT
370
    25
390
0
  6
CONTINUOUS
 62
     7
100
AcDbLine
 10
159.211135
 20
152.372662
 30
0.0
 11
159.172799
 21
152.478437
 31
0.0
  0
LINE
  5
10F3
100
AcDbEntity
  8
10000_FRONT
370
    25
390
0
  6
CONTINUOUS
 62
     7
100
AcDbLine
 10
159.172781
 20
142.378432
 30
0.0
 11
159.134245
 21
142.482813
 31
0.0
  0
LINE
  5
10F4
100
AcDbEntity
  8
10000_FRONT
370
    25
390
0
  6
CONTINUOUS
 62
     7
100
AcDbLine
 10
159.172799
 20
162.578437
 30
0.0
 11
159.134252
 21
162.682817
 31
0.0
  0
LINE
  5
10F5
100
AcDbEntity
  8
10000_FRONT
370
    25
390
0
  6
CONTINUOUS
 62
     7
100
AcDbLine
 10
159.172799
 20
152.478437
 30
0.0
 11
159.134252
 21
152.582816
 31
0.0
  0
LINE
  5
10F6
100
AcDbEntity
  8
10000_FRONT
370
    25
390
0
  6
CONTINUOUS
 62
     7
100
AcDbLine
 10
158.978718
 20
142.884104
 30
0.0
 11
158.941713
 21
142.982571
 31
0.0
  0
LINE
  5
10F7
100
AcDbEntity
  8
10000_FRONT
370
    25
390
0
  6
CONTINUOUS
 62
     7
100
AcDbLine
 10
158.978728
 20
163.084125
 30
0.0
 11
158.941719
 21
163.18259
 31
0.0
  0
LINE
  5
10F8
100
AcDbEntity
  8
10000_FRONT
370
    25
390
0
  6
CONTINUOUS
 62
     7
100
AcDbLine
 10
158.978728
 20
152.984125
 30
0.0
 11
158.941719
 21
153.082589
 31
0.0
  0
LINE
  5
10F9
100
AcDbEntity
  8
10000_FRONT
370
    25
390
0
  6
CONTINUOUS
 62
     7
100
AcDbLine
 10
159.134245
 20
142.482813
 30
0.0
 11
159.09548
 21
142.585487
 31
0.0
  0
LINE
  5
10FA
100
AcDbEntity
  8
10000_FRONT
370
    25
390
0
  6
CONTINUOUS
 62
     7
100
AcDbLine
 10
159.134252
 20
152.582816
 30
0.0
 11
159.095482
 21
152.685495
 31
0.0
  0
LINE
  5
10FB
100
AcDbEntity
  8
10000_FRONT
370
    25
390
0
  6
CONTINUOUS
 62
     7
100
AcDbLine
 10
159.134252
 20
162.682817
 30
0.0
 11
159.095482
 21
162.785495
 31
0.0
  0
LINE
  5
10FC
100
AcDbEntity
  8
10000_FRONT
370
    25
390
0
  6
CONTINUOUS
 62
     7
100
AcDbLine
 10
159.095482
 20
152.685495
 30
0.0
 11
159.056406
 21
152.786266
 31
0.0
  0
LINE
  5
10FD
100
AcDbEntity
  8
10000_FRONT
370
    25
390
0
  6
CONTINUOUS
 62
     7
100
AcDbLine
 10
159.095482
 20
162.785495
 30
0.0
 11
159.056406
 21
162.886266
 31
0.0
  0
LINE
  5
10FE
100
AcDbEntity
  8
10000_FRONT
370
    25
390
0
  6
CONTINUOUS
 62
     7
100
AcDbLine
 10
159.09548
 20
142.585487
 30
0.0
 11
159.056397
 21
142.686251
 31
0.0
  0
LINE
  5
10FF
100
AcDbEntity
  8
10000_FRONT
370
    25
390
0
  6
CONTINUOUS
 62
     7
100
AcDbLine
 10
159.017214
 20
142.78556
 30
0.0
 11
158.978718
 21
142.884104
 31
0.0
  0
LINE
  5
1100
100
AcDbEntity
  8
10000_FRONT
370
    25
390
0
  6
CONTINUOUS
 62
     7
100
AcDbLine
 10
159.017226
 20
152.88558
 30
0.0
 11
158.978728
 21
152.984125
 31
0.0
  0
LINE
  5
1101
100
AcDbEntity
  8
10000_FRONT
370
    25
390
0
  6
CONTINUOUS
 62
     7
100
AcDbLine
 10
159.017226
 20
162.98558
 30
0.0
 11
158.978728
 21
163.084125
 31
0.0
  0
LINE
  5
1102
100
AcDbEntity
  8
10000_FRONT
370
    25
390
0
  6
CONTINUOUS
 62
     7
100
AcDbLine
 10
159.056406
 20
152.786266
 30
0.0
 11
159.017226
 21
152.88558
 31
0.0
  0
LINE
  5
1103
100
AcDbEntity
  8
10000_FRONT
370
    25
390
0
  6
CONTINUOUS
 62
     7
100
AcDbLine
 10
159.056406
 20
162.886266
 30
0.0
 11
159.017226
 21
162.98558
 31
0.0
  0
LINE
  5
1104
100
AcDbEntity
  8
10000_FRONT
370
    25
390
0
  6
CONTINUOUS
 62
     7
100
AcDbLine
 10
159.056397
 20
142.686251
 30
0.0
 11
159.017214
 21
142.78556
 31
0.0
  0
LINE
  5
1105
100
AcDbEntity
  8
10000_FRONT
370
    25
390
0
  6
CONTINUOUS
 62
     7
100
AcDbLine
 10
158.869818
 20
142.356332
 30
0.0
 11
158.8
 21
142.430276
 31
0.0
  0
LINE
  5
1106
100
AcDbEntity
  8
10000_FRONT
370
    25
390
0
  6
CONTINUOUS
 62
     7
100
AcDbLine
 10
158.870047
 20
152.456589
 30
0.0
 11
158.8
 21
152.530276
 31
0.0
  0
LINE
  5
1107
100
AcDbEntity
  8
10000_FRONT
370
    25
390
0
  6
CONTINUOUS
 62
     7
100
AcDbLine
 10
158.870047
 20
162.55659
 30
0.0
 11
158.8
 21
162.630275
 31
0.0
  0
LINE
  5
1108
100
AcDbEntity
  8
10000_FRONT
370
    25
390
0
  6
CONTINUOUS
 62
     7
100
AcDbLine
 10
160.475
 20
137.0
 30
0.0
 11
159.975
 21
137.5
 31
0.0
  0
LINE
  5
1109
100
AcDbEntity
  8
10000_FRONT
370
    25
390
0
  6
CONTINUOUS
 62
     7
100
AcDbLine
 10
158.942414
 20
162.485225
 30
0.0
 11
158.870047
 21
162.55659
 31
0.0
  0
LINE
  5
110A
100
AcDbEntity
  8
10000_FRONT
370
    25
390
0
  6
CONTINUOUS
 62
     7
100
AcDbLine
 10
158.942414
 20
152.385225
 30
0.0
 11
158.870047
 21
152.456589
 31
0.0
  0
LINE
  5
110B
100
AcDbEntity
  8
10000_FRONT
370
    25
390
0
  6
CONTINUOUS
 62
     7
100
AcDbLine
 10
158.94242
 20
142.285019
 30
0.0
 11
158.869818
 21
142.356332
 31
0.0
  0
LINE
  5
110C
100
AcDbEntity
  8
10000_FRONT
370
    25
390
0
  6
CONTINUOUS
 62
     7
100
AcDbLine
 10
159.016726
 20
142.215526
 30
0.0
 11
158.94242
 21
142.285019
 31
0.0
  0
LINE
  5
110D
100
AcDbEntity
  8
10000_FRONT
370
    25
390
0
  6
CONTINUOUS
 62
     7
100
AcDbLine
 10
159.016699
 20
152.315805
 30
0.0
 11
158.942414
 21
152.385225
 31
0.0
  0
LINE
  5
110E
100
AcDbEntity
  8
10000_FRONT
370
    25
390
0
  6
CONTINUOUS
 62
     7
100
AcDbLine
 10
159.016699
 20
162.415805
 30
0.0
 11
158.942414
 21
162.485225
 31
0.0
  0
LINE
  5
110F
100
AcDbEntity
  8
10000_FRONT
370
    25
390
0
  6
CONTINUOUS
 62
     7
100
AcDbLine
 10
159.092455
 20
142.147642
 30
0.0
 11
159.016726
 21
142.215526
 31
0.0
  0
LINE
  5
1110
100
AcDbEntity
  8
10000_FRONT
370
    25
390
0
  6
CONTINUOUS
 62
     7
100
AcDbLine
 10
159.092502
 20
162.347949
 30
0.0
 11
159.016699
 21
162.415805
 31
0.0
  0
LINE
  5
1111
100
AcDbEntity
  8
10000_FRONT
370
    25
390
0
  6
CONTINUOUS
 62
     7
100
AcDbLine
 10
159.092502
 20
152.24795
 30
0.0
 11
159.016699
 21
152.315805
 31
0.0
  0
LINE
  5
1112
100
AcDbEntity
  8
10000_FRONT
370
    25
390
0
  6
CONTINUOUS
 62
     7
100
AcDbLine
 10
159.16942
 20
152.181282
 30
0.0
 11
159.092502
 21
152.24795
 31
0.0
  0
LINE
  5
1113
100
AcDbEntity
  8
10000_FRONT
370
    25
390
0
  6
CONTINUOUS
 62
     7
100
AcDbLine
 10
159.16942
 20
162.281282
 30
0.0
 11
159.092502
 21
162.347949
 31
0.0
  0
LINE
  5
1114
100
AcDbEntity
  8
10000_FRONT
370
    25
390
0
  6
CONTINUOUS
 62
     7
100
AcDbLine
 10
159.169359
 20
142.081063
 30
0.0
 11
159.092455
 21
142.147642
 31
0.0
  0
LINE
  5
1115
100
AcDbEntity
  8
10000_FRONT
370
    25
390
0
  6
CONTINUOUS
 62
     7
100
AcDbLine
 10
159.247053
 20
152.115425
 30
0.0
 11
159.16942
 21
152.181282
 31
0.0
  0
LINE
  5
1116
100
AcDbEntity
  8
10000_FRONT
370
    25
390
0
  6
CONTINUOUS
 62
     7
100
AcDbLine
 10
159.247053
 20
162.215425
 30
0.0
 11
159.16942
 21
162.281282
 31
0.0
  0
LINE
  5
1117
100
AcDbEntity
  8
10000_FRONT
370
    25
390
0
  6
CONTINUOUS
 62
     7
100
AcDbLine
 10
159.247015
 20
142.015334
 30
0.0
 11
159.169359
 21
142.081063
 31
0.0
  0
LINE
  5
1118
100
AcDbEntity
  8
10000_FRONT
370
    25
390
0
  6
CONTINUOUS
 62
     7
100
AcDbLine
 10
159.325
 20
152.05
 30
0.0
 11
159.247053
 21
152.115425
 31
0.0
  0
LINE
  5
1119
100
AcDbEntity
  8
10000_FRONT
370
    25
390
0
  6
CONTINUOUS
 62
     7
100
AcDbLine
 10
159.325
 20
162.150001
 30
0.0
 11
159.247053
 21
162.215425
 31
0.0
  0
LINE
  5
111A
100
AcDbEntity
  8
10000_FRONT
370
    25
390
0
  6
CONTINUOUS
 62
     7
100
AcDbLine
 10
159.325
 20
141.95
 30
0.0
 11
159.247015
 21
142.015334
 31
0.0
  0
LINE
  5
111B
100
AcDbEntity
  8
10000_FRONT
370
    25
390
0
  6
CONTINUOUS
 62
     7
100
AcDbLine
 10
159.624243
 20
187.049998
 30
0.0
 11
158.8
 21
187.350002
 31
0.0
  0
LINE
  5
111C
100
AcDbEntity
  8
10000_FRONT
370
    25
390
0
  6
CONTINUOUS
 62
     7
100
AcDbLine
 10
162.570633
 20
143.499193
 30
0.0
 11
162.549139
 21
143.499194
 31
0.0
  0
LINE
  5
111D
100
AcDbEntity
  8
10000_FRONT
370
    25
390
0
  6
CONTINUOUS
 62
     7
100
AcDbLine
 10
162.570633
 20
153.599193
 30
0.0
 11
162.549139
 21
153.599194
 31
0.0
  0
LINE
  5
111E
100
AcDbEntity
  8
10000_FRONT
370
    25
390
0
  6
CONTINUOUS
 62
     7
100
AcDbLine
 10
162.636614
 20
143.499192
 30
0.0
 11
162.614465
 21
143.499193
 31
0.0
  0
LINE
  5
111F
100
AcDbEntity
  8
10000_FRONT
370
    25
390
0
  6
CONTINUOUS
 62
     7
100
AcDbLine
 10
160.475
 20
137.0
 30
0.0
 11
162.425
 21
137.0
 31
0.0
  0
LINE
  5
1120
100
AcDbEntity
  8
10000_FRONT
370
    25
390
0
  6
CONTINUOUS
 62
     7
100
AcDbLine
 10
158.2
 20
140.45
 30
0.0
 11
165.0
 21
140.45
 31
0.0
  0
LINE
  5
1121
100
AcDbEntity
  8
10000_FRONT
370
    25
390
0
  6
CONTINUOUS
 62
     7
100
AcDbLine
 10
158.8
 20
140.507762
 30
0.0
 11
165.0
 21
140.507762
 31
0.0
  0
LINE
  5
1122
100
AcDbEntity
  8
10000_FRONT
370
    25
390
0
  6
CONTINUOUS
 62
     7
100
AcDbLine
 10
158.8
 20
141.182749
 30
0.0
 11
165.0
 21
141.182749
 31
0.0
  0
LINE
  5
1123
100
AcDbEntity
  8
10000_FRONT
370
    25
390
0
  6
CONTINUOUS
 62
     7
100
AcDbLine
 10
158.8
 20
141.324986
 30
0.0
 11
165.0
 21
141.324986
 31
0.0
  0
LINE
  5
1124
100
AcDbEntity
  8
10000_FRONT
370
    25
390
0
  6
CONTINUOUS
 62
     7
100
AcDbLine
 10
159.325
 20
141.95
 30
0.0
 11
161.725
 21
141.95
 31
0.0
  0
LINE
  5
1125
100
AcDbEntity
  8
10000_FRONT
370
    25
390
0
  6
CONTINUOUS
 62
     7
100
AcDbLine
 10
158.2
 20
142.55
 30
0.0
 11
158.8
 21
142.55
 31
0.0
  0
LINE
  5
1126
100
AcDbEntity
  8
10000_FRONT
370
    25
390
0
  6
CONTINUOUS
 62
     7
100
AcDbLine
 10
159.325
 20
143.15
 30
0.0
 11
161.725
 21
143.15
 31
0.0
  0
LINE
  5
1127
100
AcDbEntity
  8
10000_FRONT
370
    25
390
0
  6
CONTINUOUS
 62
     7
100
AcDbLine
 10
162.636614
 20
143.499192
 30
0.0
 11
162.658806
 21
143.499192
 31
0.0
  0
LINE
  5
1128
100
AcDbEntity
  8
10000_FRONT
370
    25
390
0
  6
CONTINUOUS
 62
     7
100
AcDbLine
 10
162.225
 20
143.499193
 30
0.0
 11
162.296093
 21
143.499193
 31
0.0
  0
LINE
  5
1129
100
AcDbEntity
  8
10000_FRONT
370
    25
390
0
  6
CONTINUOUS
 62
     7
100
AcDbLine
 10
162.570633
 20
143.499193
 30
0.0
 11
162.592443
 21
143.499193
 31
0.0
  0
LINE
  5
112A
100
AcDbEntity
  8
10000_FRONT
370
    25
390
0
  6
CONTINUOUS
 62
     7
100
AcDbLine
 10
162.592443
 20
143.499193
 30
0.0
 11
162.614465
 21
143.499193
 31
0.0
  0
LINE
  5
112B
100
AcDbEntity
  8
10000_FRONT
370
    25
390
0
  6
CONTINUOUS
 62
     7
100
AcDbLine
 10
162.680957
 20
143.499193
 30
0.0
 11
162.702982
 21
143.499193
 31
0.0
  0
LINE
  5
112C
100
AcDbEntity
  8
10000_FRONT
370
    25
390
0
  6
CONTINUOUS
 62
     7
100
AcDbLine
 10
162.702982
 20
143.499193
 30
0.0
 11
162.725
 21
143.499193
 31
0.0
  0
LINE
  5
112D
100
AcDbEntity
  8
10000_FRONT
370
    25
390
0
  6
CONTINUOUS
 62
     7
100
AcDbLine
 10
158.824482
 20
143.499193
 30
0.0
 11
158.825
 21
143.499193
 31
0.0
  0
LINE
  5
112E
100
AcDbEntity
  8
10000_FRONT
370
    25
390
0
  6
CONTINUOUS
 62
     7
100
AcDbLine
 10
158.822934
 20
143.499193
 30
0.0
 11
158.824482
 21
143.499193
 31
0.0
  0
LINE
  5
112F
100
AcDbEntity
  8
10000_FRONT
370
    25
390
0
  6
CONTINUOUS
 62
     7
100
AcDbLine
 10
158.820363
 20
143.499193
 30
0.0
 11
158.822934
 21
143.499193
 31
0.0
  0
LINE
  5
1130
100
AcDbEntity
  8
10000_FRONT
370
    25
390
0
  6
CONTINUOUS
 62
     7
100
AcDbLine
 10
158.816777
 20
143.499193
 30
0.0
 11
158.820363
 21
143.499193
 31
0.0
  0
LINE
  5
1131
100
AcDbEntity
  8
10000_FRONT
370
    25
390
0
  6
CONTINUOUS
 62
     7
100
AcDbLine
 10
158.812183
 20
143.499193
 30
0.0
 11
158.816777
 21
143.499193
 31
0.0
  0
LINE
  5
1132
100
AcDbEntity
  8
10000_FRONT
370
    25
390
0
  6
CONTINUOUS
 62
     7
100
AcDbLine
 10
158.806588
 20
143.499193
 30
0.0
 11
158.812183
 21
143.499193
 31
0.0
  0
LINE
  5
1133
100
AcDbEntity
  8
10000_FRONT
370
    25
390
0
  6
CONTINUOUS
 62
     7
100
AcDbLine
 10
158.8
 20
143.499193
 30
0.0
 11
158.806588
 21
143.499193
 31
0.0
  0
LINE
  5
1134
100
AcDbEntity
  8
10000_FRONT
370
    25
390
0
  6
CONTINUOUS
 62
     7
100
AcDbLine
 10
162.307946
 20
143.499194
 30
0.0
 11
162.549139
 21
143.499194
 31
0.0
  0
LINE
  5
1135
100
AcDbEntity
  8
10000_FRONT
370
    25
390
0
  6
CONTINUOUS
 62
     7
100
AcDbLine
 10
163.415
 20
145.24
 30
0.0
 11
164.135
 21
145.24
 31
0.0
  0
LINE
  5
1136
100
AcDbEntity
  8
10000_FRONT
370
    25
390
0
  6
CONTINUOUS
 62
     7
100
AcDbLine
 10
163.633182
 20
145.48
 30
0.0
 11
164.135
 21
145.48
 31
0.0
  0
LINE
  5
1137
100
AcDbEntity
  8
10000_FRONT
370
    25
390
0
  6
CONTINUOUS
 62
     7
100
AcDbLine
 10
162.225
 20
146.25
 30
0.0
 11
162.725
 21
146.25
 31
0.0
  0
LINE
  5
1138
100
AcDbEntity
  8
10000_FRONT
370
    25
390
0
  6
CONTINUOUS
 62
     7
100
AcDbLine
 10
158.8
 20
146.25
 30
0.0
 11
158.825
 21
146.25
 31
0.0
  0
LINE
  5
1139
100
AcDbEntity
  8
10000_FRONT
370
    25
390
0
  6
CONTINUOUS
 62
     7
100
AcDbLine
 10
159.325
 20
146.75
 30
0.0
 11
161.725
 21
146.75
 31
0.0
  0
LINE
  5
113A
100
AcDbEntity
  8
10000_FRONT
370
    25
390
0
  6
CONTINUOUS
 62
     7
100
AcDbLine
 10
159.325
 20
147.25
 30
0.0
 11
161.725
 21
147.25
 31
0.0
  0
LINE
  5
113B
100
AcDbEntity
  8
10000_FRONT
370
    25
390
0
  6
CONTINUOUS
 62
     7
100
AcDbLine
 10
158.8
 20
149.750003
 30
0.0
 11
158.825
 21
149.750004
 31
0.0
  0
LINE
  5
113C
100
AcDbEntity
  8
10000_FRONT
370
    25
390
0
  6
CONTINUOUS
 62
     7
100
AcDbLine
 10
159.325
 20
152.05
 30
0.0
 11
161.725
 21
152.05
 31
0.0
  0
LINE
  5
113D
100
AcDbEntity
  8
10000_FRONT
370
    25
390
0
  6
CONTINUOUS
 62
     7
100
AcDbLine
 10
159.325
 20
153.25
 30
0.0
 11
161.725
 21
153.25
 31
0.0
  0
LINE
  5
113E
100
AcDbEntity
  8
10000_FRONT
370
    25
390
0
  6
CONTINUOUS
 62
     7
100
AcDbLine
 10
162.570633
 20
153.599193
 30
0.0
 11
162.702982
 21
153.599193
 31
0.0
  0
LINE
  5
113F
100
AcDbEntity
  8
10000_FRONT
370
    25
390
0
  6
CONTINUOUS
 62
     7
100
AcDbLine
 10
158.8
 20
153.599194
 30
0.0
 11
158.825
 21
153.599194
 31
0.0
  0
LINE
  5
1140
100
AcDbEntity
  8
10000_FRONT
370
    25
390
0
  6
CONTINUOUS
 62
     7
100
AcDbLine
 10
162.225
 20
153.599194
 30
0.0
 11
162.225526
 21
153.599194
 31
0.0
  0
LINE
  5
1141
100
AcDbEntity
  8
10000_FRONT
370
    25
390
0
  6
CONTINUOUS
 62
     7
100
AcDbLine
 10
162.225526
 20
153.599194
 30
0.0
 11
162.227091
 21
153.599194
 31
0.0
  0
LINE
  5
1142
100
AcDbEntity
  8
10000_FRONT
370
    25
390
0
  6
CONTINUOUS
 62
     7
100
AcDbLine
 10
162.227091
 20
153.599194
 30
0.0
 11
162.229678
 21
153.599194
 31
0.0
  0
LINE
  5
1143
100
AcDbEntity
  8
10000_FRONT
370
    25
390
0
  6
CONTINUOUS
 62
     7
100
AcDbLine
 10
162.229678
 20
153.599194
 30
0.0
 11
162.23327
 21
153.599194
 31
0.0
  0
LINE
  5
1144
100
AcDbEntity
  8
10000_FRONT
370
    25
390
0
  6
CONTINUOUS
 62
     7
100
AcDbLine
 10
162.23327
 20
153.599194
 30
0.0
 11
162.237849
 21
153.599194
 31
0.0
  0
LINE
  5
1145
100
AcDbEntity
  8
10000_FRONT
370
    25
390
0
  6
CONTINUOUS
 62
     7
100
AcDbLine
 10
162.237849
 20
153.599194
 30
0.0
 11
162.243399
 21
153.599194
 31
0.0
  0
LINE
  5
1146
100
AcDbEntity
  8
10000_FRONT
370
    25
390
0
  6
CONTINUOUS
 62
     7
100
AcDbLine
 10
162.243399
 20
153.599194
 30
0.0
 11
162.249901
 21
153.599194
 31
0.0
  0
LINE
  5
1147
100
AcDbEntity
  8
10000_FRONT
370
    25
390
0
  6
CONTINUOUS
 62
     7
100
AcDbLine
 10
162.249901
 20
153.599194
 30
0.0
 11
162.257338
 21
153.599194
 31
0.0
  0
LINE
  5
1148
100
AcDbEntity
  8
10000_FRONT
370
    25
390
0
  6
CONTINUOUS
 62
     7
100
AcDbLine
 10
162.257338
 20
153.599194
 30
0.0
 11
162.265693
 21
153.599194
 31
0.0
  0
LINE
  5
1149
100
AcDbEntity
  8
10000_FRONT
370
    25
390
0
  6
CONTINUOUS
 62
     7
100
AcDbLine
 10
162.265693
 20
153.599194
 30
0.0
 11
162.274949
 21
153.599194
 31
0.0
  0
LINE
  5
114A
100
AcDbEntity
  8
10000_FRONT
370
    25
390
0
  6
CONTINUOUS
 62
     7
100
AcDbLine
 10
162.274949
 20
153.599194
 30
0.0
 11
162.285088
 21
153.599194
 31
0.0
  0
LINE
  5
114B
100
AcDbEntity
  8
10000_FRONT
370
    25
390
0
  6
CONTINUOUS
 62
     7
100
AcDbLine
 10
162.285088
 20
153.599194
 30
0.0
 11
162.296093
 21
153.599194
 31
0.0
  0
LINE
  5
114C
100
AcDbEntity
  8
10000_FRONT
370
    25
390
0
  6
CONTINUOUS
 62
     7
100
AcDbLine
 10
162.296093
 20
153.599194
 30
0.0
 11
162.307946
 21
153.599194
 31
0.0
  0
LINE
  5
114D
100
AcDbEntity
  8
10000_FRONT
370
    25
390
0
  6
CONTINUOUS
 62
     7
100
AcDbLine
 10
162.307946
 20
153.599194
 30
0.0
 11
162.320631
 21
153.599194
 31
0.0
  0
LINE
  5
114E
100
AcDbEntity
  8
10000_FRONT
370
    25
390
0
  6
CONTINUOUS
 62
     7
100
AcDbLine
 10
162.320631
 20
153.599194
 30
0.0
 11
162.334129
 21
153.599194
 31
0.0
  0
LINE
  5
114F
100
AcDbEntity
  8
10000_FRONT
370
    25
390
0
  6
CONTINUOUS
 62
     7
100
AcDbLine
 10
162.334129
 20
153.599194
 30
0.0
 11
162.348423
 21
153.599194
 31
0.0
  0
LINE
  5
1150
100
AcDbEntity
  8
10000_FRONT
370
    25
390
0
  6
CONTINUOUS
 62
     7
100
AcDbLine
 10
162.348423
 20
153.599194
 30
0.0
 11
162.363497
 21
153.599194
 31
0.0
  0
LINE
  5
1151
100
AcDbEntity
  8
10000_FRONT
370
    25
390
0
  6
CONTINUOUS
 62
     7
100
AcDbLine
 10
162.363497
 20
153.599194
 30
0.0
 11
162.379322
 21
153.599194
 31
0.0
  0
LINE
  5
1152
100
AcDbEntity
  8
10000_FRONT
370
    25
390
0
  6
CONTINUOUS
 62
     7
100
AcDbLine
 10
162.379322
 20
153.599194
 30
0.0
 11
162.395821
 21
153.599194
 31
0.0
  0
LINE
  5
1153
100
AcDbEntity
  8
10000_FRONT
370
    25
390
0
  6
CONTINUOUS
 62
     7
100
AcDbLine
 10
162.395821
 20
153.599194
 30
0.0
 11
162.412964
 21
153.599194
 31
0.0
  0
LINE
  5
1154
100
AcDbEntity
  8
10000_FRONT
370
    25
390
0
  6
CONTINUOUS
 62
     7
100
AcDbLine
 10
162.412964
 20
153.599194
 30
0.0
 11
162.430728
 21
153.599194
 31
0.0
  0
LINE
  5
1155
100
AcDbEntity
  8
10000_FRONT
370
    25
390
0
  6
CONTINUOUS
 62
     7
100
AcDbLine
 10
162.430728
 20
153.599194
 30
0.0
 11
162.449091
 21
153.599194
 31
0.0
  0
LINE
  5
1156
100
AcDbEntity
  8
10000_FRONT
370
    25
390
0
  6
CONTINUOUS
 62
     7
100
AcDbLine
 10
162.449091
 20
153.599194
 30
0.0
 11
162.468032
 21
153.599194
 31
0.0
  0
LINE
  5
1157
100
AcDbEntity
  8
10000_FRONT
370
    25
390
0
  6
CONTINUOUS
 62
     7
100
AcDbLine
 10
162.468032
 20
153.599194
 30
0.0
 11
162.487529
 21
153.599194
 31
0.0
  0
LINE
  5
1158
100
AcDbEntity
  8
10000_FRONT
370
    25
390
0
  6
CONTINUOUS
 62
     7
100
AcDbLine
 10
162.487529
 20
153.599194
 30
0.0
 11
162.50756
 21
153.599194
 31
0.0
  0
LINE
  5
1159
100
AcDbEntity
  8
10000_FRONT
370
    25
390
0
  6
CONTINUOUS
 62
     7
100
AcDbLine
 10
162.50756
 20
153.599194
 30
0.0
 11
162.528104
 21
153.599194
 31
0.0
  0
LINE
  5
115A
100
AcDbEntity
  8
10000_FRONT
370
    25
390
0
  6
CONTINUOUS
 62
     7
100
AcDbLine
 10
162.528104
 20
153.599194
 30
0.0
 11
162.549139
 21
153.599194
 31
0.0
  0
LINE
  5
115B
100
AcDbEntity
  8
10000_FRONT
370
    25
390
0
  6
CONTINUOUS
 62
     7
100
AcDbLine
 10
163.915444
 20
155.9
 30
0.0
 11
164.075
 21
155.9
 31
0.0
  0
LINE
  5
115C
100
AcDbEntity
  8
10000_FRONT
370
    25
390
0
  6
CONTINUOUS
 62
     7
100
AcDbLine
 10
163.195
 20
155.9
 30
0.0
 11
163.675444
 21
155.9
 31
0.0
  0
LINE
  5
115D
100
AcDbEntity
  8
10000_FRONT
370
    25
390
0
  6
CONTINUOUS
 62
     7
100
AcDbLine
 10
163.915444
 20
156.14
 30
0.0
 11
164.075
 21
156.14
 31
0.0
  0
LINE
  5
115E
100
AcDbEntity
  8
10000_FRONT
370
    25
390
0
  6
CONTINUOUS
 62
     7
100
AcDbLine
 10
163.402846
 20
156.14
 30
0.0
 11
163.675444
 21
156.14
 31
0.0
  0
LINE
  5
115F
100
AcDbEntity
  8
10000_FRONT
370
    25
390
0
  6
CONTINUOUS
 62
     7
100
AcDbLine
 10
158.8
 20
156.35
 30
0.0
 11
158.825
 21
156.35
 31
0.0
  0
LINE
  5
1160
100
AcDbEntity
  8
10000_FRONT
370
    25
390
0
  6
CONTINUOUS
 62
     7
100
AcDbLine
 10
162.225
 20
156.35
 30
0.0
 11
162.725
 21
156.35
 31
0.0
  0
LINE
  5
1161
100
AcDbEntity
  8
10000_FRONT
370
    25
390
0
  6
CONTINUOUS
 62
     7
100
AcDbLine
 10
159.325
 20
156.85
 30
0.0
 11
161.725
 21
156.85
 31
0.0
  0
LINE
  5
1162
100
AcDbEntity
  8
10000_FRONT
370
    25
390
0
  6
CONTINUOUS
 62
     7
100
AcDbLine
 10
159.325
 20
157.35
 30
0.0
 11
161.725
 21
157.35
 31
0.0
  0
LINE
  5
1163
100
AcDbEntity
  8
10000_FRONT
370
    25
390
0
  6
CONTINUOUS
 62
     7
100
AcDbLine
 10
158.8
 20
159.850003
 30
0.0
 11
158.825
 21
159.850003
 31
0.0
  0
LINE
  5
1164
100
AcDbEntity
  8
10000_FRONT
370
    25
390
0
  6
CONTINUOUS
 62
     7
100
AcDbLine
 10
159.325
 20
162.150001
 30
0.0
 11
161.725
 21
162.150001
 31
0.0
  0
LINE
  5
1165
100
AcDbEntity
  8
10000_FRONT
370
    25
390
0
  6
CONTINUOUS
 62
     7
100
AcDbLine
 10
159.325
 20
163.35
 30
0.0
 11
161.725
 21
163.35
 31
0.0
  0
LINE
  5
1166
100
AcDbEntity
  8
10000_FRONT
370
    25
390
0
  6
CONTINUOUS
 62
     7
100
AcDbLine
 10
158.8
 20
163.699193
 30
0.0
 11
158.825
 21
163.699193
 31
0.0
  0
LINE
  5
1167
100
AcDbEntity
  8
10000_FRONT
370
    25
390
0
  6
CONTINUOUS
 62
     7
100
AcDbLine
 10
162.225
 20
163.699193
 30
0.0
 11
162.225526
 21
163.699193
 31
0.0
  0
LINE
  5
1168
100
AcDbEntity
  8
10000_FRONT
370
    25
390
0
  6
CONTINUOUS
 62
     7
100
AcDbLine
 10
162.225526
 20
163.699193
 30
0.0
 11
162.227091
 21
163.699193
 31
0.0
  0
LINE
  5
1169
100
AcDbEntity
  8
10000_FRONT
370
    25
390
0
  6
CONTINUOUS
 62
     7
100
AcDbLine
 10
162.227091
 20
163.699193
 30
0.0
 11
162.229678
 21
163.699193
 31
0.0
  0
LINE
  5
116A
100
AcDbEntity
  8
10000_FRONT
370
    25
390
0
  6
CONTINUOUS
 62
     7
100
AcDbLine
 10
162.229678
 20
163.699193
 30
0.0
 11
162.23327
 21
163.699193
 31
0.0
  0
LINE
  5
116B
100
AcDbEntity
  8
10000_FRONT
370
    25
390
0
  6
CONTINUOUS
 62
     7
100
AcDbLine
 10
162.23327
 20
163.699193
 30
0.0
 11
162.237849
 21
163.699193
 31
0.0
  0
LINE
  5
116C
100
AcDbEntity
  8
10000_FRONT
370
    25
390
0
  6
CONTINUOUS
 62
     7
100
AcDbLine
 10
162.237849
 20
163.699193
 30
0.0
 11
162.243399
 21
163.699193
 31
0.0
  0
LINE
  5
116D
100
AcDbEntity
  8
10000_FRONT
370
    25
390
0
  6
CONTINUOUS
 62
     7
100
AcDbLine
 10
162.243399
 20
163.699193
 30
0.0
 11
162.249901
 21
163.699193
 31
0.0
  0
LINE
  5
116E
100
AcDbEntity
  8
10000_FRONT
370
    25
390
0
  6
CONTINUOUS
 62
     7
100
AcDbLine
 10
162.249901
 20
163.699193
 30
0.0
 11
162.257338
 21
163.699193
 31
0.0
  0
LINE
  5
116F
100
AcDbEntity
  8
10000_FRONT
370
    25
390
0
  6
CONTINUOUS
 62
     7
100
AcDbLine
 10
162.257338
 20
163.699193
 30
0.0
 11
162.265693
 21
163.699193
 31
0.0
  0
LINE
  5
1170
100
AcDbEntity
  8
10000_FRONT
370
    25
390
0
  6
CONTINUOUS
 62
     7
100
AcDbLine
 10
162.265693
 20
163.699193
 30
0.0
 11
162.274949
 21
163.699193
 31
0.0
  0
LINE
  5
1171
100
AcDbEntity
  8
10000_FRONT
370
    25
390
0
  6
CONTINUOUS
 62
     7
100
AcDbLine
 10
162.274949
 20
163.699193
 30
0.0
 11
162.285088
 21
163.699193
 31
0.0
  0
LINE
  5
1172
100
AcDbEntity
  8
10000_FRONT
370
    25
390
0
  6
CONTINUOUS
 62
     7
100
AcDbLine
 10
162.285088
 20
163.699193
 30
0.0
 11
162.296093
 21
163.699193
 31
0.0
  0
LINE
  5
1173
100
AcDbEntity
  8
10000_FRONT
370
    25
390
0
  6
CONTINUOUS
 62
     7
100
AcDbLine
 10
162.296093
 20
163.699193
 30
0.0
 11
162.307946
 21
163.699193
 31
0.0
  0
LINE
  5
1174
100
AcDbEntity
  8
10000_FRONT
370
    25
390
0
  6
CONTINUOUS
 62
     7
100
AcDbLine
 10
162.307946
 20
163.699193
 30
0.0
 11
162.320631
 21
163.699193
 31
0.0
  0
LINE
  5
1175
100
AcDbEntity
  8
10000_FRONT
370
    25
390
0
  6
CONTINUOUS
 62
     7
100
AcDbLine
 10
162.320631
 20
163.699193
 30
0.0
 11
162.334129
 21
163.699193
 31
0.0
  0
LINE
  5
1176
100
AcDbEntity
  8
10000_FRONT
370
    25
390
0
  6
CONTINUOUS
 62
     7
100
AcDbLine
 10
162.334129
 20
163.699193
 30
0.0
 11
162.348423
 21
163.699193
 31
0.0
  0
LINE
  5
1177
100
AcDbEntity
  8
10000_FRONT
370
    25
390
0
  6
CONTINUOUS
 62
     7
100
AcDbLine
 10
162.348423
 20
163.699193
 30
0.0
 11
162.363497
 21
163.699193
 31
0.0
  0
LINE
  5
1178
100
AcDbEntity
  8
10000_FRONT
370
    25
390
0
  6
CONTINUOUS
 62
     7
100
AcDbLine
 10
162.363497
 20
163.699193
 30
0.0
 11
162.379322
 21
163.699193
 31
0.0
  0
LINE
  5
1179
100
AcDbEntity
  8
10000_FRONT
370
    25
390
0
  6
CONTINUOUS
 62
     7
100
AcDbLine
 10
162.379322
 20
163.699193
 30
0.0
 11
162.395821
 21
163.699193
 31
0.0
  0
LINE
  5
117A
100
AcDbEntity
  8
10000_FRONT
370
    25
390
0
  6
CONTINUOUS
 62
     7
100
AcDbLine
 10
162.395821
 20
163.699193
 30
0.0
 11
162.412964
 21
163.699193
 31
0.0
  0
LINE
  5
117B
100
AcDbEntity
  8
10000_FRONT
370
    25
390
0
  6
CONTINUOUS
 62
     7
100
AcDbLine
 10
162.412964
 20
163.699193
 30
0.0
 11
162.430728
 21
163.699193
 31
0.0
  0
LINE
  5
117C
100
AcDbEntity
  8
10000_FRONT
370
    25
390
0
  6
CONTINUOUS
 62
     7
100
AcDbLine
 10
162.430728
 20
163.699193
 30
0.0
 11
162.449091
 21
163.699193
 31
0.0
  0
LINE
  5
117D
100
AcDbEntity
  8
10000_FRONT
370
    25
390
0
  6
CONTINUOUS
 62
     7
100
AcDbLine
 10
162.449091
 20
163.699193
 30
0.0
 11
162.468032
 21
163.699193
 31
0.0
  0
LINE
  5
117E
100
AcDbEntity
  8
10000_FRONT
370
    25
390
0
  6
CONTINUOUS
 62
     7
100
AcDbLine
 10
162.468032
 20
163.699193
 30
0.0
 11
162.487529
 21
163.699193
 31
0.0
  0
LINE
  5
117F
100
AcDbEntity
  8
10000_FRONT
370
    25
390
0
  6
CONTINUOUS
 62
     7
100
AcDbLine
 10
162.487529
 20
163.699193
 30
0.0
 11
162.50756
 21
163.699193
 31
0.0
  0
LINE
  5
1180
100
AcDbEntity
  8
10000_FRONT
370
    25
390
0
  6
CONTINUOUS
 62
     7
100
AcDbLine
 10
162.50756
 20
163.699193
 30
0.0
 11
162.528104
 21
163.699193
 31
0.0
  0
LINE
  5
1181
100
AcDbEntity
  8
10000_FRONT
370
    25
390
0
  6
CONTINUOUS
 62
     7
100
AcDbLine
 10
162.528104
 20
163.699193
 30
0.0
 11
162.549139
 21
163.699193
 31
0.0
  0
LINE
  5
1182
100
AcDbEntity
  8
10000_FRONT
370
    25
390
0
  6
CONTINUOUS
 62
     7
100
AcDbLine
 10
162.549139
 20
163.699193
 30
0.0
 11
162.570633
 21
163.699193
 31
0.0
  0
LINE
  5
1183
100
AcDbEntity
  8
10000_FRONT
370
    25
390
0
  6
CONTINUOUS
 62
     7
100
AcDbLine
 10
162.570633
 20
163.699193
 30
0.0
 11
162.592443
 21
163.699193
 31
0.0
  0
LINE
  5
1184
100
AcDbEntity
  8
10000_FRONT
370
    25
390
0
  6
CONTINUOUS
 62
     7
100
AcDbLine
 10
162.592443
 20
163.699193
 30
0.0
 11
162.614465
 21
163.699193
 31
0.0
  0
LINE
  5
1185
100
AcDbEntity
  8
10000_FRONT
370
    25
390
0
  6
CONTINUOUS
 62
     7
100
AcDbLine
 10
162.614465
 20
163.699193
 30
0.0
 11
162.636614
 21
163.699193
 31
0.0
  0
LINE
  5
1186
100
AcDbEntity
  8
10000_FRONT
370
    25
390
0
  6
CONTINUOUS
 62
     7
100
AcDbLine
 10
162.636614
 20
163.699193
 30
0.0
 11
162.658806
 21
163.699193
 31
0.0
  0
LINE
  5
1187
100
AcDbEntity
  8
10000_FRONT
370
    25
390
0
  6
CONTINUOUS
 62
     7
100
AcDbLine
 10
162.658806
 20
163.699193
 30
0.0
 11
162.680957
 21
163.699193
 31
0.0
  0
LINE
  5
1188
100
AcDbEntity
  8
10000_FRONT
370
    25
390
0
  6
CONTINUOUS
 62
     7
100
AcDbLine
 10
162.680957
 20
163.699193
 30
0.0
 11
162.702982
 21
163.699193
 31
0.0
  0
LINE
  5
1189
100
AcDbEntity
  8
10000_FRONT
370
    25
390
0
  6
CONTINUOUS
 62
     7
100
AcDbLine
 10
162.702982
 20
163.699193
 30
0.0
 11
162.725
 21
163.699193
 31
0.0
  0
LINE
  5
118A
100
AcDbEntity
  8
10000_FRONT
370
    25
390
0
  6
CONTINUOUS
 62
     7
100
AcDbLine
 10
158.8
 20
166.45
 30
0.0
 11
158.825
 21
166.45
 31
0.0
  0
LINE
  5
118B
100
AcDbEntity
  8
10000_FRONT
370
    25
390
0
  6
CONTINUOUS
 62
     7
100
AcDbLine
 10
162.225
 20
166.45
 30
0.0
 11
162.725
 21
166.45
 31
0.0
  0
LINE
  5
118C
100
AcDbEntity
  8
10000_FRONT
370
    25
390
0
  6
CONTINUOUS
 62
     7
100
AcDbLine
 10
159.325
 20
166.95
 30
0.0
 11
161.725
 21
166.95
 31
0.0
  0
LINE
  5
118D
100
AcDbEntity
  8
10000_FRONT
370
    25
390
0
  6
CONTINUOUS
 62
     7
100
AcDbLine
 10
159.325
 20
167.45
 30
0.0
 11
161.725
 21
167.45
 31
0.0
  0
LINE
  5
118E
100
AcDbEntity
  8
10000_FRONT
370
    25
390
0
  6
CONTINUOUS
 62
     7
100
AcDbLine
 10
158.8
 20
169.950004
 30
0.0
 11
158.825
 21
169.950004
 31
0.0
  0
LINE
  5
118F
100
AcDbEntity
  8
10000_FRONT
370
    25
390
0
  6
CONTINUOUS
 62
     7
100
AcDbLine
 10
158.0
 20
171.767158
 30
0.0
 11
158.8
 21
171.767158
 31
0.0
  0
LINE
  5
1190
100
AcDbEntity
  8
10000_FRONT
370
    25
390
0
  6
CONTINUOUS
 62
     7
100
AcDbLine
 10
158.2
 20
171.908578
 30
0.0
 11
158.8
 21
171.908578
 31
0.0
  0
LINE
  5
1191
100
AcDbEntity
  8
10000_FRONT
370
    25
390
0
  6
CONTINUOUS
 62
     7
100
AcDbLine
 10
164.15
 20
172.4222
 30
0.0
 11
165.0
 21
172.4222
 31
0.0
  0
LINE
  5
1192
100
AcDbEntity
  8
10000_FRONT
370
    25
390
0
  6
CONTINUOUS
 62
     7
100
AcDbLine
 10
158.8
 20
172.467159
 30
0.0
 11
164.15
 21
172.467159
 31
0.0
  0
LINE
  5
1193
100
AcDbEntity
  8
10000_FRONT
370
    25
390
0
  6
CONTINUOUS
 62
     7
100
AcDbLine
 10
164.15
 20
172.562801
 30
0.0
 11
165.0
 21
172.562801
 31
0.0
  0
LINE
  5
1194
100
AcDbEntity
  8
10000_FRONT
370
    25
390
0
  6
CONTINUOUS
 62
     7
100
AcDbLine
 10
158.8
 20
172.608577
 30
0.0
 11
164.15
 21
172.608577
 31
0.0
  0
LINE
  5
1195
100
AcDbEntity
  8
10000_FRONT
370
    25
390
0
  6
CONTINUOUS
 62
     7
100
AcDbLine
 10
158.8
 20
176.464214
 30
0.0
 11
164.15
 21
176.464214
 31
0.0
  0
LINE
  5
1196
100
AcDbEntity
  8
10000_FRONT
370
    25
390
0
  6
CONTINUOUS
 62
     7
100
AcDbLine
 10
164.15
 20
176.472427
 30
0.0
 11
165.0
 21
176.472427
 31
0.0
  0
LINE
  5
1197
100
AcDbEntity
  8
10000_FRONT
370
    25
390
0
  6
CONTINUOUS
 62
     7
100
AcDbLine
 10
158.8
 20
177.878429
 30
0.0
 11
165.0
 21
177.878429
 31
0.0
  0
LINE
  5
1198
100
AcDbEntity
  8
10000_FRONT
370
    25
390
0
  6
CONTINUOUS
 62
     7
100
AcDbLine
 10
158.2
 20
179.864215
 30
0.0
 11
158.8
 21
179.864215
 31
0.0
  0
LINE
  5
1199
100
AcDbEntity
  8
10000_FRONT
370
    25
390
0
  6
CONTINUOUS
 62
     7
100
AcDbLine
 10
158.0
 20
181.278426
 30
0.0
 11
158.8
 21
181.278426
 31
0.0
  0
LINE
  5
119A
100
AcDbEntity
  8
10000_FRONT
370
    25
390
0
  6
CONTINUOUS
 62
     7
100
AcDbLine
 10
158.8
 20
186.850002
 30
0.0
 11
165.0
 21
186.850002
 31
0.0
  0
LINE
  5
119B
100
AcDbEntity
  8
10000_FRONT
370
    25
390
0
  6
CONTINUOUS
 62
     7
100
AcDbLine
 10
159.624243
 20
187.049998
 30
0.0
 11
165.0
 21
187.049998
 31
0.0
  0
LINE
  5
119C
100
AcDbEntity
  8
10000_FRONT
370
    25
390
0
  6
CONTINUOUS
 62
     7
100
AcDbLine
 10
163.8
 20
196.749999
 30
0.0
 11
165.0
 21
196.749999
 31
0.0
  0
LINE
  5
119D
100
AcDbEntity
  8
10000_FRONT
370
    25
390
0
  6
CONTINUOUS
 62
     7
100
AcDbLine
 10
158.0
 20
196.749999
 30
0.0
 11
158.2
 21
196.749999
 31
0.0
  0
LINE
  5
119E
100
AcDbEntity
  8
10000_FRONT
370
    25
390
0
  6
CONTINUOUS
 62
     7
100
AcDbLine
 10
158.2
 20
196.749999
 30
0.0
 11
158.8
 21
196.749999
 31
0.0
  0
LINE
  5
119F
100
AcDbEntity
  8
10000_FRONT
370
    25
390
0
  6
CONTINUOUS
 62
     7
100
AcDbLine
 10
158.2
 20
196.949489
 30
0.0
 11
158.8
 21
196.949489
 31
0.0
  0
LINE
  5
11A0
100
AcDbEntity
  8
10000_FRONT
370
    25
390
0
  6
CONTINUOUS
 62
     7
100
AcDbLine
 10
163.8
 20
196.95
 30
0.0
 11
164.8
 21
196.95
 31
0.0
  0
LINE
  5
11A1
100
AcDbEntity
  8
10000_FRONT
370
    25
390
0
  6
CONTINUOUS
 62
     7
100
AcDbLine
 10
158.0
 20
198.146423
 30
0.0
 11
158.8
 21
198.146423
 31
0.0
  0
LINE
  5
11A2
100
AcDbEntity
  8
10000_FRONT
370
    25
390
0
  6
CONTINUOUS
 62
     7
100
AcDbLine
 10
158.8
 20
198.249999
 30
0.0
 11
163.8
 21
198.249999
 31
0.0
  0
LINE
  5
11A3
100
AcDbEntity
  8
10000_FRONT
370
    25
390
0
  6
CONTINUOUS
 62
     7
100
AcDbLine
 10
159.15
 20
199.92691
 30
0.0
 11
163.75
 21
199.92691
 31
0.0
  0
LINE
  5
11A4
100
AcDbEntity
  8
10000_FRONT
370
    25
390
0
  6
CONTINUOUS
 62
     7
100
AcDbLine
 10
159.15
 20
200.049041
 30
0.0
 11
163.75
 21
200.049041
 31
0.0
  0
LINE
  5
11A5
100
AcDbEntity
  8
10000_FRONT
370
    25
390
0
  6
CONTINUOUS
 62
     7
100
AcDbLine
 10
159.15
 20
200.049998
 30
0.0
 11
163.75
 21
200.049998
 31
0.0
  0
LINE
  5
11A6
100
AcDbEntity
  8
10000_FRONT
370
    25
390
0
  6
CONTINUOUS
 62
     7
100
AcDbLine
 10
158.0
 20
200.249999
 30
0.0
 11
158.8
 21
200.249999
 31
0.0
  0
LINE
  5
11A7
100
AcDbEntity
  8
10000_FRONT
370
    25
390
0
  6
CONTINUOUS
 62
     7
100
AcDbLine
 10
158.2
 20
200.45
 30
0.0
 11
158.8
 21
200.45
 31
0.0
  0
LINE
  5
11A8
100
AcDbEntity
  8
10000_FRONT
370
    25
390
0
  6
CONTINUOUS
 62
     7
100
AcDbLine
 10
159.15
 20
201.249999
 30
0.0
 11
163.75
 21
201.249999
 31
0.0
  0
LINE
  5
11A9
100
AcDbEntity
  8
10000_FRONT
370
    25
390
0
  6
CONTINUOUS
 62
     7
100
AcDbLine
 10
159.15
 20
201.260001
 30
0.0
 11
163.75
 21
201.260001
 31
0.0
  0
LINE
  5
11AA
100
AcDbEntity
  8
10000_FRONT
370
    25
390
0
  6
CONTINUOUS
 62
     7
100
AcDbLine
 10
159.15
 20
202.064716
 30
0.0
 11
163.75
 21
202.064716
 31
0.0
  0
LINE
  5
11AB
100
AcDbEntity
  8
10000_FRONT
370
    25
390
0
  6
CONTINUOUS
 62
     7
100
AcDbLine
 10
159.15
 20
202.150001
 30
0.0
 11
163.75
 21
202.150001
 31
0.0
  0
LINE
  5
11AC
100
AcDbEntity
  8
10000_FRONT
370
    25
390
0
  6
CONTINUOUS
 62
     7
100
AcDbLine
 10
162.658806
 20
143.499192
 30
0.0
 11
162.680957
 21
143.499193
 31
0.0
  0
LINE
  5
11AD
100
AcDbEntity
  8
10000_FRONT
370
    25
390
0
  6
CONTINUOUS
 62
     7
100
AcDbLine
 10
162.702982
 20
153.599193
 30
0.0
 11
162.725
 21
153.599194
 31
0.0
  0
LINE
  5
11AE
100
AcDbEntity
  8
10000_FRONT
370
    25
390
0
  6
CONTINUOUS
 62
     7
100
AcDbLine
 10
162.296093
 20
143.499193
 30
0.0
 11
162.307946
 21
143.499194
 31
0.0
  0
LINE
  5
11AF
100
AcDbEntity
  8
10000_FRONT
370
    25
390
0
  6
CONTINUOUS
 62
     7
100
AcDbLine
 10
163.355
 20
166.778949
 30
0.0
 11
163.655
 21
166.952153
 31
0.0
  0
LINE
  5
11B0
100
AcDbEntity
  8
10000_FRONT
370
    25
390
0
  6
CONTINUOUS
 62
     7
100
AcDbLine
 10
163.235
 20
166.986795
 30
0.0
 11
163.715
 21
167.263923
 31
0.0
  0
LINE
  5
11B1
100
AcDbEntity
  8
10000_FRONT
370
    25
390
0
  6
CONTINUOUS
 62
     7
100
AcDbLine
 10
161.725
 20
162.150001
 30
0.0
 11
161.822481
 21
162.231776
 31
0.0
  0
LINE
  5
11B2
100
AcDbEntity
  8
10000_FRONT
370
    25
390
0
  6
CONTINUOUS
 62
     7
100
AcDbLine
 10
161.725
 20
141.95
 30
0.0
 11
161.822481
 21
142.031776
 31
0.0
  0
LINE
  5
11B3
100
AcDbEntity
  8
10000_FRONT
370
    25
390
0
  6
CONTINUOUS
 62
     7
100
AcDbLine
 10
161.725
 20
152.05
 30
0.0
 11
161.822481
 21
152.131776
 31
0.0
  0
LINE
  5
11B4
100
AcDbEntity
  8
10000_FRONT
370
    25
390
0
  6
CONTINUOUS
 62
     7
100
AcDbLine
 10
161.822481
 20
142.031776
 30
0.0
 11
161.919282
 21
142.114376
 31
0.0
  0
LINE
  5
11B5
100
AcDbEntity
  8
10000_FRONT
370
    25
390
0
  6
CONTINUOUS
 62
     7
100
AcDbLine
 10
161.822481
 20
162.231776
 30
0.0
 11
161.919282
 21
162.314376
 31
0.0
  0
LINE
  5
11B6
100
AcDbEntity
  8
10000_FRONT
370
    25
390
0
  6
CONTINUOUS
 62
     7
100
AcDbLine
 10
161.822481
 20
152.131776
 30
0.0
 11
161.919282
 21
152.214377
 31
0.0
  0
LINE
  5
11B7
100
AcDbEntity
  8
10000_FRONT
370
    25
390
0
  6
CONTINUOUS
 62
     7
100
AcDbLine
 10
161.919282
 20
152.214377
 30
0.0
 11
162.014625
 21
152.298582
 31
0.0
  0
LINE
  5
11B8
100
AcDbEntity
  8
10000_FRONT
370
    25
390
0
  6
CONTINUOUS
 62
     7
100
AcDbLine
 10
161.919282
 20
162.314376
 30
0.0
 11
162.014625
 21
162.398582
 31
0.0
  0
LINE
  5
11B9
100
AcDbEntity
  8
10000_FRONT
370
    25
390
0
  6
CONTINUOUS
 62
     7
100
AcDbLine
 10
161.919282
 20
142.114376
 30
0.0
 11
162.014625
 21
142.198583
 31
0.0
  0
LINE
  5
11BA
100
AcDbEntity
  8
10000_FRONT
370
    25
390
0
  6
CONTINUOUS
 62
     7
100
AcDbLine
 10
162.014625
 20
142.198583
 30
0.0
 11
162.107731
 21
142.285175
 31
0.0
  0
LINE
  5
11BB
100
AcDbEntity
  8
10000_FRONT
370
    25
390
0
  6
CONTINUOUS
 62
     7
100
AcDbLine
 10
162.014625
 20
162.398582
 30
0.0
 11
162.107731
 21
162.485175
 31
0.0
  0
LINE
  5
11BC
100
AcDbEntity
  8
10000_FRONT
370
    25
390
0
  6
CONTINUOUS
 62
     7
100
AcDbLine
 10
162.014625
 20
152.298582
 30
0.0
 11
162.107731
 21
152.385176
 31
0.0
  0
LINE
  5
11BD
100
AcDbEntity
  8
10000_FRONT
370
    25
390
0
  6
CONTINUOUS
 62
     7
100
AcDbLine
 10
162.107731
 20
152.385176
 30
0.0
 11
162.197824
 21
152.474932
 31
0.0
  0
LINE
  5
11BE
100
AcDbEntity
  8
10000_FRONT
370
    25
390
0
  6
CONTINUOUS
 62
     7
100
AcDbLine
 10
162.107731
 20
162.485175
 30
0.0
 11
162.197824
 21
162.574931
 31
0.0
  0
LINE
  5
11BF
100
AcDbEntity
  8
10000_FRONT
370
    25
390
0
  6
CONTINUOUS
 62
     7
100
AcDbLine
 10
162.107731
 20
142.285175
 30
0.0
 11
162.197824
 21
142.374932
 31
0.0
  0
LINE
  5
11C0
100
AcDbEntity
  8
10000_FRONT
370
    25
390
0
  6
CONTINUOUS
 62
     7
100
AcDbLine
 10
162.425
 20
137.0
 30
0.0
 11
162.925
 21
137.5
 31
0.0
  0
LINE
  5
11C1
100
AcDbEntity
  8
10000_FRONT
370
    25
390
0
  6
CONTINUOUS
 62
     7
100
AcDbLine
 10
162.197824
 20
142.374932
 30
0.0
 11
162.284196
 21
142.468349
 31
0.0
  0
LINE
  5
11C2
100
AcDbEntity
  8
10000_FRONT
370
    25
390
0
  6
CONTINUOUS
 62
     7
100
AcDbLine
 10
162.197824
 20
152.474932
 30
0.0
 11
162.284196
 21
152.568349
 31
0.0
  0
LINE
  5
11C3
100
AcDbEntity
  8
10000_FRONT
370
    25
390
0
  6
CONTINUOUS
 62
     7
100
AcDbLine
 10
162.197824
 20
162.574931
 30
0.0
 11
162.284196
 21
162.668349
 31
0.0
  0
LINE
  5
11C4
100
AcDbEntity
  8
10000_FRONT
370
    25
390
0
  6
CONTINUOUS
 62
     7
100
AcDbLine
 10
162.284196
 20
142.468349
 30
0.0
 11
162.365851
 21
142.565871
 31
0.0
  0
LINE
  5
11C5
100
AcDbEntity
  8
10000_FRONT
370
    25
390
0
  6
CONTINUOUS
 62
     7
100
AcDbLine
 10
162.284196
 20
152.568349
 30
0.0
 11
162.365851
 21
152.665872
 31
0.0
  0
LINE
  5
11C6
100
AcDbEntity
  8
10000_FRONT
370
    25
390
0
  6
CONTINUOUS
 62
     7
100
AcDbLine
 10
162.284196
 20
162.668349
 30
0.0
 11
162.365851
 21
162.765872
 31
0.0
  0
LINE
  5
11C7
100
AcDbEntity
  8
10000_FRONT
370
    25
390
0
  6
CONTINUOUS
 62
     7
100
AcDbLine
 10
162.365851
 20
152.665872
 30
0.0
 11
162.441666
 21
152.768058
 31
0.0
  0
LINE
  5
11C8
100
AcDbEntity
  8
10000_FRONT
370
    25
390
0
  6
CONTINUOUS
 62
     7
100
AcDbLine
 10
162.365851
 20
162.765872
 30
0.0
 11
162.441666
 21
162.868058
 31
0.0
  0
LINE
  5
11C9
100
AcDbEntity
  8
10000_FRONT
370
    25
390
0
  6
CONTINUOUS
 62
     7
100
AcDbLine
 10
162.365851
 20
142.565871
 30
0.0
 11
162.441666
 21
142.668058
 31
0.0
  0
LINE
  5
11CA
100
AcDbEntity
  8
10000_FRONT
370
    25
390
0
  6
CONTINUOUS
 62
     7
100
AcDbLine
 10
162.441666
 20
162.868058
 30
0.0
 11
162.51079
 21
162.975148
 31
0.0
  0
LINE
  5
11CB
100
AcDbEntity
  8
10000_FRONT
370
    25
390
0
  6
CONTINUOUS
 62
     7
100
AcDbLine
 10
162.441666
 20
142.668058
 30
0.0
 11
162.51079
 21
142.775149
 31
0.0
  0
LINE
  5
11CC
100
AcDbEntity
  8
10000_FRONT
370
    25
390
0
  6
CONTINUOUS
 62
     7
100
AcDbLine
 10
162.441666
 20
152.768058
 30
0.0
 11
162.51079
 21
152.875149
 31
0.0
  0
LINE
  5
11CD
100
AcDbEntity
  8
10000_FRONT
370
    25
390
0
  6
CONTINUOUS
 62
     7
100
AcDbLine
 10
163.313656
 20
145.424261
 30
0.0
 11
163.977687
 21
146.471478
 31
0.0
  0
LINE
  5
11CE
100
AcDbEntity
  8
10000_FRONT
370
    25
390
0
  6
CONTINUOUS
 62
     7
100
AcDbLine
 10
163.633182
 20
145.48
 30
0.0
 11
164.180374
 21
146.342956
 31
0.0
  0
LINE
  5
11CF
100
AcDbEntity
  8
10000_FRONT
370
    25
390
0
  6
CONTINUOUS
 62
     7
100
AcDbLine
 10
163.402846
 20
156.14
 30
0.0
 11
163.675444
 21
156.612153
 31
0.0
  0
LINE
  5
11D0
100
AcDbEntity
  8
10000_FRONT
370
    25
390
0
  6
CONTINUOUS
 62
     7
100
AcDbLine
 10
163.091077
 20
156.08
 30
0.0
 11
163.691521
 21
157.12
 31
0.0
  0
LINE
  5
11D1
100
AcDbEntity
  8
10000_FRONT
370
    25
390
0
  6
CONTINUOUS
 62
     7
100
AcDbLine
 10
162.51079
 20
142.775149
 30
0.0
 11
162.572259
 21
142.886816
 31
0.0
  0
LINE
  5
11D2
100
AcDbEntity
  8
10000_FRONT
370
    25
390
0
  6
CONTINUOUS
 62
     7
100
AcDbLine
 10
162.51079
 20
152.875149
 30
0.0
 11
162.572259
 21
152.986816
 31
0.0
  0
LINE
  5
11D3
100
AcDbEntity
  8
10000_FRONT
370
    25
390
0
  6
CONTINUOUS
 62
     7
100
AcDbLine
 10
162.51079
 20
162.975148
 30
0.0
 11
162.572259
 21
163.086816
 31
0.0
  0
LINE
  5
11D4
100
AcDbEntity
  8
10000_FRONT
370
    25
390
0
  6
CONTINUOUS
 62
     7
100
AcDbLine
 10
162.572259
 20
152.986816
 30
0.0
 11
162.624909
 21
153.102699
 31
0.0
  0
LINE
  5
11D5
100
AcDbEntity
  8
10000_FRONT
370
    25
390
0
  6
CONTINUOUS
 62
     7
100
AcDbLine
 10
162.572259
 20
163.086816
 30
0.0
 11
162.624909
 21
163.202699
 31
0.0
  0
LINE
  5
11D6
100
AcDbEntity
  8
10000_FRONT
370
    25
390
0
  6
CONTINUOUS
 62
     7
100
AcDbLine
 10
162.572259
 20
142.886816
 30
0.0
 11
162.624909
 21
143.0027
 31
0.0
  0
LINE
  5
11D7
100
AcDbEntity
  8
10000_FRONT
370
    25
390
0
  6
CONTINUOUS
 62
     7
100
AcDbLine
 10
161.993818
 20
142.685872
 30
0.0
 11
162.032928
 21
142.785193
 31
0.0
  0
LINE
  5
11D8
100
AcDbEntity
  8
10000_FRONT
370
    25
390
0
  6
CONTINUOUS
 62
     7
100
AcDbLine
 10
161.993818
 20
152.785872
 30
0.0
 11
162.032928
 21
152.885193
 31
0.0
  0
LINE
  5
11D9
100
AcDbEntity
  8
10000_FRONT
370
    25
390
0
  6
CONTINUOUS
 62
     7
100
AcDbLine
 10
161.993818
 20
162.885871
 30
0.0
 11
162.032928
 21
162.985192
 31
0.0
  0
LINE
  5
11DA
100
AcDbEntity
  8
10000_FRONT
370
    25
390
0
  6
CONTINUOUS
 62
     7
100
AcDbLine
 10
161.954512
 20
142.585282
 30
0.0
 11
161.993818
 21
142.685872
 31
0.0
  0
LINE
  5
11DB
100
AcDbEntity
  8
10000_FRONT
370
    25
390
0
  6
CONTINUOUS
 62
     7
100
AcDbLine
 10
161.954512
 20
152.685282
 30
0.0
 11
161.993818
 21
152.785872
 31
0.0
  0
LINE
  5
11DC
100
AcDbEntity
  8
10000_FRONT
370
    25
390
0
  6
CONTINUOUS
 62
     7
100
AcDbLine
 10
161.954512
 20
162.785281
 30
0.0
 11
161.993818
 21
162.885871
 31
0.0
  0
LINE
  5
11DD
100
AcDbEntity
  8
10000_FRONT
370
    25
390
0
  6
CONTINUOUS
 62
     7
100
AcDbLine
 10
162.032928
 20
142.785193
 30
0.0
 11
162.071225
 21
142.883848
 31
0.0
  0
LINE
  5
11DE
100
AcDbEntity
  8
10000_FRONT
370
    25
390
0
  6
CONTINUOUS
 62
     7
100
AcDbLine
 10
162.032928
 20
152.885193
 30
0.0
 11
162.071225
 21
152.983848
 31
0.0
  0
LINE
  5
11DF
100
AcDbEntity
  8
10000_FRONT
370
    25
390
0
  6
CONTINUOUS
 62
     7
100
AcDbLine
 10
162.032928
 20
162.985192
 30
0.0
 11
162.071225
 21
163.083848
 31
0.0
  0
LINE
  5
11E0
100
AcDbEntity
  8
10000_FRONT
370
    25
390
0
  6
CONTINUOUS
 62
     7
100
AcDbLine
 10
161.915575
 20
142.482856
 30
0.0
 11
161.954512
 21
142.585282
 31
0.0
  0
LINE
  5
11E1
100
AcDbEntity
  8
10000_FRONT
370
    25
390
0
  6
CONTINUOUS
 62
     7
100
AcDbLine
 10
161.915575
 20
162.682855
 30
0.0
 11
161.954512
 21
162.785281
 31
0.0
  0
LINE
  5
11E2
100
AcDbEntity
  8
10000_FRONT
370
    25
390
0
  6
CONTINUOUS
 62
     7
100
AcDbLine
 10
161.915575
 20
152.582855
 30
0.0
 11
161.954512
 21
152.685282
 31
0.0
  0
LINE
  5
11E3
100
AcDbEntity
  8
10000_FRONT
370
    25
390
0
  6
CONTINUOUS
 62
     7
100
AcDbLine
 10
162.071225
 20
142.883848
 30
0.0
 11
162.108092
 21
142.982439
 31
0.0
  0
LINE
  5
11E4
100
AcDbEntity
  8
10000_FRONT
370
    25
390
0
  6
CONTINUOUS
 62
     7
100
AcDbLine
 10
162.071225
 20
163.083848
 30
0.0
 11
162.108092
 21
163.182439
 31
0.0
  0
LINE
  5
11E5
100
AcDbEntity
  8
10000_FRONT
370
    25
390
0
  6
CONTINUOUS
 62
     7
100
AcDbLine
 10
162.071225
 20
152.983848
 30
0.0
 11
162.108092
 21
153.08244
 31
0.0
  0
LINE
  5
11E6
100
AcDbEntity
  8
10000_FRONT
370
    25
390
0
  6
CONTINUOUS
 62
     7
100
AcDbLine
 10
161.877015
 20
152.478577
 30
0.0
 11
161.915575
 21
152.582855
 31
0.0
  0
LINE
  5
11E7
100
AcDbEntity
  8
10000_FRONT
370
    25
390
0
  6
CONTINUOUS
 62
     7
100
AcDbLine
 10
161.877015
 20
142.378577
 30
0.0
 11
161.915575
 21
142.482856
 31
0.0
  0
LINE
  5
11E8
100
AcDbEntity
  8
10000_FRONT
370
    25
390
0
  6
CONTINUOUS
 62
     7
100
AcDbLine
 10
161.877015
 20
162.578576
 30
0.0
 11
161.915575
 21
162.682855
 31
0.0
  0
LINE
  5
11E9
100
AcDbEntity
  8
10000_FRONT
370
    25
390
0
  6
CONTINUOUS
 62
     7
100
AcDbLine
 10
161.838734
 20
142.272801
 30
0.0
 11
161.877015
 21
142.378577
 31
0.0
  0
LINE
  5
11EA
100
AcDbEntity
  8
10000_FRONT
370
    25
390
0
  6
CONTINUOUS
 62
     7
100
AcDbLine
 10
161.838734
 20
152.372801
 30
0.0
 11
161.877015
 21
152.478577
 31
0.0
  0
LINE
  5
11EB
100
AcDbEntity
  8
10000_FRONT
370
    25
390
0
  6
CONTINUOUS
 62
     7
100
AcDbLine
 10
161.838734
 20
162.4728
 30
0.0
 11
161.877015
 21
162.578576
 31
0.0
  0
LINE
  5
11EC
100
AcDbEntity
  8
10000_FRONT
370
    25
390
0
  6
CONTINUOUS
 62
     7
100
AcDbLine
 10
162.624909
 20
143.0027
 30
0.0
 11
162.667577
 21
143.122443
 31
0.0
  0
LINE
  5
11ED
100
AcDbEntity
  8
10000_FRONT
370
    25
390
0
  6
CONTINUOUS
 62
     7
100
AcDbLine
 10
162.624909
 20
153.102699
 30
0.0
 11
162.667577
 21
153.222444
 31
0.0
  0
LINE
  5
11EE
100
AcDbEntity
  8
10000_FRONT
370
    25
390
0
  6
CONTINUOUS
 62
     7
100
AcDbLine
 10
162.624909
 20
163.202699
 30
0.0
 11
162.667577
 21
163.322444
 31
0.0
  0
LINE
  5
11EF
100
AcDbEntity
  8
10000_FRONT
370
    25
390
0
  6
CONTINUOUS
 62
     7
100
AcDbLine
 10
161.800675
 20
152.265879
 30
0.0
 11
161.838734
 21
152.372801
 31
0.0
  0
LINE
  5
11F0
100
AcDbEntity
  8
10000_FRONT
370
    25
390
0
  6
CONTINUOUS
 62
     7
100
AcDbLine
 10
161.800675
 20
162.365878
 30
0.0
 11
161.838734
 21
162.4728
 31
0.0
  0
LINE
  5
11F1
100
AcDbEntity
  8
10000_FRONT
370
    25
390
0
  6
CONTINUOUS
 62
     7
100
AcDbLine
 10
161.800675
 20
142.165878
 30
0.0
 11
161.838734
 21
142.272801
 31
0.0
  0
LINE
  5
11F2
100
AcDbEntity
  8
10000_FRONT
370
    25
390
0
  6
CONTINUOUS
 62
     7
100
AcDbLine
 10
161.762783
 20
142.058161
 30
0.0
 11
161.800675
 21
142.165878
 31
0.0
  0
LINE
  5
11F3
100
AcDbEntity
  8
10000_FRONT
370
    25
390
0
  6
CONTINUOUS
 62
     7
100
AcDbLine
 10
161.762783
 20
162.258161
 30
0.0
 11
161.800675
 21
162.365878
 31
0.0
  0
LINE
  5
11F4
100
AcDbEntity
  8
10000_FRONT
370
    25
390
0
  6
CONTINUOUS
 62
     7
100
AcDbLine
 10
161.762783
 20
152.158161
 30
0.0
 11
161.800675
 21
152.265879
 31
0.0
  0
LINE
  5
11F5
100
AcDbEntity
  8
10000_FRONT
370
    25
390
0
  6
CONTINUOUS
 62
     7
100
AcDbLine
 10
162.108092
 20
153.08244
 30
0.0
 11
162.142912
 21
153.181568
 31
0.0
  0
LINE
  5
11F6
100
AcDbEntity
  8
10000_FRONT
370
    25
390
0
  6
CONTINUOUS
 62
     7
100
AcDbLine
 10
162.108092
 20
163.182439
 30
0.0
 11
162.142912
 21
163.281568
 31
0.0
  0
LINE
  5
11F7
100
AcDbEntity
  8
10000_FRONT
370
    25
390
0
  6
CONTINUOUS
 62
     7
100
AcDbLine
 10
162.108092
 20
142.982439
 30
0.0
 11
162.142912
 21
143.081569
 31
0.0
  0
LINE
  5
11F8
100
AcDbEntity
  8
10000_FRONT
370
    25
390
0
  6
CONTINUOUS
 62
     7
100
AcDbLine
 10
161.725
 20
162.150001
 30
0.0
 11
161.762783
 21
162.258161
 31
0.0
  0
LINE
  5
11F9
100
AcDbEntity
  8
10000_FRONT
370
    25
390
0
  6
CONTINUOUS
 62
     7
100
AcDbLine
 10
161.725
 20
141.95
 30
0.0
 11
161.762783
 21
142.058161
 31
0.0
  0
LINE
  5
11FA
100
AcDbEntity
  8
10000_FRONT
370
    25
390
0
  6
CONTINUOUS
 62
     7
100
AcDbLine
 10
161.725
 20
152.05
 30
0.0
 11
161.762783
 21
152.158161
 31
0.0
  0
LINE
  5
11FB
100
AcDbEntity
  8
10000_FRONT
370
    25
390
0
  6
CONTINUOUS
 62
     7
100
AcDbLine
 10
162.142912
 20
143.081569
 30
0.0
 11
162.174634
 21
143.182372
 31
0.0
  0
LINE
  5
11FC
100
AcDbEntity
  8
10000_FRONT
370
    25
390
0
  6
CONTINUOUS
 62
     7
100
AcDbLine
 10
162.142912
 20
163.281568
 30
0.0
 11
162.174634
 21
163.382371
 31
0.0
  0
LINE
  5
11FD
100
AcDbEntity
  8
10000_FRONT
370
    25
390
0
  6
CONTINUOUS
 62
     7
100
AcDbLine
 10
162.142912
 20
153.181568
 30
0.0
 11
162.174634
 21
153.282372
 31
0.0
  0
LINE
  5
11FE
100
AcDbEntity
  8
10000_FRONT
370
    25
390
0
  6
CONTINUOUS
 62
     7
100
AcDbLine
 10
162.667577
 20
153.222444
 30
0.0
 11
162.699097
 21
153.345689
 31
0.0
  0
LINE
  5
11FF
100
AcDbEntity
  8
10000_FRONT
370
    25
390
0
  6
CONTINUOUS
 62
     7
100
AcDbLine
 10
162.667577
 20
163.322444
 30
0.0
 11
162.699097
 21
163.445689
 31
0.0
  0
LINE
  5
1200
100
AcDbEntity
  8
10000_FRONT
370
    25
390
0
  6
CONTINUOUS
 62
     7
100
AcDbLine
 10
162.667577
 20
143.122443
 30
0.0
 11
162.699097
 21
143.245689
 31
0.0
  0
LINE
  5
1201
100
AcDbEntity
  8
10000_FRONT
370
    25
390
0
  6
CONTINUOUS
 62
     7
100
AcDbLine
 10
162.174634
 20
143.182372
 30
0.0
 11
162.200752
 21
143.285588
 31
0.0
  0
LINE
  5
1202
100
AcDbEntity
  8
10000_FRONT
370
    25
390
0
  6
CONTINUOUS
 62
     7
100
AcDbLine
 10
162.174634
 20
153.282372
 30
0.0
 11
162.200752
 21
153.385589
 31
0.0
  0
LINE
  5
1203
100
AcDbEntity
  8
10000_FRONT
370
    25
390
0
  6
CONTINUOUS
 62
     7
100
AcDbLine
 10
162.174634
 20
163.382371
 30
0.0
 11
162.200752
 21
163.485589
 31
0.0
  0
LINE
  5
1204
100
AcDbEntity
  8
10000_FRONT
370
    25
390
0
  6
CONTINUOUS
 62
     7
100
AcDbLine
 10
162.200752
 20
163.485589
 30
0.0
 11
162.218472
 21
163.591201
 31
0.0
  0
LINE
  5
1205
100
AcDbEntity
  8
10000_FRONT
370
    25
390
0
  6
CONTINUOUS
 62
     7
100
AcDbLine
 10
162.200752
 20
153.385589
 30
0.0
 11
162.218472
 21
153.491202
 31
0.0
  0
LINE
  5
1206
100
AcDbEntity
  8
10000_FRONT
370
    25
390
0
  6
CONTINUOUS
 62
     7
100
AcDbLine
 10
162.200752
 20
143.285588
 30
0.0
 11
162.218472
 21
143.391202
 31
0.0
  0
LINE
  5
1207
100
AcDbEntity
  8
10000_FRONT
370
    25
390
0
  6
CONTINUOUS
 62
     7
100
AcDbLine
 10
162.699097
 20
153.345689
 30
0.0
 11
162.718435
 21
153.471857
 31
0.0
  0
LINE
  5
1208
100
AcDbEntity
  8
10000_FRONT
370
    25
390
0
  6
CONTINUOUS
 62
     7
100
AcDbLine
 10
162.699097
 20
163.445689
 30
0.0
 11
162.718435
 21
163.571857
 31
0.0
  0
LINE
  5
1209
100
AcDbEntity
  8
10000_FRONT
370
    25
390
0
  6
CONTINUOUS
 62
     7
100
AcDbLine
 10
162.699097
 20
143.245689
 30
0.0
 11
162.718435
 21
143.371858
 31
0.0
  0
LINE
  5
120A
100
AcDbEntity
  8
10000_FRONT
370
    25
390
0
  6
CONTINUOUS
 62
     7
100
AcDbLine
 10
162.218472
 20
143.391202
 30
0.0
 11
162.225
 21
143.499193
 31
0.0
  0
LINE
  5
120B
100
AcDbEntity
  8
10000_FRONT
370
    25
390
0
  6
CONTINUOUS
 62
     7
100
AcDbLine
 10
162.218472
 20
153.491202
 30
0.0
 11
162.225
 21
153.599194
 31
0.0
  0
LINE
  5
120C
100
AcDbEntity
  8
10000_FRONT
370
    25
390
0
  6
CONTINUOUS
 62
     7
100
AcDbLine
 10
162.218472
 20
163.591201
 30
0.0
 11
162.225
 21
163.699193
 31
0.0
  0
LINE
  5
120D
100
AcDbEntity
  8
10000_FRONT
370
    25
390
0
  6
CONTINUOUS
 62
     7
100
AcDbLine
 10
162.718435
 20
143.371858
 30
0.0
 11
162.725
 21
143.499193
 31
0.0
  0
LINE
  5
120E
100
AcDbEntity
  8
10000_FRONT
370
    25
390
0
  6
CONTINUOUS
 62
     7
100
AcDbLine
 10
162.718435
 20
163.571857
 30
0.0
 11
162.725
 21
163.699193
 31
0.0
  0
LINE
  5
120F
100
AcDbEntity
  8
10000_FRONT
370
    25
390
0
  6
CONTINUOUS
 62
     7
100
AcDbLine
 10
162.718435
 20
153.471857
 30
0.0
 11
162.725
 21
153.599194
 31
0.0
  0
LINE
  5
1210
100
AcDbEntity
  8
10000_FRONT
370
    25
390
0
  6
CONTINUOUS
 62
     7
100
AcDbLine
 10
158.0
 20
140.65
 30
0.0
 11
158.0
 21
200.249999
 31
0.0
  0
LINE
  5
1211
100
AcDbEntity
  8
10000_FRONT
370
    25
390
0
  6
CONTINUOUS
 62
     7
100
AcDbLine
 10
158.2
 20
142.55
 30
0.0
 11
158.2
 21
200.45
 31
0.0
  0
LINE
  5
1212
100
AcDbEntity
  8
10000_FRONT
370
    25
390
0
  6
CONTINUOUS
 62
     7
100
AcDbLine
 10
158.8
 20
196.749999
 30
0.0
 11
158.8
 21
200.45
 31
0.0
  0
LINE
  5
1213
100
AcDbEntity
  8
10000_FRONT
370
    25
390
0
  6
CONTINUOUS
 62
     7
100
AcDbLine
 10
158.8
 20
186.850002
 30
0.0
 11
158.8
 21
187.350002
 31
0.0
  0
LINE
  5
1214
100
AcDbEntity
  8
10000_FRONT
370
    25
390
0
  6
CONTINUOUS
 62
     7
100
AcDbLine
 10
158.8
 20
179.864215
 30
0.0
 11
158.8
 21
181.278426
 31
0.0
  0
LINE
  5
1215
100
AcDbEntity
  8
10000_FRONT
370
    25
390
0
  6
CONTINUOUS
 62
     7
100
AcDbLine
 10
158.8
 20
140.45
 30
0.0
 11
158.8
 21
142.55
 31
0.0
  0
LINE
  5
1216
100
AcDbEntity
  8
10000_FRONT
370
    25
390
0
  6
CONTINUOUS
 62
     7
100
AcDbLine
 10
158.8
 20
171.908578
 30
0.0
 11
158.8
 21
179.864215
 31
0.0
  0
LINE
  5
1217
100
AcDbEntity
  8
10000_FRONT
370
    25
390
0
  6
CONTINUOUS
 62
     7
100
AcDbLine
 10
158.8
 20
171.767158
 30
0.0
 11
158.8
 21
171.908578
 31
0.0
  0
LINE
  5
1218
100
AcDbEntity
  8
10000_FRONT
370
    25
390
0
  6
CONTINUOUS
 62
     7
100
AcDbLine
 10
158.8
 20
142.55
 30
0.0
 11
158.8
 21
171.767158
 31
0.0
  0
LINE
  5
1219
100
AcDbEntity
  8
10000_FRONT
370
    25
390
0
  6
CONTINUOUS
 62
     7
100
AcDbLine
 10
158.825
 20
143.499193
 30
0.0
 11
158.825
 21
146.25
 31
0.0
  0
LINE
  5
121A
100
AcDbEntity
  8
10000_FRONT
370
    25
390
0
  6
CONTINUOUS
 62
     7
100
AcDbLine
 10
158.825
 20
153.599194
 30
0.0
 11
158.825
 21
156.35
 31
0.0
  0
LINE
  5
121B
100
AcDbEntity
  8
10000_FRONT
370
    25
390
0
  6
CONTINUOUS
 62
     7
100
AcDbLine
 10
158.825
 20
163.699193
 30
0.0
 11
158.825
 21
166.45
 31
0.0
  0
LINE
  5
121C
100
AcDbEntity
  8
10000_FRONT
370
    25
390
0
  6
CONTINUOUS
 62
     7
100
AcDbLine
 10
159.15
 20
198.249999
 30
0.0
 11
159.15
 21
202.150001
 31
0.0
  0
LINE
  5
121D
100
AcDbEntity
  8
10000_FRONT
370
    25
390
0
  6
CONTINUOUS
 62
     7
100
AcDbLine
 10
159.325
 20
141.95
 30
0.0
 11
159.325
 21
143.15
 31
0.0
  0
LINE
  5
121E
100
AcDbEntity
  8
10000_FRONT
370
    25
390
0
  6
CONTINUOUS
 62
     7
100
AcDbLine
 10
159.325
 20
146.75
 30
0.0
 11
159.325
 21
147.25
 31
0.0
  0
LINE
  5
121F
100
AcDbEntity
  8
10000_FRONT
370
    25
390
0
  6
CONTINUOUS
 62
     7
100
AcDbLine
 10
159.325
 20
156.85
 30
0.0
 11
159.325
 21
157.35
 31
0.0
  0
LINE
  5
1220
100
AcDbEntity
  8
10000_FRONT
370
    25
390
0
  6
CONTINUOUS
 62
     7
100
AcDbLine
 10
159.325
 20
152.05
 30
0.0
 11
159.325
 21
153.25
 31
0.0
  0
LINE
  5
1221
100
AcDbEntity
  8
10000_FRONT
370
    25
390
0
  6
CONTINUOUS
 62
     7
100
AcDbLine
 10
159.325
 20
166.95
 30
0.0
 11
159.325
 21
167.45
 31
0.0
  0
LINE
  5
1222
100
AcDbEntity
  8
10000_FRONT
370
    25
390
0
  6
CONTINUOUS
 62
     7
100
AcDbLine
 10
159.325
 20
162.150001
 30
0.0
 11
159.325
 21
163.35
 31
0.0
  0
LINE
  5
1223
100
AcDbEntity
  8
10000_FRONT
370
    25
390
0
  6
CONTINUOUS
 62
     7
100
AcDbLine
 10
159.975
 20
137.5
 30
0.0
 11
159.975
 21
140.45
 31
0.0
  0
LINE
  5
1224
100
AcDbEntity
  8
10000_FRONT
370
    25
390
0
  6
CONTINUOUS
 62
     7
100
AcDbLine
 10
160.525
 20
147.55
 30
0.0
 11
160.525
 21
148.05
 31
0.0
  0
LINE
  5
1225
100
AcDbEntity
  8
10000_FRONT
370
    25
390
0
  6
CONTINUOUS
 62
     7
100
AcDbLine
 10
160.525
 20
157.650001
 30
0.0
 11
160.525
 21
158.150001
 31
0.0
  0
LINE
  5
1226
100
AcDbEntity
  8
10000_FRONT
370
    25
390
0
  6
CONTINUOUS
 62
     7
100
AcDbLine
 10
160.525
 20
167.749999
 30
0.0
 11
160.525
 21
168.249999
 31
0.0
  0
LINE
  5
1227
100
AcDbEntity
  8
10000_FRONT
370
    25
390
0
  6
CONTINUOUS
 62
     7
100
AcDbLine
 10
161.725
 20
141.95
 30
0.0
 11
161.725
 21
143.15
 31
0.0
  0
LINE
  5
1228
100
AcDbEntity
  8
10000_FRONT
370
    25
390
0
  6
CONTINUOUS
 62
     7
100
AcDbLine
 10
161.725
 20
146.75
 30
0.0
 11
161.725
 21
147.25
 31
0.0
  0
LINE
  5
1229
100
AcDbEntity
  8
10000_FRONT
370
    25
390
0
  6
CONTINUOUS
 62
     7
100
AcDbLine
 10
161.725
 20
156.85
 30
0.0
 11
161.725
 21
157.35
 31
0.0
  0
LINE
  5
122A
100
AcDbEntity
  8
10000_FRONT
370
    25
390
0
  6
CONTINUOUS
 62
     7
100
AcDbLine
 10
161.725
 20
152.05
 30
0.0
 11
161.725
 21
153.25
 31
0.0
  0
LINE
  5
122B
100
AcDbEntity
  8
10000_FRONT
370
    25
390
0
  6
CONTINUOUS
 62
     7
100
AcDbLine
 10
161.725
 20
166.95
 30
0.0
 11
161.725
 21
167.45
 31
0.0
  0
LINE
  5
122C
100
AcDbEntity
  8
10000_FRONT
370
    25
390
0
  6
CONTINUOUS
 62
     7
100
AcDbLine
 10
161.725
 20
162.150001
 30
0.0
 11
161.725
 21
163.35
 31
0.0
  0
LINE
  5
122D
100
AcDbEntity
  8
10000_FRONT
370
    25
390
0
  6
CONTINUOUS
 62
     7
100
AcDbLine
 10
162.225
 20
143.499193
 30
0.0
 11
162.225
 21
146.25
 31
0.0
  0
LINE
  5
122E
100
AcDbEntity
  8
10000_FRONT
370
    25
390
0
  6
CONTINUOUS
 62
     7
100
AcDbLine
 10
162.225
 20
153.599194
 30
0.0
 11
162.225
 21
156.35
 31
0.0
  0
LINE
  5
122F
100
AcDbEntity
  8
10000_FRONT
370
    25
390
0
  6
CONTINUOUS
 62
     7
100
AcDbLine
 10
162.225
 20
163.699193
 30
0.0
 11
162.225
 21
166.45
 31
0.0
  0
LINE
  5
1230
100
AcDbEntity
  8
10000_FRONT
370
    25
390
0
  6
CONTINUOUS
 62
     7
100
AcDbLine
 10
162.725
 20
143.499193
 30
0.0
 11
162.725
 21
146.25
 31
0.0
  0
LINE
  5
1231
100
AcDbEntity
  8
10000_FRONT
370
    25
390
0
  6
CONTINUOUS
 62
     7
100
AcDbLine
 10
162.725
 20
163.699193
 30
0.0
 11
162.725
 21
166.45
 31
0.0
  0
LINE
  5
1232
100
AcDbEntity
  8
10000_FRONT
370
    25
390
0
  6
CONTINUOUS
 62
     7
100
AcDbLine
 10
162.725
 20
153.599194
 30
0.0
 11
162.725
 21
156.35
 31
0.0
  0
LINE
  5
1233
100
AcDbEntity
  8
10000_FRONT
370
    25
390
0
  6
CONTINUOUS
 62
     7
100
AcDbLine
 10
162.835
 20
142.640714
 30
0.0
 11
162.835
 21
144.219286
 31
0.0
  0
LINE
  5
1234
100
AcDbEntity
  8
10000_FRONT
370
    25
390
0
  6
CONTINUOUS
 62
     7
100
AcDbLine
 10
162.835
 20
152.740714
 30
0.0
 11
162.835
 21
154.319286
 31
0.0
  0
LINE
  5
1235
100
AcDbEntity
  8
10000_FRONT
370
    25
390
0
  6
CONTINUOUS
 62
     7
100
AcDbLine
 10
162.925
 20
137.5
 30
0.0
 11
162.925
 21
140.45
 31
0.0
  0
LINE
  5
1236
100
AcDbEntity
  8
10000_FRONT
370
    25
390
0
  6
CONTINUOUS
 62
     7
100
AcDbLine
 10
163.075
 20
142.640714
 30
0.0
 11
163.075
 21
143.644107
 31
0.0
  0
LINE
  5
1237
100
AcDbEntity
  8
10000_FRONT
370
    25
390
0
  6
CONTINUOUS
 62
     7
100
AcDbLine
 10
163.075
 20
152.740714
 30
0.0
 11
163.075
 21
153.744107
 31
0.0
  0
LINE
  5
1238
100
AcDbEntity
  8
10000_FRONT
370
    25
390
0
  6
CONTINUOUS
 62
     7
100
AcDbLine
 10
163.335
 20
163.159999
 30
0.0
 11
163.335
 21
164.12
 31
0.0
  0
LINE
  5
1239
100
AcDbEntity
  8
10000_FRONT
370
    25
390
0
  6
CONTINUOUS
 62
     7
100
AcDbLine
 10
163.475
 20
143.235893
 30
0.0
 11
163.475
 21
144.24
 31
0.0
  0
LINE
  5
123A
100
AcDbEntity
  8
10000_FRONT
370
    25
390
0
  6
CONTINUOUS
 62
     7
100
AcDbLine
 10
163.475
 20
153.335893
 30
0.0
 11
163.475
 21
154.34
 31
0.0
  0
LINE
  5
123B
100
AcDbEntity
  8
10000_FRONT
370
    25
390
0
  6
CONTINUOUS
 62
     7
100
AcDbLine
 10
163.575
 20
163.159999
 30
0.0
 11
163.575
 21
164.12
 31
0.0
  0
LINE
  5
123C
100
AcDbEntity
  8
10000_FRONT
370
    25
390
0
  6
CONTINUOUS
 62
     7
100
AcDbLine
 10
163.655
 20
165.560001
 30
0.0
 11
163.655
 21
166.952153
 31
0.0
  0
LINE
  5
123D
100
AcDbEntity
  8
10000_FRONT
370
    25
390
0
  6
CONTINUOUS
 62
     7
100
AcDbLine
 10
163.675444
 20
155.46
 30
0.0
 11
163.675444
 21
155.9
 31
0.0
  0
LINE
  5
123E
100
AcDbEntity
  8
10000_FRONT
370
    25
390
0
  6
CONTINUOUS
 62
     7
100
AcDbLine
 10
163.675444
 20
156.14
 30
0.0
 11
163.675444
 21
156.612153
 31
0.0
  0
LINE
  5
123F
100
AcDbEntity
  8
10000_FRONT
370
    25
390
0
  6
CONTINUOUS
 62
     7
100
AcDbLine
 10
163.715
 20
142.660714
 30
0.0
 11
163.715
 21
144.24
 31
0.0
  0
LINE
  5
1240
100
AcDbEntity
  8
10000_FRONT
370
    25
390
0
  6
CONTINUOUS
 62
     7
100
AcDbLine
 10
163.715
 20
152.760714
 30
0.0
 11
163.715
 21
154.34
 31
0.0
  0
LINE
  5
1241
100
AcDbEntity
  8
10000_FRONT
370
    25
390
0
  6
CONTINUOUS
 62
     7
100
AcDbLine
 10
163.75
 20
198.249999
 30
0.0
 11
163.75
 21
201.249999
 31
0.0
  0
LINE
  5
1242
100
AcDbEntity
  8
10000_FRONT
370
    25
390
0
  6
CONTINUOUS
 62
     7
100
AcDbLine
 10
163.75
 20
202.064716
 30
0.0
 11
163.75
 21
202.150001
 31
0.0
  0
LINE
  5
1243
100
AcDbEntity
  8
10000_FRONT
370
    25
390
0
  6
CONTINUOUS
 62
     7
100
AcDbLine
 10
163.75
 20
201.260001
 30
0.0
 11
163.75
 21
202.064716
 31
0.0
  0
LINE
  5
1244
100
AcDbEntity
  8
10000_FRONT
370
    25
390
0
  6
CONTINUOUS
 62
     7
100
AcDbLine
 10
163.75
 20
201.250003
 30
0.0
 11
163.75
 21
201.260001
 31
0.0
  0
LINE
  5
1245
100
AcDbEntity
  8
10000_FRONT
370
    25
390
0
  6
CONTINUOUS
 62
     7
100
AcDbLine
 10
163.8
 20
196.749999
 30
0.0
 11
163.8
 21
198.249999
 31
0.0
  0
LINE
  5
1246
100
AcDbEntity
  8
10000_FRONT
370
    25
390
0
  6
CONTINUOUS
 62
     7
100
AcDbLine
 10
163.835
 20
142.96
 30
0.0
 11
163.835
 21
143.92
 31
0.0
  0
LINE
  5
1247
100
AcDbEntity
  8
10000_FRONT
370
    25
390
0
  6
CONTINUOUS
 62
     7
100
AcDbLine
 10
163.835
 20
153.06
 30
0.0
 11
163.835
 21
154.039297
 31
0.0
  0
LINE
  5
1248
100
AcDbEntity
  8
10000_FRONT
370
    25
390
0
  6
CONTINUOUS
 62
     7
100
AcDbLine
 10
163.895
 20
165.560001
 30
0.0
 11
163.895
 21
167.159999
 31
0.0
  0
LINE
  5
1249
100
AcDbEntity
  8
10000_FRONT
370
    25
390
0
  6
CONTINUOUS
 62
     7
100
AcDbLine
 10
163.915444
 20
155.46
 30
0.0
 11
163.915444
 21
155.9
 31
0.0
  0
LINE
  5
124A
100
AcDbEntity
  8
10000_FRONT
370
    25
390
0
  6
CONTINUOUS
 62
     7
100
AcDbLine
 10
163.915444
 20
156.14
 30
0.0
 11
163.915444
 21
157.060001
 31
0.0
  0
LINE
  5
124B
100
AcDbEntity
  8
10000_FRONT
370
    25
390
0
  6
CONTINUOUS
 62
     7
100
AcDbLine
 10
164.075
 20
142.96
 30
0.0
 11
164.075
 21
143.92
 31
0.0
  0
LINE
  5
124C
100
AcDbEntity
  8
10000_FRONT
370
    25
390
0
  6
CONTINUOUS
 62
     7
100
AcDbLine
 10
164.075
 20
153.06
 30
0.0
 11
164.075
 21
154.039297
 31
0.0
  0
LINE
  5
124D
100
AcDbEntity
  8
10000_FRONT
370
    25
390
0
  6
CONTINUOUS
 62
     7
100
AcDbLine
 10
164.15
 20
186.850002
 30
0.0
 11
164.15
 21
187.049998
 31
0.0
  0
LINE
  5
124E
100
AcDbEntity
  8
10000_FRONT
370
    25
390
0
  6
CONTINUOUS
 62
     7
100
AcDbLine
 10
164.15
 20
172.4222
 30
0.0
 11
164.15
 21
172.467159
 31
0.0
  0
LINE
  5
124F
100
AcDbEntity
  8
10000_FRONT
370
    25
390
0
  6
CONTINUOUS
 62
     7
100
AcDbLine
 10
164.15
 20
172.467159
 30
0.0
 11
164.15
 21
172.608577
 31
0.0
  0
LINE
  5
1250
100
AcDbEntity
  8
10000_FRONT
370
    25
390
0
  6
CONTINUOUS
 62
     7
100
AcDbLine
 10
164.15
 20
172.608577
 30
0.0
 11
164.15
 21
176.464214
 31
0.0
  0
LINE
  5
1251
100
AcDbEntity
  8
10000_FRONT
370
    25
390
0
  6
CONTINUOUS
 62
     7
100
AcDbLine
 10
164.15
 20
176.471248
 30
0.0
 11
164.15
 21
176.472427
 31
0.0
  0
LINE
  5
1252
100
AcDbEntity
  8
10000_FRONT
370
    25
390
0
  6
CONTINUOUS
 62
     7
100
AcDbLine
 10
164.15
 20
176.470073
 30
0.0
 11
164.15
 21
176.471248
 31
0.0
  0
LINE
  5
1253
100
AcDbEntity
  8
10000_FRONT
370
    25
390
0
  6
CONTINUOUS
 62
     7
100
AcDbLine
 10
164.15
 20
176.468894
 30
0.0
 11
164.15
 21
176.470073
 31
0.0
  0
LINE
  5
1254
100
AcDbEntity
  8
10000_FRONT
370
    25
390
0
  6
CONTINUOUS
 62
     7
100
AcDbLine
 10
164.15
 20
176.467715
 30
0.0
 11
164.15
 21
176.468894
 31
0.0
  0
LINE
  5
1255
100
AcDbEntity
  8
10000_FRONT
370
    25
390
0
  6
CONTINUOUS
 62
     7
100
AcDbLine
 10
164.15
 20
176.466544
 30
0.0
 11
164.15
 21
176.467715
 31
0.0
  0
LINE
  5
1256
100
AcDbEntity
  8
10000_FRONT
370
    25
390
0
  6
CONTINUOUS
 62
     7
100
AcDbLine
 10
164.15
 20
176.465377
 30
0.0
 11
164.15
 21
176.466544
 31
0.0
  0
LINE
  5
1257
100
AcDbEntity
  8
10000_FRONT
370
    25
390
0
  6
CONTINUOUS
 62
     7
100
AcDbLine
 10
164.15
 20
176.464206
 30
0.0
 11
164.15
 21
176.465377
 31
0.0
  0
LINE
  5
1258
100
AcDbEntity
  8
10000_FRONT
370
    25
390
0
  6
CONTINUOUS
 62
     7
100
AcDbLine
 10
164.475
 20
153.06
 30
0.0
 11
164.475
 21
154.039297
 31
0.0
  0
LINE
  5
1259
100
AcDbEntity
  8
10000_FRONT
370
    25
390
0
  6
CONTINUOUS
 62
     7
100
AcDbLine
 10
164.715
 20
153.06
 30
0.0
 11
164.715
 21
154.039297
 31
0.0
  0
LINE
  5
125A
100
AcDbEntity
  8
10000_FRONT
370
    25
390
0
  6
CONTINUOUS
 62
     7
100
AcDbLine
 10
164.8
 20
187.049998
 30
0.0
 11
164.8
 21
196.95
 31
0.0
  0
LINE
  5
125B
100
AcDbEntity
  8
10000_FRONT
370
    25
390
0
  6
CONTINUOUS
 62
     7
100
AcDbLine
 10
165.0
 20
140.45
 30
0.0
 11
165.0
 21
196.749999
 31
0.0
  0
ARC
  5
125C
100
AcDbEntity
  8
10000_FRONT
370
    25
390
0
  6
CONTINUOUS
 62
     7
100
AcDbCircle
 10
158.2
 20
140.65
 30
0.0
 40
0.2
100
AcDbArc
 50
180.0
 51
269.999973
  0
POLYLINE
  5
125D
100
AcDbEntity
  8
10000_FRONT
370
    25
390
0
  6
CONTINUOUS
 62
     7
100
AcDb2dPolyline
 66
     1
 10
0.0
 20
0.0
 30
0.0
  0
VERTEX
  5
125E
100
AcDbEntity
  8
10000_FRONT
370
    25
390
0
  6
CONTINUOUS
 62
     7
100
AcDbVertex
100
AcDb2dVertex
 10
158.2
 20
142.55
 30
0.0
  0
VERTEX
  5
125F
100
AcDbEntity
  8
10000_FRONT
370
    25
390
0
  6
CONTINUOUS
 62
     7
100
AcDbVertex
100
AcDb2dVertex
 10
158.160982
 20
142.547781
 30
0.0
  0
VERTEX
  5
1260
100
AcDbEntity
  8
10000_FRONT
370
    25
390
0
  6
CONTINUOUS
 62
     7
100
AcDbVertex
100
AcDb2dVertex
 10
158.123463
 20
142.54121
 30
0.0
  0
VERTEX
  5
1261
100
AcDbEntity
  8
10000_FRONT
370
    25
390
0
  6
CONTINUOUS
 62
     7
100
AcDbVertex
100
AcDb2dVertex
 10
158.088886
 20
142.53054
 30
0.0
  0
VERTEX
  5
1262
100
AcDbEntity
  8
10000_FRONT
370
    25
390
0
  6
CONTINUOUS
 62
     7
100
AcDbVertex
100
AcDb2dVertex
 10
158.058579
 20
142.51618
 30
0.0
  0
VERTEX
  5
1263
100
AcDbEntity
  8
10000_FRONT
370
    25
390
0
  6
CONTINUOUS
 62
     7
100
AcDbVertex
100
AcDb2dVertex
 10
158.033706
 20
142.498682
 30
0.0
  0
VERTEX
  5
1264
100
AcDbEntity
  8
10000_FRONT
370
    25
390
0
  6
CONTINUOUS
 62
     7
100
AcDbVertex
100
AcDb2dVertex
 10
158.015224
 20
142.478718
 30
0.0
  0
VERTEX
  5
1265
100
AcDbEntity
  8
10000_FRONT
370
    25
390
0
  6
CONTINUOUS
 62
     7
100
AcDbVertex
100
AcDb2dVertex
 10
158.003843
 20
142.457057
 30
0.0
  0
VERTEX
  5
1266
100
AcDbEntity
  8
10000_FRONT
370
    25
390
0
  6
CONTINUOUS
 62
     7
100
AcDbVertex
100
AcDb2dVertex
 10
158.0
 20
142.43453
 30
0.0
  0
SEQEND
  5
1267
100
AcDbEntity
  8
10000_FRONT
370
    25
390
0
  6
CONTINUOUS
 62
     7
  0
POLYLINE
  5
1268
100
AcDbEntity
  8
10000_FRONT
370
    25
390
0
  6
CONTINUOUS
 62
     7
100
AcDb2dPolyline
 66
     1
 10
0.0
 20
0.0
 30
0.0
  0
VERTEX
  5
1269
100
AcDbEntity
  8
10000_FRONT
370
    25
390
0
  6
CONTINUOUS
 62
     7
100
AcDbVertex
100
AcDb2dVertex
 10
158.2
 20
171.908578
 30
0.0
  0
VERTEX
  5
126A
100
AcDbEntity
  8
10000_FRONT
370
    25
390
0
  6
CONTINUOUS
 62
     7
100
AcDbVertex
100
AcDb2dVertex
 10
158.160982
 20
171.905861
 30
0.0
  0
VERTEX
  5
126B
100
AcDbEntity
  8
10000_FRONT
370
    25
390
0
  6
CONTINUOUS
 62
     7
100
AcDbVertex
100
AcDb2dVertex
 10
158.123463
 20
171.897813
 30
0.0
  0
VERTEX
  5
126C
100
AcDbEntity
  8
10000_FRONT
370
    25
390
0
  6
CONTINUOUS
 62
     7
100
AcDbVertex
100
AcDb2dVertex
 10
158.088886
 20
171.884744
 30
0.0
  0
VERTEX
  5
126D
100
AcDbEntity
  8
10000_FRONT
370
    25
390
0
  6
CONTINUOUS
 62
     7
100
AcDbVertex
100
AcDb2dVertex
 10
158.058579
 20
171.867157
 30
0.0
  0
VERTEX
  5
126E
100
AcDbEntity
  8
10000_FRONT
370
    25
390
0
  6
CONTINUOUS
 62
     7
100
AcDbVertex
100
AcDb2dVertex
 10
158.033706
 20
171.845727
 30
0.0
  0
VERTEX
  5
126F
100
AcDbEntity
  8
10000_FRONT
370
    25
390
0
  6
CONTINUOUS
 62
     7
100
AcDbVertex
100
AcDb2dVertex
 10
158.015224
 20
171.821277
 30
0.0
  0
VERTEX
  5
1270
100
AcDbEntity
  8
10000_FRONT
370
    25
390
0
  6
CONTINUOUS
 62
     7
100
AcDbVertex
100
AcDb2dVertex
 10
158.003843
 20
171.794747
 30
0.0
  0
VERTEX
  5
1271
100
AcDbEntity
  8
10000_FRONT
370
    25
390
0
  6
CONTINUOUS
 62
     7
100
AcDbVertex
100
AcDb2dVertex
 10
158.0
 20
171.767157
 30
0.0
  0
SEQEND
  5
1272
100
AcDbEntity
  8
10000_FRONT
370
    25
390
0
  6
CONTINUOUS
 62
     7
  0
POLYLINE
  5
1273
100
AcDbEntity
  8
10000_FRONT
370
    25
390
0
  6
CONTINUOUS
 62
     7
100
AcDb2dPolyline
 66
     1
 10
0.0
 20
0.0
 30
0.0
  0
VERTEX
  5
1274
100
AcDbEntity
  8
10000_FRONT
370
    25
390
0
  6
CONTINUOUS
 62
     7
100
AcDbVertex
100
AcDb2dVertex
 10
158.2
 20
179.864213
 30
0.0
  0
VERTEX
  5
1275
100
AcDbEntity
  8
10000_FRONT
370
    25
390
0
  6
CONTINUOUS
 62
     7
100
AcDbVertex
100
AcDb2dVertex
 10
158.160982
 20
179.861496
 30
0.0
  0
VERTEX
  5
1276
100
AcDbEntity
  8
10000_FRONT
370
    25
390
0
  6
CONTINUOUS
 62
     7
100
AcDbVertex
100
AcDb2dVertex
 10
158.123463
 20
179.853448
 30
0.0
  0
VERTEX
  5
1277
100
AcDbEntity
  8
10000_FRONT
370
    25
390
0
  6
CONTINUOUS
 62
     7
100
AcDbVertex
100
AcDb2dVertex
 10
158.088886
 20
179.840379
 30
0.0
  0
VERTEX
  5
1278
100
AcDbEntity
  8
10000_FRONT
370
    25
390
0
  6
CONTINUOUS
 62
     7
100
AcDbVertex
100
AcDb2dVertex
 10
158.058579
 20
179.822792
 30
0.0
  0
VERTEX
  5
1279
100
AcDbEntity
  8
10000_FRONT
370
    25
390
0
  6
CONTINUOUS
 62
     7
100
AcDbVertex
100
AcDb2dVertex
 10
158.033706
 20
179.801362
 30
0.0
  0
VERTEX
  5
127A
100
AcDbEntity
  8
10000_FRONT
370
    25
390
0
  6
CONTINUOUS
 62
     7
100
AcDbVertex
100
AcDb2dVertex
 10
158.015224
 20
179.776912
 30
0.0
  0
VERTEX
  5
127B
100
AcDbEntity
  8
10000_FRONT
370
    25
390
0
  6
CONTINUOUS
 62
     7
100
AcDbVertex
100
AcDb2dVertex
 10
158.003843
 20
179.750382
 30
0.0
  0
VERTEX
  5
127C
100
AcDbEntity
  8
10000_FRONT
370
    25
390
0
  6
CONTINUOUS
 62
     7
100
AcDbVertex
100
AcDb2dVertex
 10
158.0
 20
179.722793
 30
0.0
  0
SEQEND
  5
127D
100
AcDbEntity
  8
10000_FRONT
370
    25
390
0
  6
CONTINUOUS
 62
     7
  0
POLYLINE
  5
127E
100
AcDbEntity
  8
10000_FRONT
370
    25
390
0
  6
CONTINUOUS
 62
     7
100
AcDb2dPolyline
 66
     1
 10
0.0
 20
0.0
 30
0.0
  0
VERTEX
  5
127F
100
AcDbEntity
  8
10000_FRONT
370
    25
390
0
  6
CONTINUOUS
 62
     7
100
AcDbVertex
100
AcDb2dVertex
 10
158.2
 20
196.949489
 30
0.0
  0
VERTEX
  5
1280
100
AcDbEntity
  8
10000_FRONT
370
    25
390
0
  6
CONTINUOUS
 62
     7
100
AcDbVertex
100
AcDb2dVertex
 10
158.160982
 20
196.945656
 30
0.0
  0
VERTEX
  5
1281
100
AcDbEntity
  8
10000_FRONT
370
    25
390
0
  6
CONTINUOUS
 62
     7
100
AcDbVertex
100
AcDb2dVertex
 10
158.123463
 20
196.934304
 30
0.0
  0
VERTEX
  5
1282
100
AcDbEntity
  8
10000_FRONT
370
    25
390
0
  6
CONTINUOUS
 62
     7
100
AcDbVertex
100
AcDb2dVertex
 10
158.088886
 20
196.915869
 30
0.0
  0
VERTEX
  5
1283
100
AcDbEntity
  8
10000_FRONT
370
    25
390
0
  6
CONTINUOUS
 62
     7
100
AcDbVertex
100
AcDb2dVertex
 10
158.058578
 20
196.89106
 30
0.0
  0
VERTEX
  5
1284
100
AcDbEntity
  8
10000_FRONT
370
    25
390
0
  6
CONTINUOUS
 62
     7
100
AcDbVertex
100
AcDb2dVertex
 10
158.033706
 20
196.86083
 30
0.0
  0
VERTEX
  5
1285
100
AcDbEntity
  8
10000_FRONT
370
    25
390
0
  6
CONTINUOUS
 62
     7
100
AcDbVertex
100
AcDb2dVertex
 10
158.015224
 20
196.826341
 30
0.0
  0
VERTEX
  5
1286
100
AcDbEntity
  8
10000_FRONT
370
    25
390
0
  6
CONTINUOUS
 62
     7
100
AcDbVertex
100
AcDb2dVertex
 10
158.003843
 20
196.788918
 30
0.0
  0
VERTEX
  5
1287
100
AcDbEntity
  8
10000_FRONT
370
    25
390
0
  6
CONTINUOUS
 62
     7
100
AcDbVertex
100
AcDb2dVertex
 10
158.0
 20
196.749999
 30
0.0
  0
SEQEND
  5
1288
100
AcDbEntity
  8
10000_FRONT
370
    25
390
0
  6
CONTINUOUS
 62
     7
  0
ARC
  5
1289
100
AcDbEntity
  8
10000_FRONT
370
    25
390
0
  6
CONTINUOUS
 62
     7
100
AcDbCircle
 10
158.2
 20
200.25
 30
0.0
 40
0.2
100
AcDbArc
 50
90.000027
 51
180.000219
  0
ARC
  5
128A
100
AcDbEntity
  8
10000_FRONT
370
    25
390
0
  6
CONTINUOUS
 62
     7
100
AcDbCircle
 10
159.325
 20
143.65
 30
0.0
 40
0.5
100
AcDbArc
 50
180.080946
 51
269.999989
  0
ARC
  5
128B
100
AcDbEntity
  8
10000_FRONT
370
    25
390
0
  6
CONTINUOUS
 62
     7
100
AcDbCircle
 10
159.325
 20
146.25
 30
0.0
 40
0.5
100
AcDbArc
 50
90.000011
 51
180.0
  0
ARC
  5
128C
100
AcDbEntity
  8
10000_FRONT
370
    25
390
0
  6
CONTINUOUS
 62
     7
100
AcDbCircle
 10
159.325
 20
146.25
 30
0.0
 40
1.0
100
AcDbArc
 50
90.000005
 51
121.668246
  0
ARC
  5
128D
100
AcDbEntity
  8
10000_FRONT
370
    25
390
0
  6
CONTINUOUS
 62
     7
100
AcDbCircle
 10
159.325
 20
153.75
 30
0.0
 40
0.5
100
AcDbArc
 50
180.080957
 51
269.999989
  0
ARC
  5
128E
100
AcDbEntity
  8
10000_FRONT
370
    25
390
0
  6
CONTINUOUS
 62
     7
100
AcDbCircle
 10
159.325
 20
156.35
 30
0.0
 40
0.5
100
AcDbArc
 50
90.000011
 51
180.0
  0
ARC
  5
128F
100
AcDbEntity
  8
10000_FRONT
370
    25
390
0
  6
CONTINUOUS
 62
     7
100
AcDbCircle
 10
159.325
 20
156.35
 30
0.0
 40
1.0
100
AcDbArc
 50
90.000005
 51
121.668234
  0
ARC
  5
1290
100
AcDbEntity
  8
10000_FRONT
370
    25
390
0
  6
CONTINUOUS
 62
     7
100
AcDbCircle
 10
159.325
 20
163.85
 30
0.0
 40
0.5
100
AcDbArc
 50
180.080913
 51
269.999989
  0
ARC
  5
1291
100
AcDbEntity
  8
10000_FRONT
370
    25
390
0
  6
CONTINUOUS
 62
     7
100
AcDbCircle
 10
159.325
 20
166.45
 30
0.0
 40
0.5
100
AcDbArc
 50
90.000011
 51
180.0
  0
ARC
  5
1292
100
AcDbEntity
  8
10000_FRONT
370
    25
390
0
  6
CONTINUOUS
 62
     7
100
AcDbCircle
 10
159.325
 20
166.45
 30
0.0
 40
1.0
100
AcDbArc
 50
90.000005
 51
121.668223
  0
ARC
  5
1293
100
AcDbEntity
  8
10000_FRONT
370
    25
390
0
  6
CONTINUOUS
 62
     7
100
AcDbCircle
 10
160.425
 20
169.75
 30
0.0
 40
1.9
100
AcDbArc
 50
38.419808
 51
88.450104
  0
CIRCLE
  5
1294
100
AcDbEntity
  8
10000_FRONT
370
    25
390
0
  6
CONTINUOUS
 62
     7
100
AcDbCircle
 10
160.525
 20
149.75
 30
0.0
 40
1.7
  0
ARC
  5
1295
100
AcDbEntity
  8
10000_FRONT
370
    25
390
0
  6
CONTINUOUS
 62
     7
100
AcDbCircle
 10
160.525
 20
149.75
 30
0.0
 40
2.2
100
AcDbArc
 50
218.363323
 51
141.636669
  0
CIRCLE
  5
1296
100
AcDbEntity
  8
10000_FRONT
370
    25
390
0
  6
CONTINUOUS
 62
     7
100
AcDbCircle
 10
160.525
 20
159.85
 30
0.0
 40
1.7
  0
ARC
  5
1297
100
AcDbEntity
  8
10000_FRONT
370
    25
390
0
  6
CONTINUOUS
 62
     7
100
AcDbCircle
 10
160.525
 20
159.85
 30
0.0
 40
2.2
100
AcDbArc
 50
218.363334
 51
141.636681
  0
CIRCLE
  5
1298
100
AcDbEntity
  8
10000_FRONT
370
    25
390
0
  6
CONTINUOUS
 62
     7
100
AcDbCircle
 10
160.525
 20
169.95
 30
0.0
 40
1.7
  0
ARC
  5
1299
100
AcDbEntity
  8
10000_FRONT
370
    25
390
0
  6
CONTINUOUS
 62
     7
100
AcDbCircle
 10
160.525
 20
169.95
 30
0.0
 40
2.2
100
AcDbArc
 50
218.363327
 51
141.636673
  0
ARC
  5
129A
100
AcDbEntity
  8
10000_FRONT
370
    25
390
0
  6
CONTINUOUS
 62
     7
100
AcDbCircle
 10
161.725
 20
143.65
 30
0.0
 40
0.5
100
AcDbArc
 50
270.0
 51
0.0
  0
ARC
  5
129B
100
AcDbEntity
  8
10000_FRONT
370
    25
390
0
  6
CONTINUOUS
 62
     7
100
AcDbCircle
 10
161.725
 20
146.25
 30
0.0
 40
0.5
100
AcDbArc
 50
0.0
 51
90.0
  0
ARC
  5
129C
100
AcDbEntity
  8
10000_FRONT
370
    25
390
0
  6
CONTINUOUS
 62
     7
100
AcDbCircle
 10
161.725
 20
146.25
 30
0.0
 40
1.0
100
AcDbArc
 50
0.0
 51
90.0
  0
ARC
  5
129D
100
AcDbEntity
  8
10000_FRONT
370
    25
390
0
  6
CONTINUOUS
 62
     7
100
AcDbCircle
 10
161.725
 20
153.75
 30
0.0
 40
0.5
100
AcDbArc
 50
270.0
 51
0.0
  0
ARC
  5
129E
100
AcDbEntity
  8
10000_FRONT
370
    25
390
0
  6
CONTINUOUS
 62
     7
100
AcDbCircle
 10
161.725
 20
156.35
 30
0.0
 40
0.5
100
AcDbArc
 50
0.0
 51
90.0
  0
ARC
  5
129F
100
AcDbEntity
  8
10000_FRONT
370
    25
390
0
  6
CONTINUOUS
 62
     7
100
AcDbCircle
 10
161.725
 20
156.35
 30
0.0
 40
1.0
100
AcDbArc
 50
0.0
 51
90.0
  0
ARC
  5
12A0
100
AcDbEntity
  8
10000_FRONT
370
    25
390
0
  6
CONTINUOUS
 62
     7
100
AcDbCircle
 10
161.725
 20
163.85
 30
0.0
 40
0.5
100
AcDbArc
 50
270.0
 51
0.0
  0
ARC
  5
12A1
100
AcDbEntity
  8
10000_FRONT
370
    25
390
0
  6
CONTINUOUS
 62
     7
100
AcDbCircle
 10
161.725
 20
166.45
 30
0.0
 40
0.5
100
AcDbArc
 50
0.0
 51
90.0
  0
ARC
  5
12A2
100
AcDbEntity
  8
10000_FRONT
370
    25
390
0
  6
CONTINUOUS
 62
     7
100
AcDbCircle
 10
161.725
 20
166.45
 30
0.0
 40
1.0
100
AcDbArc
 50
0.0
 51
90.0
  0
ARC
  5
12A3
100
AcDbEntity
  8
10000_FRONT
370
    25
390
0
  6
CONTINUOUS
 62
     7
100
AcDbCircle
 10
162.955
 20
142.640714
 30
0.0
 40
0.12
100
AcDbArc
 50
180.0
 51
0.0
  0
CIRCLE
  5
12A4
100
AcDbEntity
  8
10000_FRONT
370
    25
390
0
  6
CONTINUOUS
 62
     7
100
AcDbCircle
 10
162.955
 20
145.36
 30
0.0
 40
0.12
  0
ARC
  5
12A5
100
AcDbEntity
  8
10000_FRONT
370
    25
390
0
  6
CONTINUOUS
 62
     7
100
AcDbCircle
 10
162.955
 20
152.740714
 30
0.0
 40
0.12
100
AcDbArc
 50
179.999923
 51
0.000077
  0
CIRCLE
  5
12A6
100
AcDbEntity
  8
10000_FRONT
370
    25
390
0
  6
CONTINUOUS
 62
     7
100
AcDbCircle
 10
162.955
 20
155.46
 30
0.0
 40
0.12
  0
ARC
  5
12A7
100
AcDbEntity
  8
10000_FRONT
370
    25
390
0
  6
CONTINUOUS
 62
     7
100
AcDbCircle
 10
162.975714
 20
144.219286
 30
0.0
 40
0.140714
100
AcDbArc
 50
19.587468
 51
180.0
  0
ARC
  5
12A8
100
AcDbEntity
  8
10000_FRONT
370
    25
390
0
  6
CONTINUOUS
 62
     7
100
AcDbCircle
 10
162.975714
 20
154.319286
 30
0.0
 40
0.140714
100
AcDbArc
 50
19.587616
 51
180.000125
  0
CIRCLE
  5
12A9
100
AcDbEntity
  8
10000_FRONT
370
    25
390
0
  6
CONTINUOUS
 62
     7
100
AcDbCircle
 10
163.095
 20
165.56
 30
0.0
 40
0.12
  0
ARC
  5
12AA
100
AcDbEntity
  8
10000_FRONT
370
    25
390
0
  6
CONTINUOUS
 62
     7
100
AcDbCircle
 10
163.195
 20
156.02
 30
0.0
 40
0.12
100
AcDbArc
 50
149.999954
 51
270.000014
  0
ARC
  5
12AB
100
AcDbEntity
  8
10000_FRONT
370
    25
390
0
  6
CONTINUOUS
 62
     7
100
AcDbCircle
 10
163.295
 20
166.882872
 30
0.0
 40
0.12
100
AcDbArc
 50
120.000065
 51
300.000034
  0
ARC
  5
12AC
100
AcDbEntity
  8
10000_FRONT
370
    25
390
0
  6
CONTINUOUS
 62
     7
100
AcDbCircle
 10
163.415
 20
145.36
 30
0.0
 40
0.12
100
AcDbArc
 50
147.621681
 51
270.000027
  0
ARC
  5
12AD
100
AcDbEntity
  8
10000_FRONT
370
    25
390
0
  6
CONTINUOUS
 62
     7
100
AcDbCircle
 10
163.415
 20
146.6
 30
0.0
 40
0.12
100
AcDbArc
 50
180.0
 51
0.0
  0
ARC
  5
12AE
100
AcDbEntity
  8
10000_FRONT
370
    25
390
0
  6
CONTINUOUS
 62
     7
100
AcDbCircle
 10
163.574286
 20
142.660714
 30
0.0
 40
0.140714
100
AcDbArc
 50
199.587463
 51
0.0
  0
ARC
  5
12AF
100
AcDbEntity
  8
10000_FRONT
370
    25
390
0
  6
CONTINUOUS
 62
     7
100
AcDbCircle
 10
163.574286
 20
152.760714
 30
0.0
 40
0.140714
100
AcDbArc
 50
199.587498
 51
359.999866
  0
ARC
  5
12B0
100
AcDbEntity
  8
10000_FRONT
370
    25
390
0
  6
CONTINUOUS
 62
     7
100
AcDbCircle
 10
163.595
 20
144.24
 30
0.0
 40
0.12
100
AcDbArc
 50
0.0
 51
180.0
  0
ARC
  5
12B1
100
AcDbEntity
  8
10000_FRONT
370
    25
390
0
  6
CONTINUOUS
 62
     7
100
AcDbCircle
 10
163.595
 20
154.34
 30
0.0
 40
0.12
100
AcDbArc
 50
0.000164
 51
179.999836
  0
ARC
  5
12B2
100
AcDbEntity
  8
10000_FRONT
370
    25
390
0
  6
CONTINUOUS
 62
     7
100
AcDbCircle
 10
163.775
 20
146.6
 30
0.0
 40
0.24
100
AcDbArc
 50
327.621551
 51
180.0
  0
ARC
  5
12B3
100
AcDbEntity
  8
10000_FRONT
370
    25
390
0
  6
CONTINUOUS
 62
     7
100
AcDbCircle
 10
163.775
 20
146.6
 30
0.0
 40
0.48
100
AcDbArc
 50
327.621577
 51
180.0
  0
ARC
  5
12B4
100
AcDbEntity
  8
10000_FRONT
370
    25
390
0
  6
CONTINUOUS
 62
     7
100
AcDbCircle
 10
163.775
 20
163.16
 30
0.0
 40
0.2
100
AcDbArc
 50
180.000262
 51
359.999738
  0
ARC
  5
12B5
100
AcDbEntity
  8
10000_FRONT
370
    25
390
0
  6
CONTINUOUS
 62
     7
100
AcDbCircle
 10
163.775
 20
163.16
 30
0.0
 40
0.44
100
AcDbArc
 50
180.000119
 51
359.999881
  0
ARC
  5
12B6
100
AcDbEntity
  8
10000_FRONT
370
    25
390
0
  6
CONTINUOUS
 62
     7
100
AcDbCircle
 10
163.775
 20
164.12
 30
0.0
 40
0.2
100
AcDbArc
 50
0.0
 51
180.0
  0
ARC
  5
12B7
100
AcDbEntity
  8
10000_FRONT
370
    25
390
0
  6
CONTINUOUS
 62
     7
100
AcDbCircle
 10
163.775
 20
164.12
 30
0.0
 40
0.44
100
AcDbArc
 50
0.0
 51
180.0
  0
ARC
  5
12B8
100
AcDbEntity
  8
10000_FRONT
370
    25
390
0
  6
CONTINUOUS
 62
     7
100
AcDbCircle
 10
163.775
 20
165.56
 30
0.0
 40
0.12
100
AcDbArc
 50
179.999709
 51
0.000291
  0
ARC
  5
12B9
100
AcDbEntity
  8
10000_FRONT
370
    25
390
0
  6
CONTINUOUS
 62
     7
100
AcDbCircle
 10
163.775
 20
167.16
 30
0.0
 40
0.12
100
AcDbArc
 50
359.999563
 51
120.000036
  0
ARC
  5
12BA
100
AcDbEntity
  8
10000_FRONT
370
    25
390
0
  6
CONTINUOUS
 62
     7
100
AcDbCircle
 10
163.795444
 20
155.46
 30
0.0
 40
0.12
100
AcDbArc
 50
179.999891
 51
0.000109
  0
ARC
  5
12BB
100
AcDbEntity
  8
10000_FRONT
370
    25
390
0
  6
CONTINUOUS
 62
     7
100
AcDbCircle
 10
163.795444
 20
157.06
 30
0.0
 40
0.12
100
AcDbArc
 50
0.000291
 51
149.999961
  0
ARC
  5
12BC
100
AcDbEntity
  8
10000_FRONT
370
    25
390
0
  6
CONTINUOUS
 62
     7
100
AcDbCircle
 10
164.075
 20
156.02
 30
0.0
 40
0.12
100
AcDbArc
 50
269.999954
 51
90.000046
  0
ARC
  5
12BD
100
AcDbEntity
  8
10000_FRONT
370
    25
390
0
  6
CONTINUOUS
 62
     7
100
AcDbCircle
 10
164.095
 20
163.16
 30
0.0
 40
0.12
100
AcDbArc
 50
359.999563
 51
180.000437
  0
ARC
  5
12BE
100
AcDbEntity
  8
10000_FRONT
370
    25
390
0
  6
CONTINUOUS
 62
     7
100
AcDbCircle
 10
164.095
 20
164.12
 30
0.0
 40
0.12
100
AcDbArc
 50
180.0
 51
0.0
  0
ARC
  5
12BF
100
AcDbEntity
  8
10000_FRONT
370
    25
390
0
  6
CONTINUOUS
 62
     7
100
AcDbCircle
 10
164.135
 20
145.36
 30
0.0
 40
0.12
100
AcDbArc
 50
270.000041
 51
89.999959
  0
ARC
  5
12C0
100
AcDbEntity
  8
10000_FRONT
370
    25
390
0
  6
CONTINUOUS
 62
     7
100
AcDbCircle
 10
164.275
 20
142.96
 30
0.0
 40
0.2
100
AcDbArc
 50
180.0
 51
0.0
  0
ARC
  5
12C1
100
AcDbEntity
  8
10000_FRONT
370
    25
390
0
  6
CONTINUOUS
 62
     7
100
AcDbCircle
 10
164.275
 20
142.96
 30
0.0
 40
0.44
100
AcDbArc
 50
180.0
 51
0.0
  0
ARC
  5
12C2
100
AcDbEntity
  8
10000_FRONT
370
    25
390
0
  6
CONTINUOUS
 62
     7
100
AcDbCircle
 10
164.275
 20
143.92
 30
0.0
 40
0.2
100
AcDbArc
 50
0.0
 51
180.0
  0
ARC
  5
12C3
100
AcDbEntity
  8
10000_FRONT
370
    25
390
0
  6
CONTINUOUS
 62
     7
100
AcDbCircle
 10
164.275
 20
143.92
 30
0.0
 40
0.44
100
AcDbArc
 50
0.0
 51
180.0
  0
ARC
  5
12C4
100
AcDbEntity
  8
10000_FRONT
370
    25
390
0
  6
CONTINUOUS
 62
     7
100
AcDbCircle
 10
164.275
 20
153.06
 30
0.0
 40
0.2
100
AcDbArc
 50
180.000098
 51
359.999902
  0
ARC
  5
12C5
100
AcDbEntity
  8
10000_FRONT
370
    25
390
0
  6
CONTINUOUS
 62
     7
100
AcDbCircle
 10
164.275
 20
153.06
 30
0.0
 40
0.44
100
AcDbArc
 50
180.0
 51
0.0
  0
ARC
  5
12C6
100
AcDbEntity
  8
10000_FRONT
370
    25
390
0
  6
CONTINUOUS
 62
     7
100
AcDbCircle
 10
164.275
 20
154.039298
 30
0.0
 40
0.2
100
AcDbArc
 50
359.999922
 51
180.000078
  0
ARC
  5
12C7
100
AcDbEntity
  8
10000_FRONT
370
    25
390
0
  6
CONTINUOUS
 62
     7
100
AcDbCircle
 10
164.275
 20
154.039298
 30
0.0
 40
0.44
100
AcDbArc
 50
0.0
 51
180.0
  0
ARC
  5
12C8
100
AcDbEntity
  8
10000_FRONT
370
    25
390
0
  6
CONTINUOUS
 62
     7
100
AcDbCircle
 10
164.595
 20
142.96
 30
0.0
 40
0.12
100
AcDbArc
 50
0.0
 51
180.0
  0
ARC
  5
12C9
100
AcDbEntity
  8
10000_FRONT
370
    25
390
0
  6
CONTINUOUS
 62
     7
100
AcDbCircle
 10
164.595
 20
143.92
 30
0.0
 40
0.12
100
AcDbArc
 50
180.0
 51
0.0
  0
ARC
  5
12CA
100
AcDbEntity
  8
10000_FRONT
370
    25
390
0
  6
CONTINUOUS
 62
     7
100
AcDbCircle
 10
164.8
 20
140.65
 30
0.0
 40
0.2
100
AcDbArc
 50
270.000014
 51
270.109092
  0
ARC
  5
12CB
100
AcDbEntity
  8
10000_FRONT
370
    25
390
0
  6
CONTINUOUS
 62
     7
100
AcDbCircle
 10
164.8
 20
196.75
 30
0.0
 40
0.2
100
AcDbArc
 50
359.999781
 51
89.999986
  0
LINE
  5
12CC
100
AcDbEntity
  8
10100_FRONT_DIM
370
    13
390
0
  6
CONTINUOUS
 62
     7
100
AcDbLine
 10
158.0
 20
200.25
 30
0.0
 11
158.0
 21
213.15
 31
0.0
  0
LINE
  5
12CD
100
AcDbEntity
  8
10100_FRONT_DIM
370
    13
390
0
  6
CONTINUOUS
 62
     7
100
AcDbLine
 10
165.0
 20
213.15
 30
0.0
 11
165.0
 21
196.75
 31
0.0
  0
LINE
  5
12CE
100
AcDbEntity
  8
10100_FRONT_DIM
370
    13
390
0
  6
CONTINUOUS
 62
     7
100
AcDbLine
 10
172.5
 20
212.15
 30
0.0
 11
150.5
 21
212.15
 31
0.0
  0
TEXT
  5
12CF
100
AcDbEntity
  8
10100_FRONT_DIM
370
    13
390
0
  6
CONTINUOUS
 62
     7
100
AcDbText
 10
159.833333
 20
213.15
 30
0.0
 40
2.0
  1
7.1
 72
     1
 11
161.5
 21
213.15
 31
0.0
100
AcDbText
  0
LINE
  5
12D0
100
AcDbEntity
  8
10100_FRONT_DIM
370
    13
390
0
  6
CONTINUOUS
 62
     7
100
AcDbLine
 10
160.47
 20
137.0
 30
0.0
 11
147.0
 21
137.0
 31
0.0
  0
LINE
  5
12D1
100
AcDbEntity
  8
10100_FRONT_DIM
370
    13
390
0
  6
CONTINUOUS
 62
     7
100
AcDbLine
 10
147.0
 20
202.15
 30
0.0
 11
159.15
 21
202.15
 31
0.0
  0
LINE
  5
12D2
100
AcDbEntity
  8
10100_FRONT_DIM
370
    13
390
0
  6
CONTINUOUS
 62
     7
100
AcDbLine
 10
148.0
 20
137.0
 30
0.0
 11
148.0
 21
202.15
 31
0.0
  0
TEXT
  5
12D3
100
AcDbEntity
  8
10100_FRONT_DIM
370
    13
390
0
  6
CONTINUOUS
 62
     7
100
AcDbText
 10
147.0
 20
166.575
 30
0.0
 40
2.0
  1
65.2
 50
90.0
 72
     1
 11
147.0
 21
169.575
 31
0.0
100
AcDbText
  0
LINE
  5
12D4
100
AcDbEntity
  8
10100_FRONT_DIM
370
    13
390
0
  6
CONTINUOUS
 62
     7
100
AcDbLine
 10
153.0
 20
211.491738
 30
0.0
 11
153.0
 21
212.808262
 31
0.0
  0
LINE
  5
12D5
100
AcDbEntity
  8
10100_FRONT_DIM
370
    13
390
0
  6
CONTINUOUS
 62
     7
100
AcDbLine
 10
153.0
 20
211.491738
 30
0.0
 11
158.0
 21
212.15
 31
0.0
  0
LINE
  5
12D6
100
AcDbEntity
  8
10100_FRONT_DIM
370
    13
390
0
  6
CONTINUOUS
 62
     7
100
AcDbLine
 10
153.0
 20
212.808262
 30
0.0
 11
158.0
 21
212.15
 31
0.0
  0
LINE
  5
12D7
100
AcDbEntity
  8
10100_FRONT_DIM
370
    13
390
0
  6
CONTINUOUS
 62
     7
100
AcDbLine
 10
170.0
 20
212.808262
 30
0.0
 11
170.0
 21
211.491738
 31
0.0
  0
LINE
  5
12D8
100
AcDbEntity
  8
10100_FRONT_DIM
370
    13
390
0
  6
CONTINUOUS
 62
     7
100
AcDbLine
 10
170.0
 20
212.808262
 30
0.0
 11
165.0
 21
212.15
 31
0.0
  0
LINE
  5
12D9
100
AcDbEntity
  8
10100_FRONT_DIM
370
    13
390
0
  6
CONTINUOUS
 62
     7
100
AcDbLine
 10
170.0
 20
211.491738
 30
0.0
 11
165.0
 21
212.15
 31
0.0
  0
LINE
  5
12DA
100
AcDbEntity
  8
10100_FRONT_DIM
370
    13
390
0
  6
CONTINUOUS
 62
     7
100
AcDbLine
 10
147.341738
 20
142.0
 30
0.0
 11
148.658262
 21
142.0
 31
0.0
  0
LINE
  5
12DB
100
AcDbEntity
  8
10100_FRONT_DIM
370
    13
390
0
  6
CONTINUOUS
 62
     7
100
AcDbLine
 10
147.341738
 20
142.0
 30
0.0
 11
148.0
 21
137.0
 31
0.0
  0
LINE
  5
12DC
100
AcDbEntity
  8
10100_FRONT_DIM
370
    13
390
0
  6
CONTINUOUS
 62
     7
100
AcDbLine
 10
148.658262
 20
142.0
 30
0.0
 11
148.0
 21
137.0
 31
0.0
  0
LINE
  5
12DD
100
AcDbEntity
  8
10100_FRONT_DIM
370
    13
390
0
  6
CONTINUOUS
 62
     7
100
AcDbLine
 10
148.658262
 20
197.15
 30
0.0
 11
147.341738
 21
197.15
 31
0.0
  0
LINE
  5
12DE
100
AcDbEntity
  8
10100_FRONT_DIM
370
    13
390
0
  6
CONTINUOUS
 62
     7
100
AcDbLine
 10
148.658262
 20
197.15
 30
0.0
 11
148.0
 21
202.15
 31
0.0
  0
LINE
  5
12DF
100
AcDbEntity
  8
10100_FRONT_DIM
370
    13
390
0
  6
CONTINUOUS
 62
     7
100
AcDbLine
 10
147.341738
 20
197.15
 30
0.0
 11
148.0
 21
202.15
 31
0.0
  0
LINE
  5
12E0
100
AcDbEntity
  8
10100_FRONT_DIM
370
    13
390
0
  6
CONTINUOUS
 62
     7
100
AcDbLine
 10
147.996238
 20
137.028576
 30
0.0
 11
148.004903
 21
137.03724
 31
0.0
  0
LINE
  5
12E1
100
AcDbEntity
  8
10100_FRONT_DIM
370
    13
390
0
  6
CONTINUOUS
 62
     7
100
AcDbLine
 10
147.9816
 20
202.01024
 30
0.0
 11
148.023979
 21
201.967861
 31
0.0
  0
LINE
  5
12E2
100
AcDbEntity
  8
10100_FRONT_DIM
370
    13
390
0
  6
CONTINUOUS
 62
     7
100
AcDbLine
 10
147.96888
 20
201.91362
 30
0.0
 11
148.023879
 21
201.968619
 31
0.0
  0
LINE
  5
12E3
100
AcDbEntity
  8
10100_FRONT_DIM
370
    13
390
0
  6
CONTINUOUS
 62
     7
100
AcDbLine
 10
157.749237
 20
212.183014
 30
0.0
 11
157.807583
 21
212.124668
 31
0.0
  0
LINE
  5
12E4
100
AcDbEntity
  8
10100_FRONT_DIM
370
    13
390
0
  6
CONTINUOUS
 62
     7
100
AcDbLine
 10
157.747792
 20
212.116796
 30
0.0
 11
157.806474
 21
212.175478
 31
0.0
  0
LINE
  5
12E5
100
AcDbEntity
  8
10100_FRONT_DIM
370
    13
390
0
  6
CONTINUOUS
 62
     7
100
AcDbLine
 10
147.958854
 20
137.312532
 30
0.0
 11
148.031572
 21
137.239814
 31
0.0
  0
LINE
  5
12E6
100
AcDbEntity
  8
10100_FRONT_DIM
370
    13
390
0
  6
CONTINUOUS
 62
     7
100
AcDbLine
 10
147.354592
 20
141.902362
 30
0.0
 11
147.452229
 21
142.0
 31
0.0
  0
LINE
  5
12E7
100
AcDbEntity
  8
10100_FRONT_DIM
370
    13
390
0
  6
CONTINUOUS
 62
     7
100
AcDbLine
 10
165.36915
 20
212.101401
 30
0.0
 11
165.481085
 21
212.213336
 31
0.0
  0
LINE
  5
12E8
100
AcDbEntity
  8
10100_FRONT_DIM
370
    13
390
0
  6
CONTINUOUS
 62
     7
100
AcDbLine
 10
165.370259
 20
212.198745
 30
0.0
 11
165.482531
 21
212.086474
 31
0.0
  0
LINE
  5
12E9
100
AcDbEntity
  8
10100_FRONT_DIM
370
    13
390
0
  6
CONTINUOUS
 62
     7
100
AcDbLine
 10
147.946881
 20
137.403482
 30
0.0
 11
148.069227
 21
137.525828
 31
0.0
  0
LINE
  5
12EA
100
AcDbEntity
  8
10100_FRONT_DIM
370
    13
390
0
  6
CONTINUOUS
 62
     7
100
AcDbLine
 10
169.869139
 20
212.791034
 30
0.0
 11
170.0
 21
212.660173
 31
0.0
  0
LINE
  5
12EB
100
AcDbEntity
  8
10100_FRONT_DIM
370
    13
390
0
  6
CONTINUOUS
 62
     7
100
AcDbLine
 10
169.86803
 20
211.509112
 30
0.0
 11
170.0
 21
211.641082
 31
0.0
  0
LINE
  5
12EC
100
AcDbEntity
  8
10100_FRONT_DIM
370
    13
390
0
  6
CONTINUOUS
 62
     7
100
AcDbLine
 10
147.932243
 20
201.635333
 30
0.0
 11
148.088303
 21
201.479273
 31
0.0
  0
LINE
  5
12ED
100
AcDbEntity
  8
10100_FRONT_DIM
370
    13
390
0
  6
CONTINUOUS
 62
     7
100
AcDbLine
 10
147.904556
 20
201.425032
 30
0.0
 11
148.073237
 21
201.593713
 31
0.0
  0
LINE
  5
12EE
100
AcDbEntity
  8
10100_FRONT_DIM
370
    13
390
0
  6
CONTINUOUS
 62
     7
100
AcDbLine
 10
157.26065
 20
212.247337
 30
0.0
 11
157.432676
 21
212.07531
 31
0.0
  0
LINE
  5
12EF
100
AcDbEntity
  8
10100_FRONT_DIM
370
    13
390
0
  6
CONTINUOUS
 62
     7
100
AcDbLine
 10
157.259204
 20
212.052472
 30
0.0
 11
157.431567
 21
212.224836
 31
0.0
  0
LINE
  5
12F0
100
AcDbEntity
  8
10100_FRONT_DIM
370
    13
390
0
  6
CONTINUOUS
 62
     7
100
AcDbLine
 10
147.894531
 20
137.80112
 30
0.0
 11
148.08093
 21
137.614721
 31
0.0
  0
LINE
  5
12F1
100
AcDbEntity
  8
10100_FRONT_DIM
370
    13
390
0
  6
CONTINUOUS
 62
     7
100
AcDbLine
 10
165.744056
 20
212.052043
 30
0.0
 11
165.969673
 21
212.27766
 31
0.0
  0
LINE
  5
12F2
100
AcDbEntity
  8
10100_FRONT_DIM
370
    13
390
0
  6
CONTINUOUS
 62
     7
100
AcDbLine
 10
165.745165
 20
212.248103
 30
0.0
 11
165.971118
 21
212.02215
 31
0.0
  0
LINE
  5
12F3
100
AcDbEntity
  8
10100_FRONT_DIM
370
    13
390
0
  6
CONTINUOUS
 62
     7
100
AcDbLine
 10
147.897523
 20
137.778389
 30
0.0
 11
148.13355
 21
138.014416
 31
0.0
  0
LINE
  5
12F4
100
AcDbEntity
  8
10100_FRONT_DIM
370
    13
390
0
  6
CONTINUOUS
 62
     7
100
AcDbLine
 10
148.362555
 20
142.0
 30
0.0
 11
148.623861
 21
141.738694
 31
0.0
  0
LINE
  5
12F5
100
AcDbEntity
  8
10100_FRONT_DIM
370
    13
390
0
  6
CONTINUOUS
 62
     7
100
AcDbLine
 10
147.882885
 20
201.260426
 30
0.0
 11
148.152627
 21
200.990685
 31
0.0
  0
LINE
  5
12F6
100
AcDbEntity
  8
10100_FRONT_DIM
370
    13
390
0
  6
CONTINUOUS
 62
     7
100
AcDbLine
 10
147.840232
 20
200.936444
 30
0.0
 11
148.122594
 21
201.218806
 31
0.0
  0
LINE
  5
12F7
100
AcDbEntity
  8
10100_FRONT_DIM
370
    13
390
0
  6
CONTINUOUS
 62
     7
100
AcDbLine
 10
156.772062
 20
212.311661
 30
0.0
 11
157.05777
 21
212.025953
 31
0.0
  0
LINE
  5
12F8
100
AcDbEntity
  8
10100_FRONT_DIM
370
    13
390
0
  6
CONTINUOUS
 62
     7
100
AcDbLine
 10
156.770616
 20
211.988149
 30
0.0
 11
157.056661
 21
212.274193
 31
0.0
  0
LINE
  5
12F9
100
AcDbEntity
  8
10100_FRONT_DIM
370
    13
390
0
  6
CONTINUOUS
 62
     7
100
AcDbLine
 10
147.830207
 20
138.289708
 30
0.0
 11
148.130287
 21
137.989628
 31
0.0
  0
LINE
  5
12FA
100
AcDbEntity
  8
10100_FRONT_DIM
370
    13
390
0
  6
CONTINUOUS
 62
     7
100
AcDbLine
 10
153.0
 20
212.460173
 30
0.0
 11
153.307594
 21
212.767767
 31
0.0
  0
LINE
  5
12FB
100
AcDbEntity
  8
10100_FRONT_DIM
370
    13
390
0
  6
CONTINUOUS
 62
     7
100
AcDbLine
 10
153.0
 20
211.841082
 30
0.0
 11
153.308703
 21
211.532379
 31
0.0
  0
LINE
  5
12FC
100
AcDbEntity
  8
10100_FRONT_DIM
370
    13
390
0
  6
CONTINUOUS
 62
     7
100
AcDbLine
 10
148.296429
 20
197.15
 30
0.0
 11
148.616168
 21
197.469739
 31
0.0
  0
LINE
  5
12FD
100
AcDbEntity
  8
10100_FRONT_DIM
370
    13
390
0
  6
CONTINUOUS
 62
     7
100
AcDbLine
 10
166.118963
 20
212.002686
 30
0.0
 11
166.458261
 21
212.341984
 31
0.0
  0
LINE
  5
12FE
100
AcDbEntity
  8
10100_FRONT_DIM
370
    13
390
0
  6
CONTINUOUS
 62
     7
100
AcDbLine
 10
166.120072
 20
212.29746
 30
0.0
 11
166.459706
 21
211.957826
 31
0.0
  0
LINE
  5
12FF
100
AcDbEntity
  8
10100_FRONT_DIM
370
    13
390
0
  6
CONTINUOUS
 62
     7
100
AcDbLine
 10
147.848166
 20
138.153296
 30
0.0
 11
148.197874
 21
138.503004
 31
0.0
  0
LINE
  5
1300
100
AcDbEntity
  8
10100_FRONT_DIM
370
    13
390
0
  6
CONTINUOUS
 62
     7
100
AcDbLine
 10
147.389311
 20
197.51136
 30
0.0
 11
147.750671
 21
197.15
 31
0.0
  0
LINE
  5
1301
100
AcDbEntity
  8
10100_FRONT_DIM
370
    13
390
0
  6
CONTINUOUS
 62
     7
100
AcDbLine
 10
147.833528
 20
200.88552
 30
0.0
 11
148.216951
 21
200.502097
 31
0.0
  0
LINE
  5
1302
100
AcDbEntity
  8
10100_FRONT_DIM
370
    13
390
0
  6
CONTINUOUS
 62
     7
100
AcDbLine
 10
147.775909
 20
200.447857
 30
0.0
 11
148.171951
 21
200.843899
 31
0.0
  0
LINE
  5
1303
100
AcDbEntity
  8
10100_FRONT_DIM
370
    13
390
0
  6
CONTINUOUS
 62
     7
100
AcDbLine
 10
156.283474
 20
212.375985
 30
0.0
 11
156.682863
 21
211.976596
 31
0.0
  0
LINE
  5
1304
100
AcDbEntity
  8
10100_FRONT_DIM
370
    13
390
0
  6
CONTINUOUS
 62
     7
100
AcDbLine
 10
156.282028
 20
211.923825
 30
0.0
 11
156.681754
 21
212.32355
 31
0.0
  0
LINE
  5
1305
100
AcDbEntity
  8
10100_FRONT_DIM
370
    13
390
0
  6
CONTINUOUS
 62
     7
100
AcDbLine
 10
147.765883
 20
138.778296
 30
0.0
 11
148.179644
 21
138.364534
 31
0.0
  0
LINE
  5
1306
100
AcDbEntity
  8
10100_FRONT_DIM
370
    13
390
0
  6
CONTINUOUS
 62
     7
100
AcDbLine
 10
166.49387
 20
211.953328
 30
0.0
 11
166.946849
 21
212.406307
 31
0.0
  0
LINE
  5
1307
100
AcDbEntity
  8
10100_FRONT_DIM
370
    13
390
0
  6
CONTINUOUS
 62
     7
100
AcDbLine
 10
166.494979
 20
212.346818
 30
0.0
 11
166.948294
 21
211.893502
 31
0.0
  0
LINE
  5
1308
100
AcDbEntity
  8
10100_FRONT_DIM
370
    13
390
0
  6
CONTINUOUS
 62
     7
100
AcDbLine
 10
147.798808
 20
138.528202
 30
0.0
 11
148.262198
 21
138.991592
 31
0.0
  0
LINE
  5
1309
100
AcDbEntity
  8
10100_FRONT_DIM
370
    13
390
0
  6
CONTINUOUS
 62
     7
100
AcDbLine
 10
147.403949
 20
141.527456
 30
0.0
 11
147.876494
 21
142.0
 31
0.0
  0
LINE
  5
130A
100
AcDbEntity
  8
10100_FRONT_DIM
370
    13
390
0
  6
CONTINUOUS
 62
     7
100
AcDbLine
 10
147.784171
 20
200.510613
 30
0.0
 11
148.281274
 21
200.013509
 31
0.0
  0
LINE
  5
130B
100
AcDbEntity
  8
10100_FRONT_DIM
370
    13
390
0
  6
CONTINUOUS
 62
     7
100
AcDbLine
 10
169.494232
 20
212.741677
 30
0.0
 11
170.0
 21
212.235909
 31
0.0
  0
LINE
  5
130C
100
AcDbEntity
  8
10100_FRONT_DIM
370
    13
390
0
  6
CONTINUOUS
 62
     7
100
AcDbLine
 10
169.493123
 20
211.558469
 30
0.0
 11
170.0
 21
212.065346
 31
0.0
  0
LINE
  5
130D
100
AcDbEntity
  8
10100_FRONT_DIM
370
    13
390
0
  6
CONTINUOUS
 62
     7
100
AcDbLine
 10
147.711585
 20
199.959269
 30
0.0
 11
148.221309
 21
200.468993
 31
0.0
  0
LINE
  5
130E
100
AcDbEntity
  8
10100_FRONT_DIM
370
    13
390
0
  6
CONTINUOUS
 62
     7
100
AcDbLine
 10
155.794886
 20
212.440309
 30
0.0
 11
156.307956
 21
211.927238
 31
0.0
  0
LINE
  5
130F
100
AcDbEntity
  8
10100_FRONT_DIM
370
    13
390
0
  6
CONTINUOUS
 62
     7
100
AcDbLine
 10
155.79344
 20
211.859501
 30
0.0
 11
156.306847
 21
212.372908
 31
0.0
  0
LINE
  5
1310
100
AcDbEntity
  8
10100_FRONT_DIM
370
    13
390
0
  6
CONTINUOUS
 62
     7
100
AcDbLine
 10
147.701559
 20
139.266883
 30
0.0
 11
148.229002
 21
138.739441
 31
0.0
  0
LINE
  5
1311
100
AcDbEntity
  8
10100_FRONT_DIM
370
    13
390
0
  6
CONTINUOUS
 62
     7
100
AcDbLine
 10
166.868776
 20
211.903971
 30
0.0
 11
167.435437
 21
212.470631
 31
0.0
  0
LINE
  5
1312
100
AcDbEntity
  8
10100_FRONT_DIM
370
    13
390
0
  6
CONTINUOUS
 62
     7
100
AcDbLine
 10
166.869885
 20
212.396175
 30
0.0
 11
167.436882
 21
211.829178
 31
0.0
  0
LINE
  5
1313
100
AcDbEntity
  8
10100_FRONT_DIM
370
    13
390
0
  6
CONTINUOUS
 62
     7
100
AcDbLine
 10
147.749451
 20
138.903109
 30
0.0
 11
148.326522
 21
139.48018
 31
0.0
  0
LINE
  5
1314
100
AcDbEntity
  8
10100_FRONT_DIM
370
    13
390
0
  6
CONTINUOUS
 62
     7
100
AcDbLine
 10
147.734813
 20
200.135706
 30
0.0
 11
148.345598
 21
199.524921
 31
0.0
  0
LINE
  5
1315
100
AcDbEntity
  8
10100_FRONT_DIM
370
    13
390
0
  6
CONTINUOUS
 62
     7
100
AcDbLine
 10
147.647261
 20
199.470681
 30
0.0
 11
148.270666
 21
200.094086
 31
0.0
  0
LINE
  5
1316
100
AcDbEntity
  8
10100_FRONT_DIM
370
    13
390
0
  6
CONTINUOUS
 62
     7
100
AcDbLine
 10
155.306298
 20
212.504633
 30
0.0
 11
155.93305
 21
211.877881
 31
0.0
  0
LINE
  5
1317
100
AcDbEntity
  8
10100_FRONT_DIM
370
    13
390
0
  6
CONTINUOUS
 62
     7
100
AcDbLine
 10
155.304853
 20
211.795177
 30
0.0
 11
155.931941
 21
212.422265
 31
0.0
  0
LINE
  5
1318
100
AcDbEntity
  8
10100_FRONT_DIM
370
    13
390
0
  6
CONTINUOUS
 62
     7
100
AcDbLine
 10
147.938291
 20
142.0
 30
0.0
 11
148.574504
 21
141.363788
 31
0.0
  0
LINE
  5
1319
100
AcDbEntity
  8
10100_FRONT_DIM
370
    13
390
0
  6
CONTINUOUS
 62
     7
100
AcDbLine
 10
147.637235
 20
139.755471
 30
0.0
 11
148.278359
 21
139.114348
 31
0.0
  0
LINE
  5
131A
100
AcDbEntity
  8
10100_FRONT_DIM
370
    13
390
0
  6
CONTINUOUS
 62
     7
100
AcDbLine
 10
167.243683
 20
211.854614
 30
0.0
 11
167.924024
 21
212.534955
 31
0.0
  0
LINE
  5
131B
100
AcDbEntity
  8
10100_FRONT_DIM
370
    13
390
0
  6
CONTINUOUS
 62
     7
100
AcDbLine
 10
167.244792
 20
212.445532
 30
0.0
 11
167.92547
 21
211.764855
 31
0.0
  0
LINE
  5
131C
100
AcDbEntity
  8
10100_FRONT_DIM
370
    13
390
0
  6
CONTINUOUS
 62
     7
100
AcDbLine
 10
153.0
 20
212.035909
 30
0.0
 11
153.682501
 21
212.71841
 31
0.0
  0
LINE
  5
131D
100
AcDbEntity
  8
10100_FRONT_DIM
370
    13
390
0
  6
CONTINUOUS
 62
     7
100
AcDbLine
 10
153.0
 20
212.265346
 30
0.0
 11
153.68361
 21
211.581736
 31
0.0
  0
LINE
  5
131E
100
AcDbEntity
  8
10100_FRONT_DIM
370
    13
390
0
  6
CONTINUOUS
 62
     7
100
AcDbLine
 10
147.700094
 20
139.278016
 30
0.0
 11
148.390846
 21
139.968768
 31
0.0
  0
LINE
  5
131F
100
AcDbEntity
  8
10100_FRONT_DIM
370
    13
390
0
  6
CONTINUOUS
 62
     7
100
AcDbLine
 10
147.872165
 20
197.15
 30
0.0
 11
148.566811
 21
197.844646
 31
0.0
  0
LINE
  5
1320
100
AcDbEntity
  8
10100_FRONT_DIM
370
    13
390
0
  6
CONTINUOUS
 62
     7
100
AcDbLine
 10
147.685456
 20
199.7608
 30
0.0
 11
148.409922
 21
199.036333
 31
0.0
  0
LINE
  5
1321
100
AcDbEntity
  8
10100_FRONT_DIM
370
    13
390
0
  6
CONTINUOUS
 62
     7
100
AcDbLine
 10
147.438669
 20
197.886266
 30
0.0
 11
148.174935
 21
197.15
 31
0.0
  0
LINE
  5
1322
100
AcDbEntity
  8
10100_FRONT_DIM
370
    13
390
0
  6
CONTINUOUS
 62
     7
100
AcDbLine
 10
147.582937
 20
198.982093
 30
0.0
 11
148.320024
 21
199.719179
 31
0.0
  0
LINE
  5
1323
100
AcDbEntity
  8
10100_FRONT_DIM
370
    13
390
0
  6
CONTINUOUS
 62
     7
100
AcDbLine
 10
154.81771
 20
212.568956
 30
0.0
 11
155.558143
 21
211.828523
 31
0.0
  0
LINE
  5
1324
100
AcDbEntity
  8
10100_FRONT_DIM
370
    13
390
0
  6
CONTINUOUS
 62
     7
100
AcDbLine
 10
154.816265
 20
211.730853
 30
0.0
 11
155.557034
 21
212.471623
 31
0.0
  0
LINE
  5
1325
100
AcDbEntity
  8
10100_FRONT_DIM
370
    13
390
0
  6
CONTINUOUS
 62
     7
100
AcDbLine
 10
147.572911
 20
140.244059
 30
0.0
 11
148.327717
 21
139.489254
 31
0.0
  0
LINE
  5
1326
100
AcDbEntity
  8
10100_FRONT_DIM
370
    13
390
0
  6
CONTINUOUS
 62
     7
100
AcDbLine
 10
167.61859
 20
211.805256
 30
0.0
 11
168.412612
 21
212.599279
 31
0.0
  0
LINE
  5
1327
100
AcDbEntity
  8
10100_FRONT_DIM
370
    13
390
0
  6
CONTINUOUS
 62
     7
100
AcDbLine
 10
167.619699
 20
212.49489
 30
0.0
 11
168.414058
 21
211.700531
 31
0.0
  0
LINE
  5
1328
100
AcDbEntity
  8
10100_FRONT_DIM
370
    13
390
0
  6
CONTINUOUS
 62
     7
100
AcDbLine
 10
147.650736
 20
139.652922
 30
0.0
 11
148.45517
 21
140.457356
 31
0.0
  0
LINE
  5
1329
100
AcDbEntity
  8
10100_FRONT_DIM
370
    13
390
0
  6
CONTINUOUS
 62
     7
100
AcDbLine
 10
147.636098
 20
199.385893
 30
0.0
 11
148.474246
 21
198.547745
 31
0.0
  0
LINE
  5
132A
100
AcDbEntity
  8
10100_FRONT_DIM
370
    13
390
0
  6
CONTINUOUS
 62
     7
100
AcDbLine
 10
147.453307
 20
141.152549
 30
0.0
 11
148.300758
 21
142.0
 31
0.0
  0
LINE
  5
132B
100
AcDbEntity
  8
10100_FRONT_DIM
370
    13
390
0
  6
CONTINUOUS
 62
     7
100
AcDbLine
 10
147.518613
 20
198.493505
 30
0.0
 11
148.369381
 21
199.344273
 31
0.0
  0
LINE
  5
132C
100
AcDbEntity
  8
10100_FRONT_DIM
370
    13
390
0
  6
CONTINUOUS
 62
     7
100
AcDbLine
 10
154.329122
 20
212.63328
 30
0.0
 11
155.183236
 21
211.779166
 31
0.0
  0
LINE
  5
132D
100
AcDbEntity
  8
10100_FRONT_DIM
370
    13
390
0
  6
CONTINUOUS
 62
     7
100
AcDbLine
 10
154.327677
 20
211.666529
 30
0.0
 11
155.182127
 21
212.52098
 31
0.0
  0
LINE
  5
132E
100
AcDbEntity
  8
10100_FRONT_DIM
370
    13
390
0
  6
CONTINUOUS
 62
     7
100
AcDbLine
 10
147.508588
 20
140.732647
 30
0.0
 11
148.377074
 21
139.864161
 31
0.0
  0
LINE
  5
132F
100
AcDbEntity
  8
10100_FRONT_DIM
370
    13
390
0
  6
CONTINUOUS
 62
     7
100
AcDbLine
 10
169.119325
 20
212.692319
 30
0.0
 11
170.0
 21
211.811645
 31
0.0
  0
LINE
  5
1330
100
AcDbEntity
  8
10100_FRONT_DIM
370
    13
390
0
  6
CONTINUOUS
 62
     7
100
AcDbLine
 10
169.118216
 20
211.607827
 30
0.0
 11
170.0
 21
212.48961
 31
0.0
  0
LINE
  5
1331
100
AcDbEntity
  8
10100_FRONT_DIM
370
    13
390
0
  6
CONTINUOUS
 62
     7
100
AcDbLine
 10
167.993496
 20
211.755899
 30
0.0
 11
168.9012
 21
212.663603
 31
0.0
  0
LINE
  5
1332
100
AcDbEntity
  8
10100_FRONT_DIM
370
    13
390
0
  6
CONTINUOUS
 62
     7
100
AcDbLine
 10
167.994605
 20
212.544247
 30
0.0
 11
168.902646
 21
211.636207
 31
0.0
  0
LINE
  5
1333
100
AcDbEntity
  8
10100_FRONT_DIM
370
    13
390
0
  6
CONTINUOUS
 62
     7
100
AcDbLine
 10
147.601379
 20
140.027829
 30
0.0
 11
148.519493
 21
140.945944
 31
0.0
  0
LINE
  5
1334
100
AcDbEntity
  8
10100_FRONT_DIM
370
    13
390
0
  6
CONTINUOUS
 62
     7
100
AcDbLine
 10
147.586741
 20
199.010986
 30
0.0
 11
148.53857
 21
198.059158
 31
0.0
  0
LINE
  5
1335
100
AcDbEntity
  8
10100_FRONT_DIM
370
    13
390
0
  6
CONTINUOUS
 62
     7
100
AcDbLine
 10
147.454289
 20
198.004917
 30
0.0
 11
148.418738
 21
198.969366
 31
0.0
  0
LINE
  5
1336
100
AcDbEntity
  8
10100_FRONT_DIM
370
    13
390
0
  6
CONTINUOUS
 62
     7
100
AcDbLine
 10
153.840534
 20
212.697604
 30
0.0
 11
154.80833
 21
211.729809
 31
0.0
  0
LINE
  5
1337
100
AcDbEntity
  8
10100_FRONT_DIM
370
    13
390
0
  6
CONTINUOUS
 62
     7
100
AcDbLine
 10
153.839089
 20
211.602206
 30
0.0
 11
154.807221
 21
212.570337
 31
0.0
  0
LINE
  5
1338
100
AcDbEntity
  8
10100_FRONT_DIM
370
    13
390
0
  6
CONTINUOUS
 62
     7
100
AcDbLine
 10
147.444264
 20
141.221235
 30
0.0
 11
148.426431
 21
140.239068
 31
0.0
  0
LINE
  5
1339
100
AcDbEntity
  8
10100_FRONT_DIM
370
    13
390
0
  6
CONTINUOUS
 62
     7
100
AcDbLine
 10
147.514027
 20
142.0
 30
0.0
 11
148.525146
 21
140.988881
 31
0.0
  0
LINE
  5
133A
100
AcDbEntity
  8
10100_FRONT_DIM
370
    13
390
0
  6
CONTINUOUS
 62
     7
100
AcDbLine
 10
168.368403
 20
211.706541
 30
0.0
 11
169.389788
 21
212.727927
 31
0.0
  0
LINE
  5
133B
100
AcDbEntity
  8
10100_FRONT_DIM
370
    13
390
0
  6
CONTINUOUS
 62
     7
100
AcDbLine
 10
168.369512
 20
212.593605
 30
0.0
 11
169.391234
 21
211.571883
 31
0.0
  0
LINE
  5
133C
100
AcDbEntity
  8
10100_FRONT_DIM
370
    13
390
0
  6
CONTINUOUS
 62
     7
100
AcDbLine
 10
147.552021
 20
140.402736
 30
0.0
 11
148.583817
 21
141.434531
 31
0.0
  0
LINE
  5
133D
100
AcDbEntity
  8
10100_FRONT_DIM
370
    13
390
0
  6
CONTINUOUS
 62
     7
100
AcDbLine
 10
153.0
 20
211.611645
 30
0.0
 11
154.057407
 21
212.669052
 31
0.0
  0
LINE
  5
133E
100
AcDbEntity
  8
10100_FRONT_DIM
370
    13
390
0
  6
CONTINUOUS
 62
     7
100
AcDbLine
 10
153.0
 20
212.68961
 30
0.0
 11
154.058516
 21
211.631094
 31
0.0
  0
LINE
  5
133F
100
AcDbEntity
  8
10100_FRONT_DIM
370
    13
390
0
  6
CONTINUOUS
 62
     7
100
AcDbLine
 10
147.537384
 20
198.63608
 30
0.0
 11
148.602893
 21
197.57057
 31
0.0
  0
LINE
  5
1340
100
AcDbEntity
  8
10100_FRONT_DIM
370
    13
390
0
  6
CONTINUOUS
 62
     7
100
AcDbLine
 10
147.447901
 20
197.15
 30
0.0
 11
148.517453
 21
198.219553
 31
0.0
  0
LINE
  5
1341
100
AcDbEntity
  8
10100_FRONT_DIM
370
    13
390
0
  6
CONTINUOUS
 62
     7
100
AcDbLine
 10
147.389966
 20
197.516329
 30
0.0
 11
148.468096
 21
198.594459
 31
0.0
  0
LINE
  5
1342
100
AcDbEntity
  8
10100_FRONT_DIM
370
    13
390
0
  6
CONTINUOUS
 62
     7
100
AcDbLine
 10
153.351947
 20
212.761928
 30
0.0
 11
154.433423
 21
211.680451
 31
0.0
  0
LINE
  5
1343
100
AcDbEntity
  8
10100_FRONT_DIM
370
    13
390
0
  6
CONTINUOUS
 62
     7
100
AcDbLine
 10
153.350501
 20
211.537882
 30
0.0
 11
154.432314
 21
212.619695
 31
0.0
  0
LINE
  5
1344
100
AcDbEntity
  8
10100_FRONT_DIM
370
    13
390
0
  6
CONTINUOUS
 62
     7
100
AcDbLine
 10
147.37994
 20
141.709823
 30
0.0
 11
148.475789
 21
140.613974
 31
0.0
  0
LINE
  5
1345
100
AcDbEntity
  8
10100_FRONT_DIM
370
    13
390
0
  6
CONTINUOUS
 62
     7
100
AcDbLine
 10
147.488026
 20
198.261173
 30
0.0
 11
148.599199
 21
197.15
 31
0.0
  0
LINE
  5
1346
100
AcDbEntity
  8
10100_FRONT_DIM
370
    13
390
0
  6
CONTINUOUS
 62
     7
100
AcDbLine
 10
168.74331
 20
211.657184
 30
0.0
 11
169.878376
 21
212.79225
 31
0.0
  0
LINE
  5
1347
100
AcDbEntity
  8
10100_FRONT_DIM
370
    13
390
0
  6
CONTINUOUS
 62
     7
100
AcDbLine
 10
168.744419
 20
212.642962
 30
0.0
 11
169.879822
 21
211.507559
 31
0.0
  0
LINE
  5
1348
100
AcDbEntity
  8
10100_FRONT_DIM
370
    13
390
0
  6
CONTINUOUS
 62
     7
100
AcDbLine
 10
147.502664
 20
140.777642
 30
0.0
 11
148.648141
 21
141.923119
 31
0.0
  0
LINE
  5
1349
100
AcDbEntity
  8
11000_LEFT
370
    25
390
0
  6
CONTINUOUS
 62
     7
100
AcDbLine
 10
219.253778
 20
174.427749
 30
0.0
 11
219.25377
 21
174.434421
 31
0.0
  0
LINE
  5
134A
100
AcDbEntity
  8
11000_LEFT
370
    25
390
0
  6
CONTINUOUS
 62
     7
100
AcDbLine
 10
220.535664
 20
173.750671
 30
0.0
 11
220.535533
 21
173.757648
 31
0.0
  0
LINE
  5
134B
100
AcDbEntity
  8
11000_LEFT
370
    25
390
0
  6
CONTINUOUS
 62
     7
100
AcDbLine
 10
220.470457
 20
173.647567
 30
0.0
 11
220.470325
 21
173.651195
 31
0.0
  0
LINE
  5
134C
100
AcDbEntity
  8
11000_LEFT
370
    25
390
0
  6
CONTINUOUS
 62
     7
100
AcDbLine
 10
220.500209
 20
173.318961
 30
0.0
 11
220.500208
 21
173.318988
 31
0.0
  0
LINE
  5
134D
100
AcDbEntity
  8
11000_LEFT
370
    25
390
0
  6
CONTINUOUS
 62
     7
100
AcDbLine
 10
218.743463
 20
174.916358
 30
0.0
 11
218.743188
 21
174.92316
 31
0.0
  0
LINE
  5
134E
100
AcDbEntity
  8
11000_LEFT
370
    25
390
0
  6
CONTINUOUS
 62
     7
100
AcDbLine
 10
218.743359
 20
174.916484
 30
0.0
 11
218.743054
 21
174.923251
 31
0.0
  0
LINE
  5
134F
100
AcDbEntity
  8
11000_LEFT
370
    25
390
0
  6
CONTINUOUS
 62
     7
100
AcDbLine
 10
219.254126
 20
174.420982
 30
0.0
 11
219.253778
 21
174.427749
 31
0.0
  0
LINE
  5
1350
100
AcDbEntity
  8
11000_LEFT
370
    25
390
0
  6
CONTINUOUS
 62
     7
100
AcDbLine
 10
220.028285
 20
173.857757
 30
0.0
 11
220.028185
 21
173.859668
 31
0.0
  0
LINE
  5
1351
100
AcDbEntity
  8
11000_LEFT
370
    25
390
0
  6
CONTINUOUS
 62
     7
100
AcDbLine
 10
220.535533
 20
173.757648
 30
0.0
 11
220.535039
 21
173.764671
 31
0.0
  0
LINE
  5
1352
100
AcDbEntity
  8
11000_LEFT
370
    25
390
0
  6
CONTINUOUS
 62
     7
100
AcDbLine
 10
220.500207
 20
173.319011
 30
0.0
 11
220.500205
 21
173.319038
 31
0.0
  0
LINE
  5
1353
100
AcDbEntity
  8
11000_LEFT
370
    25
390
0
  6
CONTINUOUS
 62
     7
100
AcDbLine
 10
218.744038
 20
174.909637
 30
0.0
 11
218.743463
 21
174.916358
 31
0.0
  0
LINE
  5
1354
100
AcDbEntity
  8
11000_LEFT
370
    25
390
0
  6
CONTINUOUS
 62
     7
100
AcDbLine
 10
220.500205
 20
173.319038
 30
0.0
 11
220.500203
 21
173.319061
 31
0.0
  0
LINE
  5
1355
100
AcDbEntity
  8
11000_LEFT
370
    25
390
0
  6
CONTINUOUS
 62
     7
100
AcDbLine
 10
218.743966
 20
174.909694
 30
0.0
 11
218.743359
 21
174.916484
 31
0.0
  0
LINE
  5
1356
100
AcDbEntity
  8
11000_LEFT
370
    25
390
0
  6
CONTINUOUS
 62
     7
100
AcDbLine
 10
219.254802
 20
174.414149
 30
0.0
 11
219.254126
 21
174.420982
 31
0.0
  0
LINE
  5
1357
100
AcDbEntity
  8
11000_LEFT
370
    25
390
0
  6
CONTINUOUS
 62
     7
100
AcDbLine
 10
220.470325
 20
173.651195
 30
0.0
 11
220.469931
 21
173.655021
 31
0.0
  0
LINE
  5
1358
100
AcDbEntity
  8
11000_LEFT
370
    25
390
0
  6
CONTINUOUS
 62
     7
100
AcDbLine
 10
220.288234
 20
173.319049
 30
0.0
 11
220.25359
 21
173.630531
 31
0.0
  0
LINE
  5
1359
100
AcDbEntity
  8
11000_LEFT
370
    25
390
0
  6
CONTINUOUS
 62
     7
100
AcDbLine
 10
220.5002
 20
173.319087
 30
0.0
 11
220.465556
 21
173.630569
 31
0.0
  0
LINE
  5
135A
100
AcDbEntity
  8
11000_LEFT
370
    25
390
0
  6
CONTINUOUS
 62
     7
100
AcDbLine
 10
220.500203
 20
173.319061
 30
0.0
 11
220.5002
 21
173.319087
 31
0.0
  0
LINE
  5
135B
100
AcDbEntity
  8
11000_LEFT
370
    25
390
0
  6
CONTINUOUS
 62
     7
100
AcDbLine
 10
220.535039
 20
173.764671
 30
0.0
 11
220.534145
 21
173.771819
 31
0.0
  0
LINE
  5
135C
100
AcDbEntity
  8
11000_LEFT
370
    25
390
0
  6
CONTINUOUS
 62
     7
100
AcDbLine
 10
220.029072
 20
173.854411
 30
0.0
 11
220.029048
 21
173.854594
 31
0.0
  0
LINE
  5
135D
100
AcDbEntity
  8
11000_LEFT
370
    25
390
0
  6
CONTINUOUS
 62
     7
100
AcDbLine
 10
218.744861
 20
174.902976
 30
0.0
 11
218.743966
 21
174.909694
 31
0.0
  0
LINE
  5
135E
100
AcDbEntity
  8
11000_LEFT
370
    25
390
0
  6
CONTINUOUS
 62
     7
100
AcDbLine
 10
218.74492
 20
174.903037
 30
0.0
 11
218.744038
 21
174.909637
 31
0.0
  0
LINE
  5
135F
100
AcDbEntity
  8
11000_LEFT
370
    25
390
0
  6
CONTINUOUS
 62
     7
100
AcDbLine
 10
220.028485
 20
173.856315
 30
0.0
 11
220.028285
 21
173.857757
 31
0.0
  0
LINE
  5
1360
100
AcDbEntity
  8
11000_LEFT
370
    25
390
0
  6
CONTINUOUS
 62
     7
100
AcDbLine
 10
219.25579
 20
174.407306
 30
0.0
 11
219.254802
 21
174.414149
 31
0.0
  0
LINE
  5
1361
100
AcDbEntity
  8
11000_LEFT
370
    25
390
0
  6
CONTINUOUS
 62
     7
100
AcDbLine
 10
220.469931
 20
173.655021
 30
0.0
 11
220.469279
 21
173.659038
 31
0.0
  0
LINE
  5
1362
100
AcDbEntity
  8
11000_LEFT
370
    25
390
0
  6
CONTINUOUS
 62
     7
100
AcDbLine
 10
220.534145
 20
173.771819
 30
0.0
 11
220.532871
 21
173.779052
 31
0.0
  0
LINE
  5
1363
100
AcDbEntity
  8
11000_LEFT
370
    25
390
0
  6
CONTINUOUS
 62
     7
100
AcDbLine
 10
218.746033
 20
174.896438
 30
0.0
 11
218.744861
 21
174.902976
 31
0.0
  0
LINE
  5
1364
100
AcDbEntity
  8
11000_LEFT
370
    25
390
0
  6
CONTINUOUS
 62
     7
100
AcDbLine
 10
218.746111
 20
174.896495
 30
0.0
 11
218.74492
 21
174.903037
 31
0.0
  0
LINE
  5
1365
100
AcDbEntity
  8
11000_LEFT
370
    25
390
0
  6
CONTINUOUS
 62
     7
100
AcDbLine
 10
219.257076
 20
174.400489
 30
0.0
 11
219.25579
 21
174.407306
 31
0.0
  0
LINE
  5
1366
100
AcDbEntity
  8
11000_LEFT
370
    25
390
0
  6
CONTINUOUS
 62
     7
100
AcDbLine
 10
220.469279
 20
173.659038
 30
0.0
 11
220.468373
 21
173.66323
 31
0.0
  0
LINE
  5
1367
100
AcDbEntity
  8
11000_LEFT
370
    25
390
0
  6
CONTINUOUS
 62
     7
100
AcDbLine
 10
220.532871
 20
173.779052
 30
0.0
 11
220.531244
 21
173.786304
 31
0.0
  0
LINE
  5
1368
100
AcDbEntity
  8
11000_LEFT
370
    25
390
0
  6
CONTINUOUS
 62
     7
100
AcDbLine
 10
218.747544
 20
174.889781
 30
0.0
 11
218.746033
 21
174.896438
 31
0.0
  0
LINE
  5
1369
100
AcDbEntity
  8
11000_LEFT
370
    25
390
0
  6
CONTINUOUS
 62
     7
100
AcDbLine
 10
218.747605
 20
174.889991
 30
0.0
 11
218.746111
 21
174.896495
 31
0.0
  0
LINE
  5
136A
100
AcDbEntity
  8
11000_LEFT
370
    25
390
0
  6
CONTINUOUS
 62
     7
100
AcDbLine
 10
219.258641
 20
174.39376
 30
0.0
 11
219.257076
 21
174.400489
 31
0.0
  0
LINE
  5
136B
100
AcDbEntity
  8
11000_LEFT
370
    25
390
0
  6
CONTINUOUS
 62
     7
100
AcDbLine
 10
220.292029
 20
173.305152
 30
0.0
 11
220.291355
 21
173.307826
 31
0.0
  0
LINE
  5
136C
100
AcDbEntity
  8
11000_LEFT
370
    25
390
0
  6
CONTINUOUS
 62
     7
100
AcDbLine
 10
220.291355
 20
173.307826
 30
0.0
 11
220.290751
 21
173.310188
 31
0.0
  0
LINE
  5
136D
100
AcDbEntity
  8
11000_LEFT
370
    25
390
0
  6
CONTINUOUS
 62
     7
100
AcDbLine
 10
220.029048
 20
173.854594
 30
0.0
 11
220.028992
 21
173.854812
 31
0.0
  0
LINE
  5
136E
100
AcDbEntity
  8
11000_LEFT
370
    25
390
0
  6
CONTINUOUS
 62
     7
100
AcDbLine
 10
220.288274
 20
173.318927
 30
0.0
 11
220.288268
 21
173.31895
 31
0.0
  0
LINE
  5
136F
100
AcDbEntity
  8
11000_LEFT
370
    25
390
0
  6
CONTINUOUS
 62
     7
100
AcDbLine
 10
220.288261
 20
173.318969
 30
0.0
 11
220.288255
 21
173.318992
 31
0.0
  0
LINE
  5
1370
100
AcDbEntity
  8
11000_LEFT
370
    25
390
0
  6
CONTINUOUS
 62
     7
100
AcDbLine
 10
220.468373
 20
173.66323
 30
0.0
 11
220.467215
 21
173.667594
 31
0.0
  0
LINE
  5
1371
100
AcDbEntity
  8
11000_LEFT
370
    25
390
0
  6
CONTINUOUS
 62
     7
100
AcDbLine
 10
220.299872
 20
173.276435
 30
0.0
 11
220.298503
 21
173.28157
 31
0.0
  0
LINE
  5
1372
100
AcDbEntity
  8
11000_LEFT
370
    25
390
0
  6
CONTINUOUS
 62
     7
100
AcDbLine
 10
220.298503
 20
173.28157
 30
0.0
 11
220.297232
 21
173.28633
 31
0.0
  0
LINE
  5
1373
100
AcDbEntity
  8
11000_LEFT
370
    25
390
0
  6
CONTINUOUS
 62
     7
100
AcDbLine
 10
220.292849
 20
173.302093
 30
0.0
 11
220.292029
 21
173.305152
 31
0.0
  0
LINE
  5
1374
100
AcDbEntity
  8
11000_LEFT
370
    25
390
0
  6
CONTINUOUS
 62
     7
100
AcDbLine
 10
220.301371
 20
173.270877
 30
0.0
 11
220.299872
 21
173.276435
 31
0.0
  0
LINE
  5
1375
100
AcDbEntity
  8
11000_LEFT
370
    25
390
0
  6
CONTINUOUS
 62
     7
100
AcDbLine
 10
220.297232
 20
173.28633
 30
0.0
 11
220.296035
 21
173.290752
 31
0.0
  0
LINE
  5
1376
100
AcDbEntity
  8
11000_LEFT
370
    25
390
0
  6
CONTINUOUS
 62
     7
100
AcDbLine
 10
220.531244
 20
173.786304
 30
0.0
 11
220.529289
 21
173.793521
 31
0.0
  0
LINE
  5
1377
100
AcDbEntity
  8
11000_LEFT
370
    25
390
0
  6
CONTINUOUS
 62
     7
100
AcDbLine
 10
220.303011
 20
173.264865
 30
0.0
 11
220.301371
 21
173.270877
 31
0.0
  0
LINE
  5
1378
100
AcDbEntity
  8
11000_LEFT
370
    25
390
0
  6
CONTINUOUS
 62
     7
100
AcDbLine
 10
220.304771
 20
173.258422
 30
0.0
 11
220.303011
 21
173.264865
 31
0.0
  0
LINE
  5
1379
100
AcDbEntity
  8
11000_LEFT
370
    25
390
0
  6
CONTINUOUS
 62
     7
100
AcDbLine
 10
220.289224
 20
173.315566
 30
0.0
 11
220.288896
 21
173.316764
 31
0.0
  0
LINE
  5
137A
100
AcDbEntity
  8
11000_LEFT
370
    25
390
0
  6
CONTINUOUS
 62
     7
100
AcDbLine
 10
218.74936
 20
174.883178
 30
0.0
 11
218.747544
 21
174.889781
 31
0.0
  0
LINE
  5
137B
100
AcDbEntity
  8
11000_LEFT
370
    25
390
0
  6
CONTINUOUS
 62
     7
100
AcDbLine
 10
220.296035
 20
173.290752
 30
0.0
 11
220.2949
 21
173.294852
 31
0.0
  0
LINE
  5
137C
100
AcDbEntity
  8
11000_LEFT
370
    25
390
0
  6
CONTINUOUS
 62
     7
100
AcDbLine
 10
219.260472
 20
174.38716
 30
0.0
 11
219.258641
 21
174.39376
 31
0.0
  0
LINE
  5
137D
100
AcDbEntity
  8
11000_LEFT
370
    25
390
0
  6
CONTINUOUS
 62
     7
100
AcDbLine
 10
220.290751
 20
173.310188
 30
0.0
 11
220.290171
 21
173.312278
 31
0.0
  0
LINE
  5
137E
100
AcDbEntity
  8
11000_LEFT
370
    25
390
0
  6
CONTINUOUS
 62
     7
100
AcDbLine
 10
218.749397
 20
174.88354
 30
0.0
 11
218.747605
 21
174.889991
 31
0.0
  0
LINE
  5
137F
100
AcDbEntity
  8
11000_LEFT
370
    25
390
0
  6
CONTINUOUS
 62
     7
100
AcDbLine
 10
220.288896
 20
173.316764
 30
0.0
 11
220.288631
 21
173.317706
 31
0.0
  0
LINE
  5
1380
100
AcDbEntity
  8
11000_LEFT
370
    25
390
0
  6
CONTINUOUS
 62
     7
100
AcDbLine
 10
220.293824
 20
173.298644
 30
0.0
 11
220.292849
 21
173.302093
 31
0.0
  0
LINE
  5
1381
100
AcDbEntity
  8
11000_LEFT
370
    25
390
0
  6
CONTINUOUS
 62
     7
100
AcDbLine
 10
220.2949
 20
173.294852
 30
0.0
 11
220.293824
 21
173.298644
 31
0.0
  0
LINE
  5
1382
100
AcDbEntity
  8
11000_LEFT
370
    25
390
0
  6
CONTINUOUS
 62
     7
100
AcDbLine
 10
220.289647
 20
173.314079
 30
0.0
 11
220.289224
 21
173.315566
 31
0.0
  0
LINE
  5
1383
100
AcDbEntity
  8
11000_LEFT
370
    25
390
0
  6
CONTINUOUS
 62
     7
100
AcDbLine
 10
220.288419
 20
173.318423
 30
0.0
 11
220.28828
 21
173.318908
 31
0.0
  0
LINE
  5
1384
100
AcDbEntity
  8
11000_LEFT
370
    25
390
0
  6
CONTINUOUS
 62
     7
100
AcDbLine
 10
220.290171
 20
173.312278
 30
0.0
 11
220.289647
 21
173.314079
 31
0.0
  0
LINE
  5
1385
100
AcDbEntity
  8
11000_LEFT
370
    25
390
0
  6
CONTINUOUS
 62
     7
100
AcDbLine
 10
220.288631
 20
173.317706
 30
0.0
 11
220.288419
 21
173.318423
 31
0.0
  0
LINE
  5
1386
100
AcDbEntity
  8
11000_LEFT
370
    25
390
0
  6
CONTINUOUS
 62
     7
100
AcDbLine
 10
220.028782
 20
173.855342
 30
0.0
 11
220.028485
 21
173.856315
 31
0.0
  0
LINE
  5
1387
100
AcDbEntity
  8
11000_LEFT
370
    25
390
0
  6
CONTINUOUS
 62
     7
100
AcDbLine
 10
220.467215
 20
173.667594
 30
0.0
 11
220.46581
 21
173.672118
 31
0.0
  0
LINE
  5
1388
100
AcDbEntity
  8
11000_LEFT
370
    25
390
0
  6
CONTINUOUS
 62
     7
100
AcDbLine
 10
220.28828
 20
173.318908
 30
0.0
 11
220.288274
 21
173.318927
 31
0.0
  0
LINE
  5
1389
100
AcDbEntity
  8
11000_LEFT
370
    25
390
0
  6
CONTINUOUS
 62
     7
100
AcDbLine
 10
220.529289
 20
173.793521
 30
0.0
 11
220.527033
 21
173.800628
 31
0.0
  0
LINE
  5
138A
100
AcDbEntity
  8
11000_LEFT
370
    25
390
0
  6
CONTINUOUS
 62
     7
100
AcDbLine
 10
218.75135
 20
174.877036
 30
0.0
 11
218.74936
 21
174.883178
 31
0.0
  0
LINE
  5
138B
100
AcDbEntity
  8
11000_LEFT
370
    25
390
0
  6
CONTINUOUS
 62
     7
100
AcDbLine
 10
219.262551
 20
174.380744
 30
0.0
 11
219.260472
 21
174.38716
 31
0.0
  0
LINE
  5
138C
100
AcDbEntity
  8
11000_LEFT
370
    25
390
0
  6
CONTINUOUS
 62
     7
100
AcDbLine
 10
218.751479
 20
174.877162
 30
0.0
 11
218.749397
 21
174.88354
 31
0.0
  0
LINE
  5
138D
100
AcDbEntity
  8
11000_LEFT
370
    25
390
0
  6
CONTINUOUS
 62
     7
100
AcDbLine
 10
220.46581
 20
173.672118
 30
0.0
 11
220.464161
 21
173.676788
 31
0.0
  0
LINE
  5
138E
100
AcDbEntity
  8
11000_LEFT
370
    25
390
0
  6
CONTINUOUS
 62
     7
100
AcDbLine
 10
220.028992
 20
173.854812
 30
0.0
 11
220.028902
 21
173.85506
 31
0.0
  0
LINE
  5
138F
100
AcDbEntity
  8
11000_LEFT
370
    25
390
0
  6
CONTINUOUS
 62
     7
100
AcDbLine
 10
220.527033
 20
173.800628
 30
0.0
 11
220.524503
 21
173.807574
 31
0.0
  0
LINE
  5
1390
100
AcDbEntity
  8
11000_LEFT
370
    25
390
0
  6
CONTINUOUS
 62
     7
100
AcDbLine
 10
220.288268
 20
173.31895
 30
0.0
 11
220.288261
 21
173.318969
 31
0.0
  0
LINE
  5
1391
100
AcDbEntity
  8
11000_LEFT
370
    25
390
0
  6
CONTINUOUS
 62
     7
100
AcDbLine
 10
220.288255
 20
173.318992
 30
0.0
 11
220.288234
 21
173.319049
 31
0.0
  0
LINE
  5
1392
100
AcDbEntity
  8
11000_LEFT
370
    25
390
0
  6
CONTINUOUS
 62
     7
100
AcDbLine
 10
218.75372
 20
174.870677
 30
0.0
 11
218.75135
 21
174.877036
 31
0.0
  0
LINE
  5
1393
100
AcDbEntity
  8
11000_LEFT
370
    25
390
0
  6
CONTINUOUS
 62
     7
100
AcDbLine
 10
219.264863
 20
174.374557
 30
0.0
 11
219.262551
 21
174.380744
 31
0.0
  0
LINE
  5
1394
100
AcDbEntity
  8
11000_LEFT
370
    25
390
0
  6
CONTINUOUS
 62
     7
100
AcDbLine
 10
218.753846
 20
174.870864
 30
0.0
 11
218.751479
 21
174.877162
 31
0.0
  0
LINE
  5
1395
100
AcDbEntity
  8
11000_LEFT
370
    25
390
0
  6
CONTINUOUS
 62
     7
100
AcDbLine
 10
220.464161
 20
173.676788
 30
0.0
 11
220.462272
 21
173.681598
 31
0.0
  0
LINE
  5
1396
100
AcDbEntity
  8
11000_LEFT
370
    25
390
0
  6
CONTINUOUS
 62
     7
100
AcDbLine
 10
220.524503
 20
173.807574
 30
0.0
 11
220.521726
 21
173.814288
 31
0.0
  0
LINE
  5
1397
100
AcDbEntity
  8
11000_LEFT
370
    25
390
0
  6
CONTINUOUS
 62
     7
100
AcDbLine
 10
218.756371
 20
174.864436
 30
0.0
 11
218.75372
 21
174.870677
 31
0.0
  0
LINE
  5
1398
100
AcDbEntity
  8
11000_LEFT
370
    25
390
0
  6
CONTINUOUS
 62
     7
100
AcDbLine
 10
218.75649
 20
174.864665
 30
0.0
 11
218.753846
 21
174.870864
 31
0.0
  0
LINE
  5
1399
100
AcDbEntity
  8
11000_LEFT
370
    25
390
0
  6
CONTINUOUS
 62
     7
100
AcDbLine
 10
219.267393
 20
174.368648
 30
0.0
 11
219.264863
 21
174.374557
 31
0.0
  0
LINE
  5
139A
100
AcDbEntity
  8
11000_LEFT
370
    25
390
0
  6
CONTINUOUS
 62
     7
100
AcDbLine
 10
220.462272
 20
173.681598
 30
0.0
 11
220.460146
 21
173.686534
 31
0.0
  0
LINE
  5
139B
100
AcDbEntity
  8
11000_LEFT
370
    25
390
0
  6
CONTINUOUS
 62
     7
100
AcDbLine
 10
220.028902
 20
173.85506
 30
0.0
 11
220.028777
 21
173.855342
 31
0.0
  0
LINE
  5
139C
100
AcDbEntity
  8
11000_LEFT
370
    25
390
0
  6
CONTINUOUS
 62
     7
100
AcDbLine
 10
220.521726
 20
173.814288
 30
0.0
 11
220.518728
 21
173.820712
 31
0.0
  0
LINE
  5
139D
100
AcDbEntity
  8
11000_LEFT
370
    25
390
0
  6
CONTINUOUS
 62
     7
100
AcDbLine
 10
220.460146
 20
173.686534
 30
0.0
 11
220.457786
 21
173.691585
 31
0.0
  0
LINE
  5
139E
100
AcDbEntity
  8
11000_LEFT
370
    25
390
0
  6
CONTINUOUS
 62
     7
100
AcDbLine
 10
218.759267
 20
174.858386
 30
0.0
 11
218.756371
 21
174.864436
 31
0.0
  0
LINE
  5
139F
100
AcDbEntity
  8
11000_LEFT
370
    25
390
0
  6
CONTINUOUS
 62
     7
100
AcDbLine
 10
218.759406
 20
174.858581
 30
0.0
 11
218.75649
 21
174.864665
 31
0.0
  0
LINE
  5
13A0
100
AcDbEntity
  8
11000_LEFT
370
    25
390
0
  6
CONTINUOUS
 62
     7
100
AcDbLine
 10
219.270155
 20
174.362941
 30
0.0
 11
219.267393
 21
174.368648
 31
0.0
  0
LINE
  5
13A1
100
AcDbEntity
  8
11000_LEFT
370
    25
390
0
  6
CONTINUOUS
 62
     7
100
AcDbLine
 10
203.837115
 20
179.532783
 30
0.0
 11
203.713124
 21
179.786998
 31
0.0
  0
LINE
  5
13A2
100
AcDbEntity
  8
11000_LEFT
370
    25
390
0
  6
CONTINUOUS
 62
     7
100
AcDbLine
 10
220.457786
 20
173.691585
 30
0.0
 11
220.455197
 21
173.696746
 31
0.0
  0
LINE
  5
13A3
100
AcDbEntity
  8
11000_LEFT
370
    25
390
0
  6
CONTINUOUS
 62
     7
100
AcDbLine
 10
220.518728
 20
173.820712
 30
0.0
 11
220.515488
 21
173.826923
 31
0.0
  0
LINE
  5
13A4
100
AcDbEntity
  8
11000_LEFT
370
    25
390
0
  6
CONTINUOUS
 62
     7
100
AcDbLine
 10
218.762586
 20
174.852622
 30
0.0
 11
218.759406
 21
174.858581
 31
0.0
  0
LINE
  5
13A5
100
AcDbEntity
  8
11000_LEFT
370
    25
390
0
  6
CONTINUOUS
 62
     7
100
AcDbLine
 10
220.455197
 20
173.696746
 30
0.0
 11
220.452377
 21
173.70201
 31
0.0
  0
LINE
  5
13A6
100
AcDbEntity
  8
11000_LEFT
370
    25
390
0
  6
CONTINUOUS
 62
     7
100
AcDbLine
 10
218.762421
 20
174.8525
 30
0.0
 11
218.759267
 21
174.858386
 31
0.0
  0
LINE
  5
13A7
100
AcDbEntity
  8
11000_LEFT
370
    25
390
0
  6
CONTINUOUS
 62
     7
100
AcDbLine
 10
219.273191
 20
174.357291
 30
0.0
 11
219.270155
 21
174.362941
 31
0.0
  0
LINE
  5
13A8
100
AcDbEntity
  8
11000_LEFT
370
    25
390
0
  6
CONTINUOUS
 62
     7
100
AcDbLine
 10
220.452377
 20
173.70201
 30
0.0
 11
220.449306
 21
173.707401
 31
0.0
  0
LINE
  5
13A9
100
AcDbEntity
  8
11000_LEFT
370
    25
390
0
  6
CONTINUOUS
 62
     7
100
AcDbLine
 10
220.515488
 20
173.826923
 30
0.0
 11
220.511938
 21
173.833083
 31
0.0
  0
LINE
  5
13AA
100
AcDbEntity
  8
11000_LEFT
370
    25
390
0
  6
CONTINUOUS
 62
     7
100
AcDbLine
 10
218.766025
 20
174.846812
 30
0.0
 11
218.762586
 21
174.852622
 31
0.0
  0
LINE
  5
13AB
100
AcDbEntity
  8
11000_LEFT
370
    25
390
0
  6
CONTINUOUS
 62
     7
100
AcDbLine
 10
219.276509
 20
174.351707
 30
0.0
 11
219.273191
 21
174.357291
 31
0.0
  0
LINE
  5
13AC
100
AcDbEntity
  8
11000_LEFT
370
    25
390
0
  6
CONTINUOUS
 62
     7
100
AcDbLine
 10
218.765846
 20
174.846748
 30
0.0
 11
218.762421
 21
174.8525
 31
0.0
  0
LINE
  5
13AD
100
AcDbEntity
  8
11000_LEFT
370
    25
390
0
  6
CONTINUOUS
 62
     7
100
AcDbLine
 10
220.449306
 20
173.707401
 30
0.0
 11
220.44599
 21
173.712905
 31
0.0
  0
LINE
  5
13AE
100
AcDbEntity
  8
11000_LEFT
370
    25
390
0
  6
CONTINUOUS
 62
     7
100
AcDbLine
 10
220.44599
 20
173.712905
 30
0.0
 11
220.442445
 21
173.718497
 31
0.0
  0
LINE
  5
13AF
100
AcDbEntity
  8
11000_LEFT
370
    25
390
0
  6
CONTINUOUS
 62
     7
100
AcDbLine
 10
220.511938
 20
173.833083
 30
0.0
 11
220.508058
 21
173.839191
 31
0.0
  0
LINE
  5
13B0
100
AcDbEntity
  8
11000_LEFT
370
    25
390
0
  6
CONTINUOUS
 62
     7
100
AcDbLine
 10
218.769715
 20
174.841155
 30
0.0
 11
218.766025
 21
174.846812
 31
0.0
  0
LINE
  5
13B1
100
AcDbEntity
  8
11000_LEFT
370
    25
390
0
  6
CONTINUOUS
 62
     7
100
AcDbLine
 10
219.280115
 20
174.346198
 30
0.0
 11
219.276509
 21
174.351707
 31
0.0
  0
LINE
  5
13B2
100
AcDbEntity
  8
11000_LEFT
370
    25
390
0
  6
CONTINUOUS
 62
     7
100
AcDbLine
 10
218.76955
 20
174.841117
 30
0.0
 11
218.765846
 21
174.846748
 31
0.0
  0
LINE
  5
13B3
100
AcDbEntity
  8
11000_LEFT
370
    25
390
0
  6
CONTINUOUS
 62
     7
100
AcDbLine
 10
220.442445
 20
173.718497
 30
0.0
 11
220.438686
 21
173.724151
 31
0.0
  0
LINE
  5
13B4
100
AcDbEntity
  8
11000_LEFT
370
    25
390
0
  6
CONTINUOUS
 62
     7
100
AcDbLine
 10
220.438686
 20
173.724151
 30
0.0
 11
220.434729
 21
173.729846
 31
0.0
  0
LINE
  5
13B5
100
AcDbEntity
  8
11000_LEFT
370
    25
390
0
  6
CONTINUOUS
 62
     7
100
AcDbLine
 10
220.508058
 20
173.839191
 30
0.0
 11
220.503827
 21
173.845241
 31
0.0
  0
LINE
  5
13B6
100
AcDbEntity
  8
11000_LEFT
370
    25
390
0
  6
CONTINUOUS
 62
     7
100
AcDbLine
 10
216.333217
 20
201.260001
 30
0.0
 11
215.769749
 21
202.064716
 31
0.0
  0
LINE
  5
13B7
100
AcDbEntity
  8
11000_LEFT
370
    25
390
0
  6
CONTINUOUS
 62
     7
100
AcDbLine
 10
218.77365
 20
174.835674
 30
0.0
 11
218.769715
 21
174.841155
 31
0.0
  0
LINE
  5
13B8
100
AcDbEntity
  8
11000_LEFT
370
    25
390
0
  6
CONTINUOUS
 62
     7
100
AcDbLine
 10
219.284019
 20
174.340778
 30
0.0
 11
219.280115
 21
174.346198
 31
0.0
  0
LINE
  5
13B9
100
AcDbEntity
  8
11000_LEFT
370
    25
390
0
  6
CONTINUOUS
 62
     7
100
AcDbLine
 10
218.7735
 20
174.835654
 30
0.0
 11
218.76955
 21
174.841117
 31
0.0
  0
LINE
  5
13BA
100
AcDbEntity
  8
11000_LEFT
370
    25
390
0
  6
CONTINUOUS
 62
     7
100
AcDbLine
 10
220.434729
 20
173.729846
 30
0.0
 11
220.43059
 21
173.735553
 31
0.0
  0
LINE
  5
13BB
100
AcDbEntity
  8
11000_LEFT
370
    25
390
0
  6
CONTINUOUS
 62
     7
100
AcDbLine
 10
220.43059
 20
173.735553
 30
0.0
 11
220.426284
 21
173.741248
 31
0.0
  0
LINE
  5
13BC
100
AcDbEntity
  8
11000_LEFT
370
    25
390
0
  6
CONTINUOUS
 62
     7
100
AcDbLine
 10
220.503827
 20
173.845241
 30
0.0
 11
220.499225
 21
173.851234
 31
0.0
  0
LINE
  5
13BD
100
AcDbEntity
  8
11000_LEFT
370
    25
390
0
  6
CONTINUOUS
 62
     7
100
AcDbLine
 10
220.426284
 20
173.741248
 30
0.0
 11
220.421827
 21
173.746906
 31
0.0
  0
LINE
  5
13BE
100
AcDbEntity
  8
11000_LEFT
370
    25
390
0
  6
CONTINUOUS
 62
     7
100
AcDbLine
 10
218.777825
 20
174.830383
 30
0.0
 11
218.77365
 21
174.835674
 31
0.0
  0
LINE
  5
13BF
100
AcDbEntity
  8
11000_LEFT
370
    25
390
0
  6
CONTINUOUS
 62
     7
100
AcDbLine
 10
219.288228
 20
174.335448
 30
0.0
 11
219.284019
 21
174.340778
 31
0.0
  0
LINE
  5
13C0
100
AcDbEntity
  8
11000_LEFT
370
    25
390
0
  6
CONTINUOUS
 62
     7
100
AcDbLine
 10
218.777682
 20
174.83039
 30
0.0
 11
218.7735
 21
174.835654
 31
0.0
  0
LINE
  5
13C1
100
AcDbEntity
  8
11000_LEFT
370
    25
390
0
  6
CONTINUOUS
 62
     7
100
AcDbLine
 10
220.421827
 20
173.746906
 30
0.0
 11
220.417234
 21
173.752502
 31
0.0
  0
LINE
  5
13C2
100
AcDbEntity
  8
11000_LEFT
370
    25
390
0
  6
CONTINUOUS
 62
     7
100
AcDbLine
 10
220.499225
 20
173.851234
 30
0.0
 11
220.494199
 21
173.857196
 31
0.0
  0
LINE
  5
13C3
100
AcDbEntity
  8
11000_LEFT
370
    25
390
0
  6
CONTINUOUS
 62
     7
100
AcDbLine
 10
220.417234
 20
173.752502
 30
0.0
 11
220.412521
 21
173.75801
 31
0.0
  0
LINE
  5
13C4
100
AcDbEntity
  8
11000_LEFT
370
    25
390
0
  6
CONTINUOUS
 62
     7
100
AcDbLine
 10
218.782231
 20
174.825294
 30
0.0
 11
218.777825
 21
174.830383
 31
0.0
  0
LINE
  5
13C5
100
AcDbEntity
  8
11000_LEFT
370
    25
390
0
  6
CONTINUOUS
 62
     7
100
AcDbLine
 10
219.292861
 20
174.330119
 30
0.0
 11
219.288228
 21
174.335448
 31
0.0
  0
LINE
  5
13C6
100
AcDbEntity
  8
11000_LEFT
370
    25
390
0
  6
CONTINUOUS
 62
     7
100
AcDbLine
 10
218.782091
 20
174.825328
 30
0.0
 11
218.777682
 21
174.83039
 31
0.0
  0
LINE
  5
13C7
100
AcDbEntity
  8
11000_LEFT
370
    25
390
0
  6
CONTINUOUS
 62
     7
100
AcDbLine
 10
220.412521
 20
173.75801
 30
0.0
 11
220.407638
 21
173.763503
 31
0.0
  0
LINE
  5
13C8
100
AcDbEntity
  8
11000_LEFT
370
    25
390
0
  6
CONTINUOUS
 62
     7
100
AcDbLine
 10
220.407638
 20
173.763503
 30
0.0
 11
220.402584
 21
173.768996
 31
0.0
  0
LINE
  5
13C9
100
AcDbEntity
  8
11000_LEFT
370
    25
390
0
  6
CONTINUOUS
 62
     7
100
AcDbLine
 10
220.494199
 20
173.857196
 30
0.0
 11
220.488788
 21
173.863048
 31
0.0
  0
LINE
  5
13CA
100
AcDbEntity
  8
11000_LEFT
370
    25
390
0
  6
CONTINUOUS
 62
     7
100
AcDbLine
 10
218.786863
 20
174.820422
 30
0.0
 11
218.782231
 21
174.825294
 31
0.0
  0
LINE
  5
13CB
100
AcDbEntity
  8
11000_LEFT
370
    25
390
0
  6
CONTINUOUS
 62
     7
100
AcDbLine
 10
219.297785
 20
174.324947
 30
0.0
 11
219.292861
 21
174.330119
 31
0.0
  0
LINE
  5
13CC
100
AcDbEntity
  8
11000_LEFT
370
    25
390
0
  6
CONTINUOUS
 62
     7
100
AcDbLine
 10
218.786721
 20
174.820468
 30
0.0
 11
218.782091
 21
174.825328
 31
0.0
  0
LINE
  5
13CD
100
AcDbEntity
  8
11000_LEFT
370
    25
390
0
  6
CONTINUOUS
 62
     7
100
AcDbLine
 10
220.402584
 20
173.768996
 30
0.0
 11
220.397446
 21
173.774387
 31
0.0
  0
LINE
  5
13CE
100
AcDbEntity
  8
11000_LEFT
370
    25
390
0
  6
CONTINUOUS
 62
     7
100
AcDbLine
 10
220.033416
 20
174.012233
 30
0.0
 11
220.029844
 21
174.015807
 31
0.0
  0
LINE
  5
13CF
100
AcDbEntity
  8
11000_LEFT
370
    25
390
0
  6
CONTINUOUS
 62
     7
100
AcDbLine
 10
219.483619
 20
174.56203
 30
0.0
 11
219.480047
 21
174.565604
 31
0.0
  0
LINE
  5
13D0
100
AcDbEntity
  8
11000_LEFT
370
    25
390
0
  6
CONTINUOUS
 62
     7
100
AcDbLine
 10
220.026241
 20
174.019408
 30
0.0
 11
220.022611
 21
174.02304
 31
0.0
  0
LINE
  5
13D1
100
AcDbEntity
  8
11000_LEFT
370
    25
390
0
  6
CONTINUOUS
 62
     7
100
AcDbLine
 10
219.490852
 20
174.554797
 30
0.0
 11
219.487222
 21
174.558429
 31
0.0
  0
LINE
  5
13D2
100
AcDbEntity
  8
11000_LEFT
370
    25
390
0
  6
CONTINUOUS
 62
     7
100
AcDbLine
 10
219.501857
 20
174.543792
 30
0.0
 11
219.498174
 21
174.547477
 31
0.0
  0
LINE
  5
13D3
100
AcDbEntity
  8
11000_LEFT
370
    25
390
0
  6
CONTINUOUS
 62
     7
100
AcDbLine
 10
220.03565
 20
173.939288
 30
0.0
 11
220.030403
 21
173.944537
 31
0.0
  0
LINE
  5
13D4
100
AcDbEntity
  8
11000_LEFT
370
    25
390
0
  6
CONTINUOUS
 62
     7
100
AcDbLine
 10
220.019198
 20
173.955741
 30
0.0
 11
220.013348
 21
173.961593
 31
0.0
  0
LINE
  5
13D5
100
AcDbEntity
  8
11000_LEFT
370
    25
390
0
  6
CONTINUOUS
 62
     7
100
AcDbLine
 10
219.424317
 20
174.55062
 30
0.0
 11
219.415431
 21
174.559509
 31
0.0
  0
LINE
  5
13D6
100
AcDbEntity
  8
11000_LEFT
370
    25
390
0
  6
CONTINUOUS
 62
     7
100
AcDbLine
 10
219.988446
 20
173.986491
 30
0.0
 11
219.981959
 21
173.99298
 31
0.0
  0
LINE
  5
13D7
100
AcDbEntity
  8
11000_LEFT
370
    25
390
0
  6
CONTINUOUS
 62
     7
100
AcDbLine
 10
219.981959
 20
173.99298
 30
0.0
 11
219.975422
 21
173.999519
 31
0.0
  0
LINE
  5
13D8
100
AcDbEntity
  8
11000_LEFT
370
    25
390
0
  6
CONTINUOUS
 62
     7
100
AcDbLine
 10
220.007915
 20
174.037734
 30
0.0
 11
220.004219
 21
174.041431
 31
0.0
  0
LINE
  5
13D9
100
AcDbEntity
  8
11000_LEFT
370
    25
390
0
  6
CONTINUOUS
 62
     7
100
AcDbLine
 10
219.463598
 20
174.51134
 30
0.0
 11
219.453403
 21
174.521537
 31
0.0
  0
LINE
  5
13DA
100
AcDbEntity
  8
11000_LEFT
370
    25
390
0
  6
CONTINUOUS
 62
     7
100
AcDbLine
 10
220.0249
 20
173.950038
 30
0.0
 11
220.019198
 21
173.955741
 31
0.0
  0
LINE
  5
13DB
100
AcDbEntity
  8
11000_LEFT
370
    25
390
0
  6
CONTINUOUS
 62
     7
100
AcDbLine
 10
219.443396
 20
174.531543
 30
0.0
 11
219.43367
 21
174.54127
 31
0.0
  0
LINE
  5
13DC
100
AcDbEntity
  8
11000_LEFT
370
    25
390
0
  6
CONTINUOUS
 62
     7
100
AcDbLine
 10
219.053654
 20
175.299289
 30
0.0
 11
219.026495
 21
175.32645
 31
0.0
  0
LINE
  5
13DD
100
AcDbEntity
  8
11000_LEFT
370
    25
390
0
  6
CONTINUOUS
 62
     7
100
AcDbLine
 10
203.194974
 20
185.955024
 30
0.0
 11
203.053554
 21
186.096446
 31
0.0
  0
LINE
  5
13DE
100
AcDbEntity
  8
11000_LEFT
370
    25
390
0
  6
CONTINUOUS
 62
     7
100
AcDbLine
 10
219.183909
 20
174.423373
 30
0.0
 11
218.786863
 21
174.820422
 31
0.0
  0
LINE
  5
13DF
100
AcDbEntity
  8
11000_LEFT
370
    25
390
0
  6
CONTINUOUS
 62
     7
100
AcDbLine
 10
197.632842
 20
173.150001
 30
0.0
 11
197.3
 21
173.482845
 31
0.0
  0
LINE
  5
13E0
100
AcDbEntity
  8
11000_LEFT
370
    25
390
0
  6
CONTINUOUS
 62
     7
100
AcDbLine
 10
220.087155
 20
172.851573
 30
0.0
 11
218.319388
 21
174.619342
 31
0.0
  0
LINE
  5
13E1
100
AcDbEntity
  8
11000_LEFT
370
    25
390
0
  6
CONTINUOUS
 62
     7
100
AcDbLine
 10
220.935683
 20
173.700103
 30
0.0
 11
219.167916
 21
175.467872
 31
0.0
  0
LINE
  5
13E2
100
AcDbEntity
  8
11000_LEFT
370
    25
390
0
  6
CONTINUOUS
 62
     7
100
AcDbLine
 10
219.79276
 20
173.829971
 30
0.0
 11
219.297785
 21
174.324947
 31
0.0
  0
LINE
  5
13E3
100
AcDbEntity
  8
11000_LEFT
370
    25
390
0
  6
CONTINUOUS
 62
     7
100
AcDbLine
 10
220.488788
 20
173.863048
 30
0.0
 11
219.330862
 21
175.020976
 31
0.0
  0
LINE
  5
13E4
100
AcDbEntity
  8
11000_LEFT
370
    25
390
0
  6
CONTINUOUS
 62
     7
100
AcDbLine
 10
219.968864
 20
174.006076
 30
0.0
 11
219.473889
 21
174.501052
 31
0.0
  0
LINE
  5
13E5
100
AcDbEntity
  8
11000_LEFT
370
    25
390
0
  6
CONTINUOUS
 62
     7
100
AcDbLine
 10
220.004219
 20
174.041431
 30
0.0
 11
219.509244
 21
174.536407
 31
0.0
  0
LINE
  5
13E6
100
AcDbEntity
  8
11000_LEFT
370
    25
390
0
  6
CONTINUOUS
 62
     7
100
AcDbLine
 10
213.0
 20
137.0
 30
0.0
 11
210.784314
 21
139.215685
 31
0.0
  0
LINE
  5
13E7
100
AcDbEntity
  8
11000_LEFT
370
    25
390
0
  6
CONTINUOUS
 62
     7
100
AcDbLine
 10
197.3
 20
168.817157
 30
0.0
 11
197.158578
 21
168.958579
 31
0.0
  0
LINE
  5
13E8
100
AcDbEntity
  8
11000_LEFT
370
    25
390
0
  6
CONTINUOUS
 62
     7
100
AcDbLine
 10
197.632842
 20
169.150001
 30
0.0
 11
197.491422
 21
169.291421
 31
0.0
  0
LINE
  5
13E9
100
AcDbEntity
  8
11000_LEFT
370
    25
390
0
  6
CONTINUOUS
 62
     7
100
AcDbLine
 10
227.3
 20
171.767158
 30
0.0
 11
219.344365
 21
179.722793
 31
0.0
  0
LINE
  5
13EA
100
AcDbEntity
  8
11000_LEFT
370
    25
390
0
  6
CONTINUOUS
 62
     7
100
AcDbLine
 10
227.441421
 20
171.908578
 30
0.0
 11
219.485786
 21
179.864215
 31
0.0
  0
LINE
  5
13EB
100
AcDbEntity
  8
11000_LEFT
370
    25
390
0
  6
CONTINUOUS
 62
     7
100
AcDbLine
 10
220.087155
 20
172.568732
 30
0.0
 11
218.036545
 21
174.619342
 31
0.0
  0
LINE
  5
13EC
100
AcDbEntity
  8
11000_LEFT
370
    25
390
0
  6
CONTINUOUS
 62
     7
100
AcDbLine
 10
197.491422
 20
173.008578
 30
0.0
 11
196.143933
 21
174.356067
 31
0.0
  0
LINE
  5
13ED
100
AcDbEntity
  8
11000_LEFT
370
    25
390
0
  6
CONTINUOUS
 62
     7
100
AcDbLine
 10
220.794262
 20
173.558681
 30
0.0
 11
220.767063
 21
173.58588
 31
0.0
  0
LINE
  5
13EE
100
AcDbEntity
  8
11000_LEFT
370
    25
390
0
  6
CONTINUOUS
 62
     7
100
AcDbLine
 10
221.218526
 20
173.700103
 30
0.0
 11
219.167916
 21
175.750713
 31
0.0
  0
LINE
  5
13EF
100
AcDbEntity
  8
11000_LEFT
370
    25
390
0
  6
CONTINUOUS
 62
     7
100
AcDbLine
 10
220.007335
 20
173.967605
 30
0.0
 11
219.994857
 21
173.980083
 31
0.0
  0
LINE
  5
13F0
100
AcDbEntity
  8
11000_LEFT
370
    25
390
0
  6
CONTINUOUS
 62
     7
100
AcDbLine
 10
220.018959
 20
174.026691
 30
0.0
 11
220.01529
 21
174.03036
 31
0.0
  0
LINE
  5
13F1
100
AcDbEntity
  8
11000_LEFT
370
    25
390
0
  6
CONTINUOUS
 62
     7
100
AcDbLine
 10
220.011607
 20
174.034042
 30
0.0
 11
220.007915
 21
174.037734
 31
0.0
  0
LINE
  5
13F2
100
AcDbEntity
  8
11000_LEFT
370
    25
390
0
  6
CONTINUOUS
 62
     7
100
AcDbLine
 10
219.509244
 20
174.536407
 30
0.0
 11
219.505548
 21
174.540103
 31
0.0
  0
LINE
  5
13F3
100
AcDbEntity
  8
11000_LEFT
370
    25
390
0
  6
CONTINUOUS
 62
     7
100
AcDbLine
 10
219.498174
 20
174.547477
 30
0.0
 11
219.494504
 21
174.551147
 31
0.0
  0
LINE
  5
13F4
100
AcDbEntity
  8
11000_LEFT
370
    25
390
0
  6
CONTINUOUS
 62
     7
100
AcDbLine
 10
220.043901
 20
174.00175
 30
0.0
 11
220.040449
 21
174.005202
 31
0.0
  0
LINE
  5
13F5
100
AcDbEntity
  8
11000_LEFT
370
    25
390
0
  6
CONTINUOUS
 62
     7
100
AcDbLine
 10
219.323155
 20
174.560966
 30
0.0
 11
219.098344
 21
174.785777
 31
0.0
  0
LINE
  5
13F6
100
AcDbEntity
  8
11000_LEFT
370
    25
390
0
  6
CONTINUOUS
 62
     7
100
AcDbLine
 10
219.480047
 20
174.565604
 30
0.0
 11
219.47651
 21
174.569141
 31
0.0
  0
LINE
  5
13F7
100
AcDbEntity
  8
11000_LEFT
370
    25
390
0
  6
CONTINUOUS
 62
     7
100
AcDbLine
 10
219.473014
 20
174.572635
 30
0.0
 11
219.469562
 21
174.576087
 31
0.0
  0
LINE
  5
13F8
100
AcDbEntity
  8
11000_LEFT
370
    25
390
0
  6
CONTINUOUS
 62
     7
100
AcDbLine
 10
203.594976
 20
186.355025
 30
0.0
 11
203.453553
 21
186.496448
 31
0.0
  0
LINE
  5
13F9
100
AcDbEntity
  8
11000_LEFT
370
    25
390
0
  6
CONTINUOUS
 62
     7
100
AcDbLine
 10
220.399386
 20
173.163806
 30
0.0
 11
218.631619
 21
174.931571
 31
0.0
  0
LINE
  5
13FA
100
AcDbEntity
  8
11000_LEFT
370
    25
390
0
  6
CONTINUOUS
 62
     7
100
AcDbLine
 10
220.288234
 20
173.319049
 30
0.0
 11
219.891188
 21
173.716094
 31
0.0
  0
LINE
  5
13FB
100
AcDbEntity
  8
11000_LEFT
370
    25
390
0
  6
CONTINUOUS
 62
     7
100
AcDbLine
 10
220.397446
 20
173.774387
 30
0.0
 11
220.06731
 21
174.104522
 31
0.0
  0
LINE
  5
13FC
100
AcDbEntity
  8
11000_LEFT
370
    25
390
0
  6
CONTINUOUS
 62
     7
100
AcDbLine
 10
219.572336
 20
174.599498
 30
0.0
 11
219.2422
 21
174.929633
 31
0.0
  0
LINE
  5
13FD
100
AcDbEntity
  8
11000_LEFT
370
    25
390
0
  6
CONTINUOUS
 62
     7
100
AcDbLine
 10
220.25359
 20
173.630531
 30
0.0
 11
220.028777
 21
173.855342
 31
0.0
  0
LINE
  5
13FE
100
AcDbEntity
  8
11000_LEFT
370
    25
390
0
  6
CONTINUOUS
 62
     7
100
AcDbLine
 10
220.767123
 20
173.585822
 30
0.0
 11
220.627926
 21
173.725017
 31
0.0
  0
LINE
  5
13FF
100
AcDbEntity
  8
11000_LEFT
370
    25
390
0
  6
CONTINUOUS
 62
     7
100
AcDbLine
 10
219.192831
 20
175.160114
 30
0.0
 11
219.053634
 21
175.299308
 31
0.0
  0
LINE
  5
1400
100
AcDbEntity
  8
11000_LEFT
370
    25
390
0
  6
CONTINUOUS
 62
     7
100
AcDbLine
 10
219.453403
 20
174.521537
 30
0.0
 11
219.443396
 21
174.531543
 31
0.0
  0
LINE
  5
1401
100
AcDbEntity
  8
11000_LEFT
370
    25
390
0
  6
CONTINUOUS
 62
     7
100
AcDbLine
 10
219.975422
 20
173.999519
 30
0.0
 11
219.968864
 21
174.006076
 31
0.0
  0
LINE
  5
1402
100
AcDbEntity
  8
11000_LEFT
370
    25
390
0
  6
CONTINUOUS
 62
     7
100
AcDbLine
 10
220.013348
 20
173.961593
 30
0.0
 11
220.007335
 21
173.967605
 31
0.0
  0
LINE
  5
1403
100
AcDbEntity
  8
11000_LEFT
370
    25
390
0
  6
CONTINUOUS
 62
     7
100
AcDbLine
 10
219.415431
 20
174.559509
 30
0.0
 11
219.407102
 21
174.567836
 31
0.0
  0
LINE
  5
1404
100
AcDbEntity
  8
11000_LEFT
370
    25
390
0
  6
CONTINUOUS
 62
     7
100
AcDbLine
 10
220.01529
 20
174.03036
 30
0.0
 11
220.011607
 21
174.034042
 31
0.0
  0
LINE
  5
1405
100
AcDbEntity
  8
11000_LEFT
370
    25
390
0
  6
CONTINUOUS
 62
     7
100
AcDbLine
 10
220.022611
 20
174.02304
 30
0.0
 11
220.018959
 21
174.026691
 31
0.0
  0
LINE
  5
1406
100
AcDbEntity
  8
11000_LEFT
370
    25
390
0
  6
CONTINUOUS
 62
     7
100
AcDbLine
 10
220.036953
 20
174.008697
 30
0.0
 11
220.033416
 21
174.012233
 31
0.0
  0
LINE
  5
1407
100
AcDbEntity
  8
11000_LEFT
370
    25
390
0
  6
CONTINUOUS
 62
     7
100
AcDbLine
 10
220.040449
 20
174.005202
 30
0.0
 11
220.036953
 21
174.008697
 31
0.0
  0
LINE
  5
1408
100
AcDbEntity
  8
11000_LEFT
370
    25
390
0
  6
CONTINUOUS
 62
     7
100
AcDbLine
 10
219.473889
 20
174.501052
 30
0.0
 11
219.463598
 21
174.51134
 31
0.0
  0
LINE
  5
1409
100
AcDbEntity
  8
11000_LEFT
370
    25
390
0
  6
CONTINUOUS
 62
     7
100
AcDbLine
 10
219.43367
 20
174.54127
 30
0.0
 11
219.424317
 21
174.55062
 31
0.0
  0
LINE
  5
140A
100
AcDbEntity
  8
11000_LEFT
370
    25
390
0
  6
CONTINUOUS
 62
     7
100
AcDbLine
 10
220.030403
 20
173.944537
 30
0.0
 11
220.0249
 21
173.950038
 31
0.0
  0
LINE
  5
140B
100
AcDbEntity
  8
11000_LEFT
370
    25
390
0
  6
CONTINUOUS
 62
     7
100
AcDbLine
 10
219.994857
 20
173.980083
 30
0.0
 11
219.988446
 21
173.986491
 31
0.0
  0
LINE
  5
140C
100
AcDbEntity
  8
11000_LEFT
370
    25
390
0
  6
CONTINUOUS
 62
     7
100
AcDbLine
 10
219.505548
 20
174.540103
 30
0.0
 11
219.501857
 21
174.543792
 31
0.0
  0
LINE
  5
140D
100
AcDbEntity
  8
11000_LEFT
370
    25
390
0
  6
CONTINUOUS
 62
     7
100
AcDbLine
 10
219.494504
 20
174.551147
 30
0.0
 11
219.490852
 21
174.554797
 31
0.0
  0
LINE
  5
140E
100
AcDbEntity
  8
11000_LEFT
370
    25
390
0
  6
CONTINUOUS
 62
     7
100
AcDbLine
 10
220.029844
 20
174.015807
 30
0.0
 11
220.026241
 21
174.019408
 31
0.0
  0
LINE
  5
140F
100
AcDbEntity
  8
11000_LEFT
370
    25
390
0
  6
CONTINUOUS
 62
     7
100
AcDbLine
 10
219.487222
 20
174.558429
 30
0.0
 11
219.483619
 21
174.56203
 31
0.0
  0
LINE
  5
1410
100
AcDbEntity
  8
11000_LEFT
370
    25
390
0
  6
CONTINUOUS
 62
     7
100
AcDbLine
 10
219.47651
 20
174.569141
 30
0.0
 11
219.473014
 21
174.572635
 31
0.0
  0
LINE
  5
1411
100
AcDbEntity
  8
11000_LEFT
370
    25
390
0
  6
CONTINUOUS
 62
     7
100
AcDbLine
 10
220.293053
 20
173.314338
 30
0.0
 11
220.28828
 21
173.318908
 31
0.0
  0
LINE
  5
1412
100
AcDbEntity
  8
11000_LEFT
370
    25
390
0
  6
CONTINUOUS
 62
     7
100
AcDbLine
 10
219.797624
 20
173.825332
 30
0.0
 11
219.79276
 21
173.829971
 31
0.0
  0
LINE
  5
1413
100
AcDbEntity
  8
11000_LEFT
370
    25
390
0
  6
CONTINUOUS
 62
     7
100
AcDbLine
 10
219.2422
 20
174.929633
 30
0.0
 11
219.236088
 21
174.935451
 31
0.0
  0
LINE
  5
1414
100
AcDbEntity
  8
11000_LEFT
370
    25
390
0
  6
CONTINUOUS
 62
     7
100
AcDbLine
 10
220.293409
 20
173.314132
 30
0.0
 11
220.288234
 21
173.319049
 31
0.0
  0
LINE
  5
1415
100
AcDbEntity
  8
11000_LEFT
370
    25
390
0
  6
CONTINUOUS
 62
     7
100
AcDbLine
 10
219.330862
 20
175.020976
 30
0.0
 11
219.325354
 21
175.026042
 31
0.0
  0
LINE
  5
1416
100
AcDbEntity
  8
11000_LEFT
370
    25
390
0
  6
CONTINUOUS
 62
     7
100
AcDbLine
 10
219.236088
 20
174.935451
 30
0.0
 11
219.229883
 21
174.941119
 31
0.0
  0
LINE
  5
1417
100
AcDbEntity
  8
11000_LEFT
370
    25
390
0
  6
CONTINUOUS
 62
     7
100
AcDbLine
 10
219.229883
 20
174.941119
 30
0.0
 11
219.223603
 21
174.946632
 31
0.0
  0
LINE
  5
1418
100
AcDbEntity
  8
11000_LEFT
370
    25
390
0
  6
CONTINUOUS
 62
     7
100
AcDbLine
 10
220.298
 20
173.310012
 30
0.0
 11
220.293053
 21
173.314338
 31
0.0
  0
LINE
  5
1419
100
AcDbEntity
  8
11000_LEFT
370
    25
390
0
  6
CONTINUOUS
 62
     7
100
AcDbLine
 10
220.297698
 20
173.310382
 30
0.0
 11
220.293409
 21
173.314132
 31
0.0
  0
LINE
  5
141A
100
AcDbEntity
  8
11000_LEFT
370
    25
390
0
  6
CONTINUOUS
 62
     7
100
AcDbLine
 10
219.8027
 20
173.820922
 30
0.0
 11
219.797624
 21
173.825332
 31
0.0
  0
LINE
  5
141B
100
AcDbEntity
  8
11000_LEFT
370
    25
390
0
  6
CONTINUOUS
 62
     7
100
AcDbLine
 10
219.223603
 20
174.946632
 30
0.0
 11
219.217267
 21
174.951968
 31
0.0
  0
LINE
  5
141C
100
AcDbEntity
  8
11000_LEFT
370
    25
390
0
  6
CONTINUOUS
 62
     7
100
AcDbLine
 10
219.325354
 20
175.026042
 30
0.0
 11
219.319623
 21
175.030856
 31
0.0
  0
LINE
  5
141D
100
AcDbEntity
  8
11000_LEFT
370
    25
390
0
  6
CONTINUOUS
 62
     7
100
AcDbLine
 10
219.217267
 20
174.951968
 30
0.0
 11
219.210893
 21
174.957118
 31
0.0
  0
LINE
  5
141E
100
AcDbEntity
  8
11000_LEFT
370
    25
390
0
  6
CONTINUOUS
 62
     7
100
AcDbLine
 10
220.302965
 20
173.306167
 30
0.0
 11
220.297698
 21
173.310382
 31
0.0
  0
LINE
  5
141F
100
AcDbEntity
  8
11000_LEFT
370
    25
390
0
  6
CONTINUOUS
 62
     7
100
AcDbLine
 10
220.303335
 20
173.305782
 30
0.0
 11
220.298
 21
173.310012
 31
0.0
  0
LINE
  5
1420
100
AcDbEntity
  8
11000_LEFT
370
    25
390
0
  6
CONTINUOUS
 62
     7
100
AcDbLine
 10
219.807973
 20
173.816749
 30
0.0
 11
219.8027
 21
173.820922
 31
0.0
  0
LINE
  5
1421
100
AcDbEntity
  8
11000_LEFT
370
    25
390
0
  6
CONTINUOUS
 62
     7
100
AcDbLine
 10
219.210893
 20
174.957118
 30
0.0
 11
219.204499
 21
174.962066
 31
0.0
  0
LINE
  5
1422
100
AcDbEntity
  8
11000_LEFT
370
    25
390
0
  6
CONTINUOUS
 62
     7
100
AcDbLine
 10
220.305023
 20
173.304744
 30
0.0
 11
220.300004
 21
173.308627
 31
0.0
  0
LINE
  5
1423
100
AcDbEntity
  8
11000_LEFT
370
    25
390
0
  6
CONTINUOUS
 62
     7
100
AcDbLine
 10
220.300004
 20
173.308627
 30
0.0
 11
220.297656
 21
173.310443
 31
0.0
  0
LINE
  5
1424
100
AcDbEntity
  8
11000_LEFT
370
    25
390
0
  6
CONTINUOUS
 62
     7
100
AcDbLine
 10
219.319623
 20
175.030856
 30
0.0
 11
219.313686
 21
175.035415
 31
0.0
  0
LINE
  5
1425
100
AcDbEntity
  8
11000_LEFT
370
    25
390
0
  6
CONTINUOUS
 62
     7
100
AcDbLine
 10
219.204499
 20
174.962066
 30
0.0
 11
219.196551
 21
174.967918
 31
0.0
  0
LINE
  5
1426
100
AcDbEntity
  8
11000_LEFT
370
    25
390
0
  6
CONTINUOUS
 62
     7
100
AcDbLine
 10
220.309774
 20
173.301254
 30
0.0
 11
220.305023
 21
173.304744
 31
0.0
  0
LINE
  5
1427
100
AcDbEntity
  8
11000_LEFT
370
    25
390
0
  6
CONTINUOUS
 62
     7
100
AcDbLine
 10
220.309005
 20
173.301765
 30
0.0
 11
220.302965
 21
173.306167
 31
0.0
  0
LINE
  5
1428
100
AcDbEntity
  8
11000_LEFT
370
    25
390
0
  6
CONTINUOUS
 62
     7
100
AcDbLine
 10
220.309143
 20
173.301589
 30
0.0
 11
220.303335
 21
173.305782
 31
0.0
  0
LINE
  5
1429
100
AcDbEntity
  8
11000_LEFT
370
    25
390
0
  6
CONTINUOUS
 62
     7
100
AcDbLine
 10
219.813432
 20
173.812816
 30
0.0
 11
219.807973
 21
173.816749
 31
0.0
  0
LINE
  5
142A
100
AcDbEntity
  8
11000_LEFT
370
    25
390
0
  6
CONTINUOUS
 62
     7
100
AcDbLine
 10
219.313686
 20
175.035415
 30
0.0
 11
219.30756
 21
175.039706
 31
0.0
  0
LINE
  5
142B
100
AcDbEntity
  8
11000_LEFT
370
    25
390
0
  6
CONTINUOUS
 62
     7
100
AcDbLine
 10
219.196551
 20
174.967918
 30
0.0
 11
219.188637
 21
174.973411
 31
0.0
  0
LINE
  5
142C
100
AcDbEntity
  8
11000_LEFT
370
    25
390
0
  6
CONTINUOUS
 62
     7
100
AcDbLine
 10
220.314716
 20
173.298007
 30
0.0
 11
220.309005
 21
173.301765
 31
0.0
  0
LINE
  5
142D
100
AcDbEntity
  8
11000_LEFT
370
    25
390
0
  6
CONTINUOUS
 62
     7
100
AcDbLine
 10
220.314578
 20
173.298026
 30
0.0
 11
220.309143
 21
173.301589
 31
0.0
  0
LINE
  5
142E
100
AcDbEntity
  8
11000_LEFT
370
    25
390
0
  6
CONTINUOUS
 62
     7
100
AcDbLine
 10
219.819062
 20
173.809131
 30
0.0
 11
219.813432
 21
173.812816
 31
0.0
  0
LINE
  5
142F
100
AcDbEntity
  8
11000_LEFT
370
    25
390
0
  6
CONTINUOUS
 62
     7
100
AcDbLine
 10
219.188637
 20
174.973411
 30
0.0
 11
219.180793
 21
174.978519
 31
0.0
  0
LINE
  5
1430
100
AcDbEntity
  8
11000_LEFT
370
    25
390
0
  6
CONTINUOUS
 62
     7
100
AcDbLine
 10
219.30756
 20
175.039706
 30
0.0
 11
219.301264
 21
175.043723
 31
0.0
  0
LINE
  5
1431
100
AcDbEntity
  8
11000_LEFT
370
    25
390
0
  6
CONTINUOUS
 62
     7
100
AcDbLine
 10
220.314901
 20
173.298045
 30
0.0
 11
220.309774
 21
173.301254
 31
0.0
  0
LINE
  5
1432
100
AcDbEntity
  8
11000_LEFT
370
    25
390
0
  6
CONTINUOUS
 62
     7
100
AcDbLine
 10
219.180793
 20
174.978519
 30
0.0
 11
219.173054
 21
174.983218
 31
0.0
  0
LINE
  5
1433
100
AcDbEntity
  8
11000_LEFT
370
    25
390
0
  6
CONTINUOUS
 62
     7
100
AcDbLine
 10
210.816574
 20
196.944446
 30
0.0
 11
210.645003
 21
197.047221
 31
0.0
  0
LINE
  5
1434
100
AcDbEntity
  8
11000_LEFT
370
    25
390
0
  6
CONTINUOUS
 62
     7
100
AcDbLine
 10
220.32036
 20
173.294589
 30
0.0
 11
220.314578
 21
173.298026
 31
0.0
  0
LINE
  5
1435
100
AcDbEntity
  8
11000_LEFT
370
    25
390
0
  6
CONTINUOUS
 62
     7
100
AcDbLine
 10
219.82485
 20
173.805698
 30
0.0
 11
219.819062
 21
173.809131
 31
0.0
  0
LINE
  5
1436
100
AcDbEntity
  8
11000_LEFT
370
    25
390
0
  6
CONTINUOUS
 62
     7
100
AcDbLine
 10
220.323362
 20
173.29304
 30
0.0
 11
220.32065
 21
173.294646
 31
0.0
  0
LINE
  5
1437
100
AcDbEntity
  8
11000_LEFT
370
    25
390
0
  6
CONTINUOUS
 62
     7
100
AcDbLine
 10
220.32065
 20
173.294646
 30
0.0
 11
220.314901
 21
173.298045
 31
0.0
  0
LINE
  5
1438
100
AcDbEntity
  8
11000_LEFT
370
    25
390
0
  6
CONTINUOUS
 62
     7
100
AcDbLine
 10
220.320344
 20
173.294685
 30
0.0
 11
220.314716
 21
173.298007
 31
0.0
  0
LINE
  5
1439
100
AcDbEntity
  8
11000_LEFT
370
    25
390
0
  6
CONTINUOUS
 62
     7
100
AcDbLine
 10
219.301264
 20
175.043723
 30
0.0
 11
219.294815
 21
175.047458
 31
0.0
  0
LINE
  5
143A
100
AcDbEntity
  8
11000_LEFT
370
    25
390
0
  6
CONTINUOUS
 62
     7
100
AcDbLine
 10
219.173054
 20
174.983218
 30
0.0
 11
219.165456
 21
174.987479
 31
0.0
  0
LINE
  5
143B
100
AcDbEntity
  8
11000_LEFT
370
    25
390
0
  6
CONTINUOUS
 62
     7
100
AcDbLine
 10
220.326163
 20
173.291473
 30
0.0
 11
220.32036
 21
173.294589
 31
0.0
  0
LINE
  5
143C
100
AcDbEntity
  8
11000_LEFT
370
    25
390
0
  6
CONTINUOUS
 62
     7
100
AcDbLine
 10
219.830784
 20
173.80252
 30
0.0
 11
219.82485
 21
173.805698
 31
0.0
  0
LINE
  5
143D
100
AcDbEntity
  8
11000_LEFT
370
    25
390
0
  6
CONTINUOUS
 62
     7
100
AcDbLine
 10
220.326171
 20
173.291572
 30
0.0
 11
220.320344
 21
173.294685
 31
0.0
  0
LINE
  5
143E
100
AcDbEntity
  8
11000_LEFT
370
    25
390
0
  6
CONTINUOUS
 62
     7
100
AcDbLine
 10
219.294815
 20
175.047458
 30
0.0
 11
219.288231
 21
175.050906
 31
0.0
  0
LINE
  5
143F
100
AcDbEntity
  8
11000_LEFT
370
    25
390
0
  6
CONTINUOUS
 62
     7
100
AcDbLine
 10
219.165456
 20
174.987479
 30
0.0
 11
219.158034
 21
174.991275
 31
0.0
  0
LINE
  5
1440
100
AcDbEntity
  8
11000_LEFT
370
    25
390
0
  6
CONTINUOUS
 62
     7
100
AcDbLine
 10
219.836849
 20
173.799606
 30
0.0
 11
219.830784
 21
173.80252
 31
0.0
  0
LINE
  5
1441
100
AcDbEntity
  8
11000_LEFT
370
    25
390
0
  6
CONTINUOUS
 62
     7
100
AcDbLine
 10
220.332052
 20
173.288646
 30
0.0
 11
220.326163
 21
173.291473
 31
0.0
  0
LINE
  5
1442
100
AcDbEntity
  8
11000_LEFT
370
    25
390
0
  6
CONTINUOUS
 62
     7
100
AcDbLine
 10
220.332245
 20
173.288676
 30
0.0
 11
220.326171
 21
173.291572
 31
0.0
  0
LINE
  5
1443
100
AcDbEntity
  8
11000_LEFT
370
    25
390
0
  6
CONTINUOUS
 62
     7
100
AcDbLine
 10
219.288231
 20
175.050906
 30
0.0
 11
219.281529
 21
175.054057
 31
0.0
  0
LINE
  5
1444
100
AcDbEntity
  8
11000_LEFT
370
    25
390
0
  6
CONTINUOUS
 62
     7
100
AcDbLine
 10
205.912025
 20
196.288093
 30
0.0
 11
205.730762
 21
196.372619
 31
0.0
  0
LINE
  5
1445
100
AcDbEntity
  8
11000_LEFT
370
    25
390
0
  6
CONTINUOUS
 62
     7
100
AcDbLine
 10
203.8
 20
191.758846
 30
0.0
 11
203.618739
 21
191.843368
 31
0.0
  0
LINE
  5
1446
100
AcDbEntity
  8
11000_LEFT
370
    25
390
0
  6
CONTINUOUS
 62
     7
100
AcDbLine
 10
219.158034
 20
174.991275
 30
0.0
 11
219.150824
 21
174.994582
 31
0.0
  0
LINE
  5
1447
100
AcDbEntity
  8
11000_LEFT
370
    25
390
0
  6
CONTINUOUS
 62
     7
100
AcDbLine
 10
219.843033
 20
173.796954
 30
0.0
 11
219.836849
 21
173.799606
 31
0.0
  0
LINE
  5
1448
100
AcDbEntity
  8
11000_LEFT
370
    25
390
0
  6
CONTINUOUS
 62
     7
100
AcDbLine
 10
220.338264
 20
173.285995
 30
0.0
 11
220.332052
 21
173.288646
 31
0.0
  0
LINE
  5
1449
100
AcDbEntity
  8
11000_LEFT
370
    25
390
0
  6
CONTINUOUS
 62
     7
100
AcDbLine
 10
220.338499
 20
173.286033
 30
0.0
 11
220.332245
 21
173.288676
 31
0.0
  0
LINE
  5
144A
100
AcDbEntity
  8
11000_LEFT
370
    25
390
0
  6
CONTINUOUS
 62
     7
100
AcDbLine
 10
218.786843
 20
174.820426
 30
0.0
 11
218.786824
 21
174.820434
 31
0.0
  0
LINE
  5
144B
100
AcDbEntity
  8
11000_LEFT
370
    25
390
0
  6
CONTINUOUS
 62
     7
100
AcDbLine
 10
219.281529
 20
175.054057
 30
0.0
 11
219.274729
 21
175.056907
 31
0.0
  0
LINE
  5
144C
100
AcDbEntity
  8
11000_LEFT
370
    25
390
0
  6
CONTINUOUS
 62
     7
100
AcDbLine
 10
219.150824
 20
174.994582
 30
0.0
 11
219.143861
 21
174.997371
 31
0.0
  0
LINE
  5
144D
100
AcDbEntity
  8
11000_LEFT
370
    25
390
0
  6
CONTINUOUS
 62
     7
100
AcDbLine
 10
218.786803
 20
174.820441
 30
0.0
 11
218.786783
 21
174.820449
 31
0.0
  0
LINE
  5
144E
100
AcDbEntity
  8
11000_LEFT
370
    25
390
0
  6
CONTINUOUS
 62
     7
100
AcDbLine
 10
218.786762
 20
174.820453
 30
0.0
 11
218.786742
 21
174.820461
 31
0.0
  0
LINE
  5
144F
100
AcDbEntity
  8
11000_LEFT
370
    25
390
0
  6
CONTINUOUS
 62
     7
100
AcDbLine
 10
219.849322
 20
173.794578
 30
0.0
 11
219.843033
 21
173.796954
 31
0.0
  0
LINE
  5
1450
100
AcDbEntity
  8
11000_LEFT
370
    25
390
0
  6
CONTINUOUS
 62
     7
100
AcDbLine
 10
220.344572
 20
173.283622
 30
0.0
 11
220.338264
 21
173.285995
 31
0.0
  0
LINE
  5
1451
100
AcDbEntity
  8
11000_LEFT
370
    25
390
0
  6
CONTINUOUS
 62
     7
100
AcDbLine
 10
220.34487
 20
173.283656
 30
0.0
 11
220.338499
 21
173.286033
 31
0.0
  0
LINE
  5
1452
100
AcDbEntity
  8
11000_LEFT
370
    25
390
0
  6
CONTINUOUS
 62
     7
100
AcDbLine
 10
219.323155
 20
174.560966
 30
0.0
 11
219.3229
 21
174.561061
 31
0.0
  0
LINE
  5
1453
100
AcDbEntity
  8
11000_LEFT
370
    25
390
0
  6
CONTINUOUS
 62
     7
100
AcDbLine
 10
219.274729
 20
175.056907
 30
0.0
 11
219.267846
 21
175.059444
 31
0.0
  0
LINE
  5
1454
100
AcDbEntity
  8
11000_LEFT
370
    25
390
0
  6
CONTINUOUS
 62
     7
100
AcDbLine
 10
204.61995
 20
176.355834
 30
0.0
 11
202.753026
 21
176.998668
 31
0.0
  0
LINE
  5
1455
100
AcDbEntity
  8
11000_LEFT
370
    25
390
0
  6
CONTINUOUS
 62
     7
100
AcDbLine
 10
205.514936
 20
178.955062
 30
0.0
 11
203.837115
 21
179.532783
 31
0.0
  0
LINE
  5
1456
100
AcDbEntity
  8
11000_LEFT
370
    25
390
0
  6
CONTINUOUS
 62
     7
100
AcDbLine
 10
205.580049
 20
179.144164
 30
0.0
 11
203.713124
 21
179.786998
 31
0.0
  0
LINE
  5
1457
100
AcDbEntity
  8
11000_LEFT
370
    25
390
0
  6
CONTINUOUS
 62
     7
100
AcDbLine
 10
204.685064
 20
176.54494
 30
0.0
 11
203.007243
 21
177.122657
 31
0.0
  0
LINE
  5
1458
100
AcDbEntity
  8
11000_LEFT
370
    25
390
0
  6
CONTINUOUS
 62
     7
100
AcDbLine
 10
219.3229
 20
174.561061
 30
0.0
 11
219.322655
 21
174.561145
 31
0.0
  0
LINE
  5
1459
100
AcDbEntity
  8
11000_LEFT
370
    25
390
0
  6
CONTINUOUS
 62
     7
100
AcDbLine
 10
219.143861
 20
174.997371
 30
0.0
 11
219.137181
 21
174.999618
 31
0.0
  0
LINE
  5
145A
100
AcDbEntity
  8
11000_LEFT
370
    25
390
0
  6
CONTINUOUS
 62
     7
100
AcDbLine
 10
218.786824
 20
174.820434
 30
0.0
 11
218.786803
 21
174.820441
 31
0.0
  0
LINE
  5
145B
100
AcDbEntity
  8
11000_LEFT
370
    25
390
0
  6
CONTINUOUS
 62
     7
100
AcDbLine
 10
218.786742
 20
174.820461
 30
0.0
 11
218.786721
 21
174.820468
 31
0.0
  0
LINE
  5
145C
100
AcDbEntity
  8
11000_LEFT
370
    25
390
0
  6
CONTINUOUS
 62
     7
100
AcDbLine
 10
219.855703
 20
173.79248
 30
0.0
 11
219.849322
 21
173.794578
 31
0.0
  0
LINE
  5
145D
100
AcDbEntity
  8
11000_LEFT
370
    25
390
0
  6
CONTINUOUS
 62
     7
100
AcDbLine
 10
220.35094
 20
173.281551
 30
0.0
 11
220.344572
 21
173.283622
 31
0.0
  0
LINE
  5
145E
100
AcDbEntity
  8
11000_LEFT
370
    25
390
0
  6
CONTINUOUS
 62
     7
100
AcDbLine
 10
220.351295
 20
173.28157
 30
0.0
 11
220.34487
 21
173.283656
 31
0.0
  0
LINE
  5
145F
100
AcDbEntity
  8
11000_LEFT
370
    25
390
0
  6
CONTINUOUS
 62
     7
100
AcDbLine
 10
219.267846
 20
175.059444
 30
0.0
 11
219.2609
 21
175.06166
 31
0.0
  0
LINE
  5
1460
100
AcDbEntity
  8
11000_LEFT
370
    25
390
0
  6
CONTINUOUS
 62
     7
100
AcDbLine
 10
219.32413
 20
174.560672
 30
0.0
 11
219.323154
 21
174.56097
 31
0.0
  0
LINE
  5
1461
100
AcDbEntity
  8
11000_LEFT
370
    25
390
0
  6
CONTINUOUS
 62
     7
100
AcDbLine
 10
218.784126
 20
174.821132
 30
0.0
 11
218.781966
 21
174.821788
 31
0.0
  0
LINE
  5
1462
100
AcDbEntity
  8
11000_LEFT
370
    25
390
0
  6
CONTINUOUS
 62
     7
100
AcDbLine
 10
218.759474
 20
174.827815
 30
0.0
 11
218.750427
 21
174.830428
 31
0.0
  0
LINE
  5
1463
100
AcDbEntity
  8
11000_LEFT
370
    25
390
0
  6
CONTINUOUS
 62
     7
100
AcDbLine
 10
218.776285
 20
174.823257
 30
0.0
 11
218.771811
 21
174.824546
 31
0.0
  0
LINE
  5
1464
100
AcDbEntity
  8
11000_LEFT
370
    25
390
0
  6
CONTINUOUS
 62
     7
100
AcDbLine
 10
218.786721
 20
174.820468
 30
0.0
 11
218.78556
 21
174.820796
 31
0.0
  0
LINE
  5
1465
100
AcDbEntity
  8
11000_LEFT
370
    25
390
0
  6
CONTINUOUS
 62
     7
100
AcDbLine
 10
219.862163
 20
173.79066
 30
0.0
 11
219.855703
 21
173.79248
 31
0.0
  0
LINE
  5
1466
100
AcDbEntity
  8
11000_LEFT
370
    25
390
0
  6
CONTINUOUS
 62
     7
100
AcDbLine
 10
218.771811
 20
174.824546
 30
0.0
 11
218.766226
 21
174.826118
 31
0.0
  0
LINE
  5
1467
100
AcDbEntity
  8
11000_LEFT
370
    25
390
0
  6
CONTINUOUS
 62
     7
100
AcDbLine
 10
220.35771
 20
173.279788
 30
0.0
 11
220.351295
 21
173.28157
 31
0.0
  0
LINE
  5
1468
100
AcDbEntity
  8
11000_LEFT
370
    25
390
0
  6
CONTINUOUS
 62
     7
100
AcDbLine
 10
220.357521
 20
173.279746
 30
0.0
 11
220.35094
 21
173.281551
 31
0.0
  0
LINE
  5
1469
100
AcDbEntity
  8
11000_LEFT
370
    25
390
0
  6
CONTINUOUS
 62
     7
100
AcDbLine
 10
218.739489
 20
174.833343
 30
0.0
 11
218.726235
 21
174.836959
 31
0.0
  0
LINE
  5
146A
100
AcDbEntity
  8
11000_LEFT
370
    25
390
0
  6
CONTINUOUS
 62
     7
100
AcDbLine
 10
218.781966
 20
174.821788
 30
0.0
 11
218.779432
 21
174.822475
 31
0.0
  0
LINE
  5
146B
100
AcDbEntity
  8
11000_LEFT
370
    25
390
0
  6
CONTINUOUS
 62
     7
100
AcDbLine
 10
219.2609
 20
175.06166
 30
0.0
 11
219.253908
 21
175.063552
 31
0.0
  0
LINE
  5
146C
100
AcDbEntity
  8
11000_LEFT
370
    25
390
0
  6
CONTINUOUS
 62
     7
100
AcDbLine
 10
218.750427
 20
174.830428
 30
0.0
 11
218.739489
 21
174.833343
 31
0.0
  0
LINE
  5
146D
100
AcDbEntity
  8
11000_LEFT
370
    25
390
0
  6
CONTINUOUS
 62
     7
100
AcDbLine
 10
219.137181
 20
174.999618
 30
0.0
 11
219.130825
 21
175.0013
 31
0.0
  0
LINE
  5
146E
100
AcDbEntity
  8
11000_LEFT
370
    25
390
0
  6
CONTINUOUS
 62
     7
100
AcDbLine
 10
219.322655
 20
174.561145
 30
0.0
 11
219.322439
 21
174.561202
 31
0.0
  0
LINE
  5
146F
100
AcDbEntity
  8
11000_LEFT
370
    25
390
0
  6
CONTINUOUS
 62
     7
100
AcDbLine
 10
218.766226
 20
174.826118
 30
0.0
 11
218.759474
 21
174.827815
 31
0.0
  0
LINE
  5
1470
100
AcDbEntity
  8
11000_LEFT
370
    25
390
0
  6
CONTINUOUS
 62
     7
100
AcDbLine
 10
218.779432
 20
174.822475
 30
0.0
 11
218.776285
 21
174.823257
 31
0.0
  0
LINE
  5
1471
100
AcDbEntity
  8
11000_LEFT
370
    25
390
0
  6
CONTINUOUS
 62
     7
100
AcDbLine
 10
219.868688
 20
173.789127
 30
0.0
 11
219.862163
 21
173.79066
 31
0.0
  0
LINE
  5
1472
100
AcDbEntity
  8
11000_LEFT
370
    25
390
0
  6
CONTINUOUS
 62
     7
100
AcDbLine
 10
218.78556
 20
174.820796
 30
0.0
 11
218.784126
 21
174.821132
 31
0.0
  0
LINE
  5
1473
100
AcDbEntity
  8
11000_LEFT
370
    25
390
0
  6
CONTINUOUS
 62
     7
100
AcDbLine
 10
220.364053
 20
173.278335
 30
0.0
 11
220.35771
 21
173.279788
 31
0.0
  0
LINE
  5
1474
100
AcDbEntity
  8
11000_LEFT
370
    25
390
0
  6
CONTINUOUS
 62
     7
100
AcDbLine
 10
220.364389
 20
173.27819
 30
0.0
 11
220.357521
 21
173.279746
 31
0.0
  0
LINE
  5
1475
100
AcDbEntity
  8
11000_LEFT
370
    25
390
0
  6
CONTINUOUS
 62
     7
100
AcDbLine
 10
219.253908
 20
175.063552
 30
0.0
 11
219.246887
 21
175.065112
 31
0.0
  0
LINE
  5
1476
100
AcDbEntity
  8
11000_LEFT
370
    25
390
0
  6
CONTINUOUS
 62
     7
100
AcDbLine
 10
218.786863
 20
174.820422
 30
0.0
 11
218.786843
 21
174.820426
 31
0.0
  0
LINE
  5
1477
100
AcDbEntity
  8
11000_LEFT
370
    25
390
0
  6
CONTINUOUS
 62
     7
100
AcDbLine
 10
218.786783
 20
174.820449
 30
0.0
 11
218.786762
 21
174.820453
 31
0.0
  0
LINE
  5
1478
100
AcDbEntity
  8
11000_LEFT
370
    25
390
0
  6
CONTINUOUS
 62
     7
100
AcDbLine
 10
219.875266
 20
173.787887
 30
0.0
 11
219.868688
 21
173.789127
 31
0.0
  0
LINE
  5
1479
100
AcDbEntity
  8
11000_LEFT
370
    25
390
0
  6
CONTINUOUS
 62
     7
100
AcDbLine
 10
219.130825
 20
175.0013
 30
0.0
 11
219.124859
 21
175.002418
 31
0.0
  0
LINE
  5
147A
100
AcDbEntity
  8
11000_LEFT
370
    25
390
0
  6
CONTINUOUS
 62
     7
100
AcDbLine
 10
220.370978
 20
173.277003
 30
0.0
 11
220.364389
 21
173.27819
 31
0.0
  0
LINE
  5
147B
100
AcDbEntity
  8
11000_LEFT
370
    25
390
0
  6
CONTINUOUS
 62
     7
100
AcDbLine
 10
220.37047
 20
173.277183
 30
0.0
 11
220.364053
 21
173.278335
 31
0.0
  0
LINE
  5
147C
100
AcDbEntity
  8
11000_LEFT
370
    25
390
0
  6
CONTINUOUS
 62
     7
100
AcDbLine
 10
219.246887
 20
175.065112
 30
0.0
 11
219.239856
 21
175.066325
 31
0.0
  0
LINE
  5
147D
100
AcDbEntity
  8
11000_LEFT
370
    25
390
0
  6
CONTINUOUS
 62
     7
100
AcDbLine
 10
218.7869
 20
175.032386
 30
0.0
 11
218.786875
 21
175.03239
 31
0.0
  0
LINE
  5
147E
100
AcDbEntity
  8
11000_LEFT
370
    25
390
0
  6
CONTINUOUS
 62
     7
100
AcDbLine
 10
218.78685
 20
175.03239
 30
0.0
 11
218.786825
 21
175.032394
 31
0.0
  0
LINE
  5
147F
100
AcDbEntity
  8
11000_LEFT
370
    25
390
0
  6
CONTINUOUS
 62
     7
100
AcDbLine
 10
219.881883
 20
173.786945
 30
0.0
 11
219.875266
 21
173.787887
 31
0.0
  0
LINE
  5
1480
100
AcDbEntity
  8
11000_LEFT
370
    25
390
0
  6
CONTINUOUS
 62
     7
100
AcDbLine
 10
219.32558
 20
174.56047
 30
0.0
 11
219.32413
 21
174.560672
 31
0.0
  0
LINE
  5
1481
100
AcDbEntity
  8
11000_LEFT
370
    25
390
0
  6
CONTINUOUS
 62
     7
100
AcDbLine
 10
220.377523
 20
173.276118
 30
0.0
 11
220.370978
 21
173.277003
 31
0.0
  0
LINE
  5
1482
100
AcDbEntity
  8
11000_LEFT
370
    25
390
0
  6
CONTINUOUS
 62
     7
100
AcDbLine
 10
220.37707
 20
173.276305
 30
0.0
 11
220.37047
 21
173.277183
 31
0.0
  0
LINE
  5
1483
100
AcDbEntity
  8
11000_LEFT
370
    25
390
0
  6
CONTINUOUS
 62
     7
100
AcDbLine
 10
219.239856
 20
175.066325
 30
0.0
 11
219.232832
 21
175.067195
 31
0.0
  0
LINE
  5
1484
100
AcDbEntity
  8
11000_LEFT
370
    25
390
0
  6
CONTINUOUS
 62
     7
100
AcDbLine
 10
219.322439
 20
174.561202
 30
0.0
 11
219.322251
 21
174.561225
 31
0.0
  0
LINE
  5
1485
100
AcDbEntity
  8
11000_LEFT
370
    25
390
0
  6
CONTINUOUS
 62
     7
100
AcDbLine
 10
218.7868
 20
175.032394
 30
0.0
 11
218.786774
 21
175.032397
 31
0.0
  0
LINE
  5
1486
100
AcDbEntity
  8
11000_LEFT
370
    25
390
0
  6
CONTINUOUS
 62
     7
100
AcDbLine
 10
219.098344
 20
174.785777
 30
0.0
 11
218.786863
 21
174.820422
 31
0.0
  0
LINE
  5
1487
100
AcDbEntity
  8
11000_LEFT
370
    25
390
0
  6
CONTINUOUS
 62
     7
100
AcDbLine
 10
219.09838
 20
174.997745
 30
0.0
 11
218.7869
 21
175.032386
 31
0.0
  0
LINE
  5
1488
100
AcDbEntity
  8
11000_LEFT
370
    25
390
0
  6
CONTINUOUS
 62
     7
100
AcDbLine
 10
219.124859
 20
175.002418
 30
0.0
 11
219.119306
 21
175.002979
 31
0.0
  0
LINE
  5
1489
100
AcDbEntity
  8
11000_LEFT
370
    25
390
0
  6
CONTINUOUS
 62
     7
100
AcDbLine
 10
219.888525
 20
173.786304
 30
0.0
 11
219.881883
 21
173.786945
 31
0.0
  0
LINE
  5
148A
100
AcDbEntity
  8
11000_LEFT
370
    25
390
0
  6
CONTINUOUS
 62
     7
100
AcDbLine
 10
220.3838
 20
173.275706
 30
0.0
 11
220.37707
 21
173.276305
 31
0.0
  0
LINE
  5
148B
100
AcDbEntity
  8
11000_LEFT
370
    25
390
0
  6
CONTINUOUS
 62
     7
100
AcDbLine
 10
220.384121
 20
173.275531
 30
0.0
 11
220.377523
 21
173.276118
 31
0.0
  0
LINE
  5
148C
100
AcDbEntity
  8
11000_LEFT
370
    25
390
0
  6
CONTINUOUS
 62
     7
100
AcDbLine
 10
219.232832
 20
175.067195
 30
0.0
 11
219.225814
 21
175.067702
 31
0.0
  0
LINE
  5
148D
100
AcDbEntity
  8
11000_LEFT
370
    25
390
0
  6
CONTINUOUS
 62
     7
100
AcDbLine
 10
219.327495
 20
174.560371
 30
0.0
 11
219.32558
 21
174.56047
 31
0.0
  0
LINE
  5
148E
100
AcDbEntity
  8
11000_LEFT
370
    25
390
0
  6
CONTINUOUS
 62
     7
100
AcDbLine
 10
219.89518
 20
173.785972
 30
0.0
 11
219.888525
 21
173.786304
 31
0.0
  0
LINE
  5
148F
100
AcDbEntity
  8
11000_LEFT
370
    25
390
0
  6
CONTINUOUS
 62
     7
100
AcDbLine
 10
220.390607
 20
173.275397
 30
0.0
 11
220.3838
 21
173.275706
 31
0.0
  0
LINE
  5
1490
100
AcDbEntity
  8
11000_LEFT
370
    25
390
0
  6
CONTINUOUS
 62
     7
100
AcDbLine
 10
220.390865
 20
173.275241
 30
0.0
 11
220.384121
 21
173.275531
 31
0.0
  0
LINE
  5
1491
100
AcDbEntity
  8
11000_LEFT
370
    25
390
0
  6
CONTINUOUS
 62
     7
100
AcDbLine
 10
219.225814
 20
175.067702
 30
0.0
 11
219.218714
 21
175.067825
 31
0.0
  0
LINE
  5
1492
100
AcDbEntity
  8
11000_LEFT
370
    25
390
0
  6
CONTINUOUS
 62
     7
100
AcDbLine
 10
219.119306
 20
175.002979
 30
0.0
 11
219.114185
 21
175.002998
 31
0.0
  0
LINE
  5
1493
100
AcDbEntity
  8
11000_LEFT
370
    25
390
0
  6
CONTINUOUS
 62
     7
100
AcDbLine
 10
219.901852
 20
173.785953
 30
0.0
 11
219.89518
 21
173.785972
 31
0.0
  0
LINE
  5
1494
100
AcDbEntity
  8
11000_LEFT
370
    25
390
0
  6
CONTINUOUS
 62
     7
100
AcDbLine
 10
220.397439
 20
173.275378
 30
0.0
 11
220.390607
 21
173.275397
 31
0.0
  0
LINE
  5
1495
100
AcDbEntity
  8
11000_LEFT
370
    25
390
0
  6
CONTINUOUS
 62
     7
100
AcDbLine
 10
213.0
 20
137.0
 30
0.0
 11
214.0
 21
137.0
 31
0.0
  0
LINE
  5
1496
100
AcDbEntity
  8
11000_LEFT
370
    25
390
0
  6
CONTINUOUS
 62
     7
100
AcDbLine
 10
213.0
 20
137.5
 30
0.0
 11
214.0
 21
137.5
 31
0.0
  0
LINE
  5
1497
100
AcDbEntity
  8
11000_LEFT
370
    25
390
0
  6
CONTINUOUS
 62
     7
100
AcDbLine
 10
205.900001
 20
139.45
 30
0.0
 11
210.218629
 21
139.45
 31
0.0
  0
LINE
  5
1498
100
AcDbEntity
  8
11000_LEFT
370
    25
390
0
  6
CONTINUOUS
 62
     7
100
AcDbLine
 10
209.241429
 20
140.45
 30
0.0
 11
223.862693
 21
140.45
 31
0.0
  0
LINE
  5
1499
100
AcDbEntity
  8
11000_LEFT
370
    25
390
0
  6
CONTINUOUS
 62
     7
100
AcDbLine
 10
209.241429
 20
140.65
 30
0.0
 11
224.209104
 21
140.65
 31
0.0
  0
LINE
  5
149A
100
AcDbEntity
  8
11000_LEFT
370
    25
390
0
  6
CONTINUOUS
 62
     7
100
AcDbLine
 10
209.7
 20
141.2
 30
0.0
 11
213.8
 21
141.2
 31
0.0
  0
LINE
  5
149B
100
AcDbEntity
  8
11000_LEFT
370
    25
390
0
  6
CONTINUOUS
 62
     7
100
AcDbLine
 10
220.0
 20
141.2
 30
0.0
 11
221.8
 21
141.2
 31
0.0
  0
LINE
  5
149C
100
AcDbEntity
  8
11000_LEFT
370
    25
390
0
  6
CONTINUOUS
 62
     7
100
AcDbLine
 10
209.7
 20
141.35
 30
0.0
 11
213.8
 21
141.35
 31
0.0
  0
LINE
  5
149D
100
AcDbEntity
  8
11000_LEFT
370
    25
390
0
  6
CONTINUOUS
 62
     7
100
AcDbLine
 10
221.3
 20
141.35
 30
0.0
 11
221.8
 21
141.35
 31
0.0
  0
LINE
  5
149E
100
AcDbEntity
  8
11000_LEFT
370
    25
390
0
  6
CONTINUOUS
 62
     7
100
AcDbLine
 10
210.2
 20
141.85
 30
0.0
 11
213.3
 21
141.85
 31
0.0
  0
LINE
  5
149F
100
AcDbEntity
  8
11000_LEFT
370
    25
390
0
  6
CONTINUOUS
 62
     7
100
AcDbLine
 10
221.3
 20
141.85
 30
0.0
 11
221.6
 21
141.85
 31
0.0
  0
LINE
  5
14A0
100
AcDbEntity
  8
11000_LEFT
370
    25
390
0
  6
CONTINUOUS
 62
     7
100
AcDbLine
 10
209.7
 20
142.65
 30
0.0
 11
213.8
 21
142.65
 31
0.0
  0
LINE
  5
14A1
100
AcDbEntity
  8
11000_LEFT
370
    25
390
0
  6
CONTINUOUS
 62
     7
100
AcDbLine
 10
220.0
 20
142.65
 30
0.0
 11
221.8
 21
142.65
 31
0.0
  0
LINE
  5
14A2
100
AcDbEntity
  8
11000_LEFT
370
    25
390
0
  6
CONTINUOUS
 62
     7
100
AcDbLine
 10
196.900001
 20
143.45
 30
0.0
 11
202.016471
 21
143.45
 31
0.0
  0
LINE
  5
14A3
100
AcDbEntity
  8
11000_LEFT
370
    25
390
0
  6
CONTINUOUS
 62
     7
100
AcDbLine
 10
198.3
 20
143.65
 30
0.0
 11
202.016471
 21
143.65
 31
0.0
  0
LINE
  5
14A4
100
AcDbEntity
  8
11000_LEFT
370
    25
390
0
  6
CONTINUOUS
 62
     7
100
AcDbLine
 10
207.65
 20
144.65
 30
0.0
 11
207.85
 21
144.65
 31
0.0
  0
LINE
  5
14A5
100
AcDbEntity
  8
11000_LEFT
370
    25
390
0
  6
CONTINUOUS
 62
     7
100
AcDbLine
 10
204.95
 20
144.65
 30
0.0
 11
205.150001
 21
144.65
 31
0.0
  0
LINE
  5
14A6
100
AcDbEntity
  8
11000_LEFT
370
    25
390
0
  6
CONTINUOUS
 62
     7
100
AcDbLine
 10
198.3
 20
146.25
 30
0.0
 11
198.499999
 21
146.25
 31
0.0
  0
LINE
  5
14A7
100
AcDbEntity
  8
11000_LEFT
370
    25
390
0
  6
CONTINUOUS
 62
     7
100
AcDbLine
 10
197.3
 20
146.45
 30
0.0
 11
198.1
 21
146.45
 31
0.0
  0
LINE
  5
14A8
100
AcDbEntity
  8
11000_LEFT
370
    25
390
0
  6
CONTINUOUS
 62
     7
100
AcDbLine
 10
197.1
 20
146.65
 30
0.0
 11
198.1
 21
146.65
 31
0.0
  0
LINE
  5
14A9
100
AcDbEntity
  8
11000_LEFT
370
    25
390
0
  6
CONTINUOUS
 62
     7
100
AcDbLine
 10
197.85
 20
149.35
 30
0.0
 11
199.3
 21
149.35
 31
0.0
  0
LINE
  5
14AA
100
AcDbEntity
  8
11000_LEFT
370
    25
390
0
  6
CONTINUOUS
 62
     7
100
AcDbLine
 10
197.999999
 20
149.85
 30
0.0
 11
198.499999
 21
149.85
 31
0.0
  0
LINE
  5
14AB
100
AcDbEntity
  8
11000_LEFT
370
    25
390
0
  6
CONTINUOUS
 62
     7
100
AcDbLine
 10
197.999999
 20
152.95
 30
0.0
 11
198.499999
 21
152.95
 31
0.0
  0
LINE
  5
14AC
100
AcDbEntity
  8
11000_LEFT
370
    25
390
0
  6
CONTINUOUS
 62
     7
100
AcDbLine
 10
197.85
 20
153.45
 30
0.0
 11
199.3
 21
153.45
 31
0.0
  0
LINE
  5
14AD
100
AcDbEntity
  8
11000_LEFT
370
    25
390
0
  6
CONTINUOUS
 62
     7
100
AcDbLine
 10
202.35
 20
155.95
 30
0.0
 11
202.55
 21
155.95
 31
0.0
  0
LINE
  5
14AE
100
AcDbEntity
  8
11000_LEFT
370
    25
390
0
  6
CONTINUOUS
 62
     7
100
AcDbLine
 10
199.650001
 20
155.95
 30
0.0
 11
199.85
 21
155.95
 31
0.0
  0
LINE
  5
14AF
100
AcDbEntity
  8
11000_LEFT
370
    25
390
0
  6
CONTINUOUS
 62
     7
100
AcDbLine
 10
204.35
 20
160.95
 30
0.0
 11
204.55
 21
160.95
 31
0.0
  0
LINE
  5
14B0
100
AcDbEntity
  8
11000_LEFT
370
    25
390
0
  6
CONTINUOUS
 62
     7
100
AcDbLine
 10
201.650001
 20
160.95
 30
0.0
 11
201.85
 21
160.95
 31
0.0
  0
LINE
  5
14B1
100
AcDbEntity
  8
11000_LEFT
370
    25
390
0
  6
CONTINUOUS
 62
     7
100
AcDbLine
 10
206.35
 20
166.45
 30
0.0
 11
206.55
 21
166.45
 31
0.0
  0
LINE
  5
14B2
100
AcDbEntity
  8
11000_LEFT
370
    25
390
0
  6
CONTINUOUS
 62
     7
100
AcDbLine
 10
203.650001
 20
166.45
 30
0.0
 11
203.85
 21
166.45
 31
0.0
  0
LINE
  5
14B3
100
AcDbEntity
  8
11000_LEFT
370
    25
390
0
  6
CONTINUOUS
 62
     7
100
AcDbLine
 10
197.1
 20
168.817157
 30
0.0
 11
197.3
 21
168.817157
 31
0.0
  0
LINE
  5
14B4
100
AcDbEntity
  8
11000_LEFT
370
    25
390
0
  6
CONTINUOUS
 62
     7
100
AcDbLine
 10
197.55
 20
169.432843
 30
0.0
 11
197.749999
 21
169.432843
 31
0.0
  0
LINE
  5
14B5
100
AcDbEntity
  8
11000_LEFT
370
    25
390
0
  6
CONTINUOUS
 62
     7
100
AcDbLine
 10
204.2
 20
171.45
 30
0.0
 11
204.400001
 21
171.45
 31
0.0
  0
LINE
  5
14B6
100
AcDbEntity
  8
11000_LEFT
370
    25
390
0
  6
CONTINUOUS
 62
     7
100
AcDbLine
 10
201.499999
 20
171.45
 30
0.0
 11
201.7
 21
171.45
 31
0.0
  0
LINE
  5
14B7
100
AcDbEntity
  8
11000_LEFT
370
    25
390
0
  6
CONTINUOUS
 62
     7
100
AcDbLine
 10
227.3
 20
171.767158
 30
0.0
 11
227.5
 21
171.767158
 31
0.0
  0
LINE
  5
14B8
100
AcDbEntity
  8
11000_LEFT
370
    25
390
0
  6
CONTINUOUS
 62
     7
100
AcDbLine
 10
197.55
 20
172.867156
 30
0.0
 11
197.749999
 21
172.867156
 31
0.0
  0
LINE
  5
14B9
100
AcDbEntity
  8
11000_LEFT
370
    25
390
0
  6
CONTINUOUS
 62
     7
100
AcDbLine
 10
197.1
 20
173.482845
 30
0.0
 11
197.3
 21
173.482845
 31
0.0
  0
LINE
  5
14BA
100
AcDbEntity
  8
11000_LEFT
370
    25
390
0
  6
CONTINUOUS
 62
     7
100
AcDbLine
 10
220.935683
 20
173.700103
 30
0.0
 11
221.218526
 21
173.700103
 31
0.0
  0
LINE
  5
14BB
100
AcDbEntity
  8
11000_LEFT
370
    25
390
0
  6
CONTINUOUS
 62
     7
100
AcDbLine
 10
219.139777
 20
174.423373
 30
0.0
 11
219.183907
 21
174.423373
 31
0.0
  0
LINE
  5
14BC
100
AcDbEntity
  8
11000_LEFT
370
    25
390
0
  6
CONTINUOUS
 62
     7
100
AcDbLine
 10
219.327495
 20
174.560371
 30
0.0
 11
219.329865
 21
174.560371
 31
0.0
  0
LINE
  5
14BD
100
AcDbEntity
  8
11000_LEFT
370
    25
390
0
  6
CONTINUOUS
 62
     7
100
AcDbLine
 10
219.322093
 20
174.561225
 30
0.0
 11
219.322251
 21
174.561225
 31
0.0
  0
LINE
  5
14BE
100
AcDbEntity
  8
11000_LEFT
370
    25
390
0
  6
CONTINUOUS
 62
     7
100
AcDbLine
 10
218.036545
 20
174.619342
 30
0.0
 11
218.319388
 21
174.619342
 31
0.0
  0
LINE
  5
14BF
100
AcDbEntity
  8
11000_LEFT
370
    25
390
0
  6
CONTINUOUS
 62
     7
100
AcDbLine
 10
207.647
 20
174.650001
 30
0.0
 11
212.6
 21
174.650001
 31
0.0
  0
LINE
  5
14C0
100
AcDbEntity
  8
11000_LEFT
370
    25
390
0
  6
CONTINUOUS
 62
     7
100
AcDbLine
 10
207.647
 20
174.850002
 30
0.0
 11
212.6
 21
174.850002
 31
0.0
  0
LINE
  5
14C1
100
AcDbEntity
  8
11000_LEFT
370
    25
390
0
  6
CONTINUOUS
 62
     7
100
AcDbLine
 10
218.78685
 20
175.03239
 30
0.0
 11
218.786875
 21
175.03239
 31
0.0
  0
LINE
  5
14C2
100
AcDbEntity
  8
11000_LEFT
370
    25
390
0
  6
CONTINUOUS
 62
     7
100
AcDbLine
 10
218.7868
 20
175.032394
 30
0.0
 11
218.786825
 21
175.032394
 31
0.0
  0
LINE
  5
14C3
100
AcDbEntity
  8
11000_LEFT
370
    25
390
0
  6
CONTINUOUS
 62
     7
100
AcDbLine
 10
218.786721
 20
175.032397
 30
0.0
 11
218.786774
 21
175.032397
 31
0.0
  0
LINE
  5
14C4
100
AcDbEntity
  8
11000_LEFT
370
    25
390
0
  6
CONTINUOUS
 62
     7
100
AcDbLine
 10
197.85
 20
175.150001
 30
0.0
 11
199.3
 21
175.150001
 31
0.0
  0
LINE
  5
14C5
100
AcDbEntity
  8
11000_LEFT
370
    25
390
0
  6
CONTINUOUS
 62
     7
100
AcDbLine
 10
197.999999
 20
175.650001
 30
0.0
 11
198.499999
 21
175.650001
 31
0.0
  0
LINE
  5
14C6
100
AcDbEntity
  8
11000_LEFT
370
    25
390
0
  6
CONTINUOUS
 62
     7
100
AcDbLine
 10
207.647
 20
176.650001
 30
0.0
 11
212.6
 21
176.650001
 31
0.0
  0
LINE
  5
14C7
100
AcDbEntity
  8
11000_LEFT
370
    25
390
0
  6
CONTINUOUS
 62
     7
100
AcDbLine
 10
207.647
 20
176.850002
 30
0.0
 11
212.6
 21
176.850002
 31
0.0
  0
LINE
  5
14C8
100
AcDbEntity
  8
11000_LEFT
370
    25
390
0
  6
CONTINUOUS
 62
     7
100
AcDbLine
 10
197.999999
 20
178.749999
 30
0.0
 11
198.499999
 21
178.749999
 31
0.0
  0
LINE
  5
14C9
100
AcDbEntity
  8
11000_LEFT
370
    25
390
0
  6
CONTINUOUS
 62
     7
100
AcDbLine
 10
197.85
 20
179.249999
 30
0.0
 11
199.3
 21
179.249999
 31
0.0
  0
LINE
  5
14CA
100
AcDbEntity
  8
11000_LEFT
370
    25
390
0
  6
CONTINUOUS
 62
     7
100
AcDbLine
 10
196.45
 20
179.45
 30
0.0
 11
197.1
 21
179.45
 31
0.0
  0
LINE
  5
14CB
100
AcDbEntity
  8
11000_LEFT
370
    25
390
0
  6
CONTINUOUS
 62
     7
100
AcDbLine
 10
218.7
 20
181.278426
 30
0.0
 11
218.9
 21
181.278426
 31
0.0
  0
LINE
  5
14CC
100
AcDbEntity
  8
11000_LEFT
370
    25
390
0
  6
CONTINUOUS
 62
     7
100
AcDbLine
 10
197.1
 20
185.749999
 30
0.0
 11
202.7
 21
185.749999
 31
0.0
  0
LINE
  5
14CD
100
AcDbEntity
  8
11000_LEFT
370
    25
390
0
  6
CONTINUOUS
 62
     7
100
AcDbLine
 10
197.3
 20
185.95
 30
0.0
 11
202.7
 21
185.95
 31
0.0
  0
LINE
  5
14CE
100
AcDbEntity
  8
11000_LEFT
370
    25
390
0
  6
CONTINUOUS
 62
     7
100
AcDbLine
 10
203.6
 20
186.850002
 30
0.0
 11
203.8
 21
186.850002
 31
0.0
  0
LINE
  5
14CF
100
AcDbEntity
  8
11000_LEFT
370
    25
390
0
  6
CONTINUOUS
 62
     7
100
AcDbLine
 10
203.6
 20
191.758846
 30
0.0
 11
203.8
 21
191.758846
 31
0.0
  0
LINE
  5
14D0
100
AcDbEntity
  8
11000_LEFT
370
    25
390
0
  6
CONTINUOUS
 62
     7
100
AcDbLine
 10
213.2
 20
194.749999
 30
0.0
 11
217.3
 21
194.749999
 31
0.0
  0
LINE
  5
14D1
100
AcDbEntity
  8
11000_LEFT
370
    25
390
0
  6
CONTINUOUS
 62
     7
100
AcDbLine
 10
213.7
 20
195.549998
 30
0.0
 11
216.8
 21
195.549998
 31
0.0
  0
LINE
  5
14D2
100
AcDbEntity
  8
11000_LEFT
370
    25
390
0
  6
CONTINUOUS
 62
     7
100
AcDbLine
 10
213.2
 20
196.049998
 30
0.0
 11
217.3
 21
196.049998
 31
0.0
  0
LINE
  5
14D3
100
AcDbEntity
  8
11000_LEFT
370
    25
390
0
  6
CONTINUOUS
 62
     7
100
AcDbLine
 10
206.63707
 20
196.749999
 30
0.0
 11
210.473432
 21
196.749999
 31
0.0
  0
LINE
  5
14D4
100
AcDbEntity
  8
11000_LEFT
370
    25
390
0
  6
CONTINUOUS
 62
     7
100
AcDbLine
 10
218.7
 20
196.749999
 30
0.0
 11
218.9
 21
196.749999
 31
0.0
  0
LINE
  5
14D5
100
AcDbEntity
  8
11000_LEFT
370
    25
390
0
  6
CONTINUOUS
 62
     7
100
AcDbLine
 10
206.63707
 20
196.95
 30
0.0
 11
210.473432
 21
196.95
 31
0.0
  0
LINE
  5
14D6
100
AcDbEntity
  8
11000_LEFT
370
    25
390
0
  6
CONTINUOUS
 62
     7
100
AcDbLine
 10
217.4
 20
198.146423
 30
0.0
 11
217.6
 21
198.146423
 31
0.0
  0
LINE
  5
14D7
100
AcDbEntity
  8
11000_LEFT
370
    25
390
0
  6
CONTINUOUS
 62
     7
100
AcDbLine
 10
217.9
 20
198.249999
 30
0.0
 11
218.9
 21
198.249999
 31
0.0
  0
LINE
  5
14D8
100
AcDbEntity
  8
11000_LEFT
370
    25
390
0
  6
CONTINUOUS
 62
     7
100
AcDbLine
 10
217.600001
 20
200.049998
 30
0.0
 11
219.6
 21
200.049998
 31
0.0
  0
LINE
  5
14D9
100
AcDbEntity
  8
11000_LEFT
370
    25
390
0
  6
CONTINUOUS
 62
     7
100
AcDbLine
 10
216.65
 20
200.249999
 30
0.0
 11
217.6
 21
200.249999
 31
0.0
  0
LINE
  5
14DA
100
AcDbEntity
  8
11000_LEFT
370
    25
390
0
  6
CONTINUOUS
 62
     7
100
AcDbLine
 10
216.65
 20
200.45
 30
0.0
 11
217.4
 21
200.45
 31
0.0
  0
LINE
  5
14DB
100
AcDbEntity
  8
11000_LEFT
370
    25
390
0
  6
CONTINUOUS
 62
     7
100
AcDbLine
 10
217.7
 20
200.850002
 30
0.0
 11
218.5
 21
200.850002
 31
0.0
  0
LINE
  5
14DC
100
AcDbEntity
  8
11000_LEFT
370
    25
390
0
  6
CONTINUOUS
 62
     7
100
AcDbLine
 10
216.501661
 20
201.249999
 30
0.0
 11
217.5
 21
201.249999
 31
0.0
  0
LINE
  5
14DD
100
AcDbEntity
  8
11000_LEFT
370
    25
390
0
  6
CONTINUOUS
 62
     7
100
AcDbLine
 10
218.7
 20
201.249999
 30
0.0
 11
219.6
 21
201.249999
 31
0.0
  0
LINE
  5
14DE
100
AcDbEntity
  8
11000_LEFT
370
    25
390
0
  6
CONTINUOUS
 62
     7
100
AcDbLine
 10
220.390865
 20
173.275241
 30
0.0
 11
220.397743
 21
173.275245
 31
0.0
  0
LINE
  5
14DF
100
AcDbEntity
  8
11000_LEFT
370
    25
390
0
  6
CONTINUOUS
 62
     7
100
AcDbLine
 10
219.211576
 20
175.067573
 30
0.0
 11
219.218714
 21
175.067825
 31
0.0
  0
LINE
  5
14E0
100
AcDbEntity
  8
11000_LEFT
370
    25
390
0
  6
CONTINUOUS
 62
     7
100
AcDbLine
 10
219.329865
 20
174.560371
 30
0.0
 11
219.332663
 21
174.560474
 31
0.0
  0
LINE
  5
14E1
100
AcDbEntity
  8
11000_LEFT
370
    25
390
0
  6
CONTINUOUS
 62
     7
100
AcDbLine
 10
220.397439
 20
173.275378
 30
0.0
 11
220.404244
 21
173.275653
 31
0.0
  0
LINE
  5
14E2
100
AcDbEntity
  8
11000_LEFT
370
    25
390
0
  6
CONTINUOUS
 62
     7
100
AcDbLine
 10
220.397743
 20
173.275245
 30
0.0
 11
220.404079
 21
173.275527
 31
0.0
  0
LINE
  5
14E3
100
AcDbEntity
  8
11000_LEFT
370
    25
390
0
  6
CONTINUOUS
 62
     7
100
AcDbLine
 10
219.901852
 20
173.785953
 30
0.0
 11
219.908617
 21
173.786273
 31
0.0
  0
LINE
  5
14E4
100
AcDbEntity
  8
11000_LEFT
370
    25
390
0
  6
CONTINUOUS
 62
     7
100
AcDbLine
 10
219.332663
 20
174.560474
 30
0.0
 11
219.335869
 21
174.560664
 31
0.0
  0
LINE
  5
14E5
100
AcDbEntity
  8
11000_LEFT
370
    25
390
0
  6
CONTINUOUS
 62
     7
100
AcDbLine
 10
219.335869
 20
174.560664
 30
0.0
 11
219.339471
 21
174.560943
 31
0.0
  0
LINE
  5
14E6
100
AcDbEntity
  8
11000_LEFT
370
    25
390
0
  6
CONTINUOUS
 62
     7
100
AcDbLine
 10
219.407113
 20
174.567817
 30
0.0
 11
219.415779
 21
174.568496
 31
0.0
  0
LINE
  5
14E7
100
AcDbEntity
  8
11000_LEFT
370
    25
390
0
  6
CONTINUOUS
 62
     7
100
AcDbLine
 10
219.400153
 20
174.567275
 30
0.0
 11
219.407102
 21
174.567836
 31
0.0
  0
LINE
  5
14E8
100
AcDbEntity
  8
11000_LEFT
370
    25
390
0
  6
CONTINUOUS
 62
     7
100
AcDbLine
 10
219.204463
 20
175.06697
 30
0.0
 11
219.211576
 21
175.067573
 31
0.0
  0
LINE
  5
14E9
100
AcDbEntity
  8
11000_LEFT
370
    25
390
0
  6
CONTINUOUS
 62
     7
100
AcDbLine
 10
220.404244
 20
173.275653
 30
0.0
 11
220.41097
 21
173.276229
 31
0.0
  0
LINE
  5
14EA
100
AcDbEntity
  8
11000_LEFT
370
    25
390
0
  6
CONTINUOUS
 62
     7
100
AcDbLine
 10
220.404079
 20
173.275527
 30
0.0
 11
220.410946
 21
173.276134
 31
0.0
  0
LINE
  5
14EB
100
AcDbEntity
  8
11000_LEFT
370
    25
390
0
  6
CONTINUOUS
 62
     7
100
AcDbLine
 10
219.339471
 20
174.560943
 30
0.0
 11
219.343453
 21
174.561298
 31
0.0
  0
LINE
  5
14EC
100
AcDbEntity
  8
11000_LEFT
370
    25
390
0
  6
CONTINUOUS
 62
     7
100
AcDbLine
 10
219.415779
 20
174.568496
 30
0.0
 11
219.424653
 21
174.569289
 31
0.0
  0
LINE
  5
14ED
100
AcDbEntity
  8
11000_LEFT
370
    25
390
0
  6
CONTINUOUS
 62
     7
100
AcDbLine
 10
219.393388
 20
174.566661
 30
0.0
 11
219.400153
 21
174.567275
 31
0.0
  0
LINE
  5
14EE
100
AcDbEntity
  8
11000_LEFT
370
    25
390
0
  6
CONTINUOUS
 62
     7
100
AcDbLine
 10
219.908617
 20
173.786273
 30
0.0
 11
219.915447
 21
173.786926
 31
0.0
  0
LINE
  5
14EF
100
AcDbEntity
  8
11000_LEFT
370
    25
390
0
  6
CONTINUOUS
 62
     7
100
AcDbLine
 10
219.386822
 20
174.566016
 30
0.0
 11
219.393388
 21
174.566661
 31
0.0
  0
LINE
  5
14F0
100
AcDbEntity
  8
11000_LEFT
370
    25
390
0
  6
CONTINUOUS
 62
     7
100
AcDbLine
 10
219.343453
 20
174.561298
 30
0.0
 11
219.347801
 21
174.561729
 31
0.0
  0
LINE
  5
14F1
100
AcDbEntity
  8
11000_LEFT
370
    25
390
0
  6
CONTINUOUS
 62
     7
100
AcDbLine
 10
219.424653
 20
174.569289
 30
0.0
 11
219.433665
 21
174.570224
 31
0.0
  0
LINE
  5
14F2
100
AcDbEntity
  8
11000_LEFT
370
    25
390
0
  6
CONTINUOUS
 62
     7
100
AcDbLine
 10
219.380471
 20
174.565353
 30
0.0
 11
219.386822
 21
174.566016
 31
0.0
  0
LINE
  5
14F3
100
AcDbEntity
  8
11000_LEFT
370
    25
390
0
  6
CONTINUOUS
 62
     7
100
AcDbLine
 10
219.347801
 20
174.561729
 30
0.0
 11
219.352501
 21
174.562221
 31
0.0
  0
LINE
  5
14F4
100
AcDbEntity
  8
11000_LEFT
370
    25
390
0
  6
CONTINUOUS
 62
     7
100
AcDbLine
 10
219.374351
 20
174.564681
 30
0.0
 11
219.380471
 21
174.565353
 31
0.0
  0
LINE
  5
14F5
100
AcDbEntity
  8
11000_LEFT
370
    25
390
0
  6
CONTINUOUS
 62
     7
100
AcDbLine
 10
219.352501
 20
174.562221
 30
0.0
 11
219.357535
 21
174.562774
 31
0.0
  0
LINE
  5
14F6
100
AcDbEntity
  8
11000_LEFT
370
    25
390
0
  6
CONTINUOUS
 62
     7
100
AcDbLine
 10
219.109514
 20
175.002471
 30
0.0
 11
219.114185
 21
175.002998
 31
0.0
  0
LINE
  5
14F7
100
AcDbEntity
  8
11000_LEFT
370
    25
390
0
  6
CONTINUOUS
 62
     7
100
AcDbLine
 10
219.368478
 20
174.564017
 30
0.0
 11
219.374351
 21
174.564681
 31
0.0
  0
LINE
  5
14F8
100
AcDbEntity
  8
11000_LEFT
370
    25
390
0
  6
CONTINUOUS
 62
     7
100
AcDbLine
 10
219.357535
 20
174.562774
 30
0.0
 11
219.362867
 21
174.563377
 31
0.0
  0
LINE
  5
14F9
100
AcDbEntity
  8
11000_LEFT
370
    25
390
0
  6
CONTINUOUS
 62
     7
100
AcDbLine
 10
219.362867
 20
174.563377
 30
0.0
 11
219.368478
 21
174.564017
 31
0.0
  0
LINE
  5
14FA
100
AcDbEntity
  8
11000_LEFT
370
    25
390
0
  6
CONTINUOUS
 62
     7
100
AcDbLine
 10
219.433665
 20
174.570224
 30
0.0
 11
219.442743
 21
174.571326
 31
0.0
  0
LINE
  5
14FB
100
AcDbEntity
  8
11000_LEFT
370
    25
390
0
  6
CONTINUOUS
 62
     7
100
AcDbLine
 10
219.197438
 20
175.066032
 30
0.0
 11
219.204463
 21
175.06697
 31
0.0
  0
LINE
  5
14FC
100
AcDbEntity
  8
11000_LEFT
370
    25
390
0
  6
CONTINUOUS
 62
     7
100
AcDbLine
 10
220.41097
 20
173.276229
 30
0.0
 11
220.417569
 21
173.277114
 31
0.0
  0
LINE
  5
14FD
100
AcDbEntity
  8
11000_LEFT
370
    25
390
0
  6
CONTINUOUS
 62
     7
100
AcDbLine
 10
220.410946
 20
173.276134
 30
0.0
 11
220.417725
 21
173.277045
 31
0.0
  0
LINE
  5
14FE
100
AcDbEntity
  8
11000_LEFT
370
    25
390
0
  6
CONTINUOUS
 62
     7
100
AcDbLine
 10
219.915447
 20
173.786926
 30
0.0
 11
219.92229
 21
173.787887
 31
0.0
  0
LINE
  5
14FF
100
AcDbEntity
  8
11000_LEFT
370
    25
390
0
  6
CONTINUOUS
 62
     7
100
AcDbLine
 10
219.442743
 20
174.571326
 30
0.0
 11
219.451815
 21
174.572627
 31
0.0
  0
LINE
  5
1500
100
AcDbEntity
  8
11000_LEFT
370
    25
390
0
  6
CONTINUOUS
 62
     7
100
AcDbLine
 10
219.451815
 20
174.572627
 30
0.0
 11
219.460782
 21
174.574172
 31
0.0
  0
LINE
  5
1501
100
AcDbEntity
  8
11000_LEFT
370
    25
390
0
  6
CONTINUOUS
 62
     7
100
AcDbLine
 10
220.417725
 20
173.277045
 30
0.0
 11
220.424239
 21
173.27822
 31
0.0
  0
LINE
  5
1502
100
AcDbEntity
  8
11000_LEFT
370
    25
390
0
  6
CONTINUOUS
 62
     7
100
AcDbLine
 10
220.417569
 20
173.277114
 30
0.0
 11
220.424112
 21
173.278308
 31
0.0
  0
LINE
  5
1503
100
AcDbEntity
  8
11000_LEFT
370
    25
390
0
  6
CONTINUOUS
 62
     7
100
AcDbLine
 10
219.190566
 20
175.064773
 30
0.0
 11
219.197438
 21
175.066032
 31
0.0
  0
LINE
  5
1504
100
AcDbEntity
  8
11000_LEFT
370
    25
390
0
  6
CONTINUOUS
 62
     7
100
AcDbLine
 10
219.92229
 20
173.787887
 30
0.0
 11
219.929099
 21
173.789146
 31
0.0
  0
LINE
  5
1505
100
AcDbEntity
  8
11000_LEFT
370
    25
390
0
  6
CONTINUOUS
 62
     7
100
AcDbLine
 10
219.553682
 20
174.595641
 30
0.0
 11
219.562637
 21
174.597457
 31
0.0
  0
LINE
  5
1506
100
AcDbEntity
  8
11000_LEFT
370
    25
390
0
  6
CONTINUOUS
 62
     7
100
AcDbLine
 10
219.544708
 20
174.593761
 30
0.0
 11
219.553682
 21
174.595641
 31
0.0
  0
LINE
  5
1507
100
AcDbEntity
  8
11000_LEFT
370
    25
390
0
  6
CONTINUOUS
 62
     7
100
AcDbLine
 10
219.562637
 20
174.597457
 30
0.0
 11
219.572336
 21
174.599498
 31
0.0
  0
LINE
  5
1508
100
AcDbEntity
  8
11000_LEFT
370
    25
390
0
  6
CONTINUOUS
 62
     7
100
AcDbLine
 10
219.460782
 20
174.574172
 30
0.0
 11
219.469564
 21
174.576076
 31
0.0
  0
LINE
  5
1509
100
AcDbEntity
  8
11000_LEFT
370
    25
390
0
  6
CONTINUOUS
 62
     7
100
AcDbLine
 10
219.535374
 20
174.591693
 30
0.0
 11
219.544708
 21
174.593761
 31
0.0
  0
LINE
  5
150A
100
AcDbEntity
  8
11000_LEFT
370
    25
390
0
  6
CONTINUOUS
 62
     7
100
AcDbLine
 10
220.424239
 20
173.27822
 30
0.0
 11
220.430709
 21
173.279685
 31
0.0
  0
LINE
  5
150B
100
AcDbEntity
  8
11000_LEFT
370
    25
390
0
  6
CONTINUOUS
 62
     7
100
AcDbLine
 10
219.525886
 20
174.589523
 30
0.0
 11
219.535374
 21
174.591693
 31
0.0
  0
LINE
  5
150C
100
AcDbEntity
  8
11000_LEFT
370
    25
390
0
  6
CONTINUOUS
 62
     7
100
AcDbLine
 10
219.929099
 20
173.789146
 30
0.0
 11
219.935824
 21
173.790687
 31
0.0
  0
LINE
  5
150D
100
AcDbEntity
  8
11000_LEFT
370
    25
390
0
  6
CONTINUOUS
 62
     7
100
AcDbLine
 10
220.424112
 20
173.278308
 30
0.0
 11
220.430616
 21
173.279803
 31
0.0
  0
LINE
  5
150E
100
AcDbEntity
  8
11000_LEFT
370
    25
390
0
  6
CONTINUOUS
 62
     7
100
AcDbLine
 10
219.321963
 20
174.561195
 30
0.0
 11
219.322093
 21
174.561225
 31
0.0
  0
LINE
  5
150F
100
AcDbEntity
  8
11000_LEFT
370
    25
390
0
  6
CONTINUOUS
 62
     7
100
AcDbLine
 10
219.516424
 20
174.587321
 30
0.0
 11
219.525886
 21
174.589523
 31
0.0
  0
LINE
  5
1510
100
AcDbEntity
  8
11000_LEFT
370
    25
390
0
  6
CONTINUOUS
 62
     7
100
AcDbLine
 10
219.183909
 20
175.063213
 30
0.0
 11
219.190566
 21
175.064773
 31
0.0
  0
LINE
  5
1511
100
AcDbEntity
  8
11000_LEFT
370
    25
390
0
  6
CONTINUOUS
 62
     7
100
AcDbLine
 10
219.50698
 20
174.585094
 30
0.0
 11
219.516424
 21
174.587321
 31
0.0
  0
LINE
  5
1512
100
AcDbEntity
  8
11000_LEFT
370
    25
390
0
  6
CONTINUOUS
 62
     7
100
AcDbLine
 10
219.497556
 20
174.582847
 30
0.0
 11
219.50698
 21
174.585094
 31
0.0
  0
LINE
  5
1513
100
AcDbEntity
  8
11000_LEFT
370
    25
390
0
  6
CONTINUOUS
 62
     7
100
AcDbLine
 10
219.488167
 20
174.580585
 30
0.0
 11
219.497556
 21
174.582847
 31
0.0
  0
LINE
  5
1514
100
AcDbEntity
  8
11000_LEFT
370
    25
390
0
  6
CONTINUOUS
 62
     7
100
AcDbLine
 10
219.47883
 20
174.57833
 30
0.0
 11
219.488167
 21
174.580585
 31
0.0
  0
LINE
  5
1515
100
AcDbEntity
  8
11000_LEFT
370
    25
390
0
  6
CONTINUOUS
 62
     7
100
AcDbLine
 10
219.469562
 20
174.576087
 30
0.0
 11
219.47883
 21
174.57833
 31
0.0
  0
LINE
  5
1516
100
AcDbEntity
  8
11000_LEFT
370
    25
390
0
  6
CONTINUOUS
 62
     7
100
AcDbLine
 10
219.105311
 20
175.001418
 30
0.0
 11
219.109514
 21
175.002471
 31
0.0
  0
LINE
  5
1517
100
AcDbEntity
  8
11000_LEFT
370
    25
390
0
  6
CONTINUOUS
 62
     7
100
AcDbLine
 10
218.772497
 20
175.028587
 30
0.0
 11
218.776056
 21
175.02951
 31
0.0
  0
LINE
  5
1518
100
AcDbEntity
  8
11000_LEFT
370
    25
390
0
  6
CONTINUOUS
 62
     7
100
AcDbLine
 10
218.783483
 20
175.031493
 30
0.0
 11
218.784958
 21
175.031882
 31
0.0
  0
LINE
  5
1519
100
AcDbEntity
  8
11000_LEFT
370
    25
390
0
  6
CONTINUOUS
 62
     7
100
AcDbLine
 10
218.781539
 20
175.030978
 30
0.0
 11
218.783483
 21
175.031493
 31
0.0
  0
LINE
  5
151A
100
AcDbEntity
  8
11000_LEFT
370
    25
390
0
  6
CONTINUOUS
 62
     7
100
AcDbLine
 10
218.776056
 20
175.02951
 30
0.0
 11
218.779064
 21
175.030307
 31
0.0
  0
LINE
  5
151B
100
AcDbEntity
  8
11000_LEFT
370
    25
390
0
  6
CONTINUOUS
 62
     7
100
AcDbLine
 10
218.768333
 20
175.02748
 30
0.0
 11
218.772497
 21
175.028587
 31
0.0
  0
LINE
  5
151C
100
AcDbEntity
  8
11000_LEFT
370
    25
390
0
  6
CONTINUOUS
 62
     7
100
AcDbLine
 10
218.738379
 20
175.019202
 30
0.0
 11
218.745619
 21
175.021152
 31
0.0
  0
LINE
  5
151D
100
AcDbEntity
  8
11000_LEFT
370
    25
390
0
  6
CONTINUOUS
 62
     7
100
AcDbLine
 10
218.730398
 20
175.017043
 30
0.0
 11
218.738379
 21
175.019202
 31
0.0
  0
LINE
  5
151E
100
AcDbEntity
  8
11000_LEFT
370
    25
390
0
  6
CONTINUOUS
 62
     7
100
AcDbLine
 10
218.779064
 20
175.030307
 30
0.0
 11
218.781539
 21
175.030978
 31
0.0
  0
LINE
  5
151F
100
AcDbEntity
  8
11000_LEFT
370
    25
390
0
  6
CONTINUOUS
 62
     7
100
AcDbLine
 10
218.721637
 20
175.014651
 30
0.0
 11
218.730398
 21
175.017043
 31
0.0
  0
LINE
  5
1520
100
AcDbEntity
  8
11000_LEFT
370
    25
390
0
  6
CONTINUOUS
 62
     7
100
AcDbLine
 10
218.712086
 20
175.012038
 30
0.0
 11
218.721637
 21
175.014651
 31
0.0
  0
LINE
  5
1521
100
AcDbEntity
  8
11000_LEFT
370
    25
390
0
  6
CONTINUOUS
 62
     7
100
AcDbLine
 10
219.935824
 20
173.790687
 30
0.0
 11
219.942415
 21
173.792491
 31
0.0
  0
LINE
  5
1522
100
AcDbEntity
  8
11000_LEFT
370
    25
390
0
  6
CONTINUOUS
 62
     7
100
AcDbLine
 10
220.430709
 20
173.279685
 30
0.0
 11
220.43719
 21
173.281459
 31
0.0
  0
LINE
  5
1523
100
AcDbEntity
  8
11000_LEFT
370
    25
390
0
  6
CONTINUOUS
 62
     7
100
AcDbLine
 10
218.745619
 20
175.021152
 30
0.0
 11
218.752194
 21
175.02296
 31
0.0
  0
LINE
  5
1524
100
AcDbEntity
  8
11000_LEFT
370
    25
390
0
  6
CONTINUOUS
 62
     7
100
AcDbLine
 10
218.76354
 20
175.02616
 30
0.0
 11
218.768333
 21
175.02748
 31
0.0
  0
LINE
  5
1525
100
AcDbEntity
  8
11000_LEFT
370
    25
390
0
  6
CONTINUOUS
 62
     7
100
AcDbLine
 10
220.430616
 20
173.279803
 30
0.0
 11
220.437066
 21
173.281596
 31
0.0
  0
LINE
  5
1526
100
AcDbEntity
  8
11000_LEFT
370
    25
390
0
  6
CONTINUOUS
 62
     7
100
AcDbLine
 10
218.758156
 20
175.024642
 30
0.0
 11
218.76354
 21
175.02616
 31
0.0
  0
LINE
  5
1527
100
AcDbEntity
  8
11000_LEFT
370
    25
390
0
  6
CONTINUOUS
 62
     7
100
AcDbLine
 10
218.752194
 20
175.02296
 30
0.0
 11
218.758156
 21
175.024642
 31
0.0
  0
LINE
  5
1528
100
AcDbEntity
  8
11000_LEFT
370
    25
390
0
  6
CONTINUOUS
 62
     7
100
AcDbLine
 10
218.784958
 20
175.031882
 30
0.0
 11
218.786033
 21
175.032191
 31
0.0
  0
LINE
  5
1529
100
AcDbEntity
  8
11000_LEFT
370
    25
390
0
  6
CONTINUOUS
 62
     7
100
AcDbLine
 10
219.177531
 20
175.06137
 30
0.0
 11
219.183909
 21
175.063213
 31
0.0
  0
LINE
  5
152A
100
AcDbEntity
  8
11000_LEFT
370
    25
390
0
  6
CONTINUOUS
 62
     7
100
AcDbLine
 10
193.717424
 20
168.881479
 30
0.0
 11
195.817187
 21
169.506385
 31
0.0
  0
LINE
  5
152B
100
AcDbEntity
  8
11000_LEFT
370
    25
390
0
  6
CONTINUOUS
 62
     7
100
AcDbLine
 10
194.419717
 20
172.241424
 30
0.0
 11
194.472554
 21
172.25722
 31
0.0
  0
LINE
  5
152C
100
AcDbEntity
  8
11000_LEFT
370
    25
390
0
  6
CONTINUOUS
 62
     7
100
AcDbLine
 10
218.786033
 20
175.032191
 30
0.0
 11
218.786721
 21
175.032397
 31
0.0
  0
LINE
  5
152D
100
AcDbEntity
  8
11000_LEFT
370
    25
390
0
  6
CONTINUOUS
 62
     7
100
AcDbLine
 10
219.942415
 20
173.792491
 30
0.0
 11
219.948825
 21
173.794547
 31
0.0
  0
LINE
  5
152E
100
AcDbEntity
  8
11000_LEFT
370
    25
390
0
  6
CONTINUOUS
 62
     7
100
AcDbLine
 10
220.43719
 20
173.281459
 30
0.0
 11
220.443637
 21
173.283538
 31
0.0
  0
LINE
  5
152F
100
AcDbEntity
  8
11000_LEFT
370
    25
390
0
  6
CONTINUOUS
 62
     7
100
AcDbLine
 10
220.437066
 20
173.281596
 30
0.0
 11
220.443447
 21
173.283683
 31
0.0
  0
LINE
  5
1530
100
AcDbEntity
  8
11000_LEFT
370
    25
390
0
  6
CONTINUOUS
 62
     7
100
AcDbLine
 10
219.171495
 20
175.059261
 30
0.0
 11
219.177531
 21
175.06137
 31
0.0
  0
LINE
  5
1531
100
AcDbEntity
  8
11000_LEFT
370
    25
390
0
  6
CONTINUOUS
 62
     7
100
AcDbLine
 10
219.948825
 20
173.794547
 30
0.0
 11
219.955003
 21
173.796836
 31
0.0
  0
LINE
  5
1532
100
AcDbEntity
  8
11000_LEFT
370
    25
390
0
  6
CONTINUOUS
 62
     7
100
AcDbLine
 10
220.443637
 20
173.283538
 30
0.0
 11
220.450006
 21
173.285907
 31
0.0
  0
LINE
  5
1533
100
AcDbEntity
  8
11000_LEFT
370
    25
390
0
  6
CONTINUOUS
 62
     7
100
AcDbLine
 10
220.443447
 20
173.283683
 30
0.0
 11
220.449745
 21
173.286052
 31
0.0
  0
LINE
  5
1534
100
AcDbEntity
  8
11000_LEFT
370
    25
390
0
  6
CONTINUOUS
 62
     7
100
AcDbLine
 10
219.165718
 20
175.056876
 30
0.0
 11
219.171495
 21
175.059261
 31
0.0
  0
LINE
  5
1535
100
AcDbEntity
  8
11000_LEFT
370
    25
390
0
  6
CONTINUOUS
 62
     7
100
AcDbLine
 10
219.321854
 20
174.561149
 30
0.0
 11
219.321963
 21
174.561195
 31
0.0
  0
LINE
  5
1536
100
AcDbEntity
  8
11000_LEFT
370
    25
390
0
  6
CONTINUOUS
 62
     7
100
AcDbLine
 10
219.101593
 20
174.999839
 30
0.0
 11
219.105311
 21
175.001418
 31
0.0
  0
LINE
  5
1537
100
AcDbEntity
  8
11000_LEFT
370
    25
390
0
  6
CONTINUOUS
 62
     7
100
AcDbLine
 10
219.955003
 20
173.796836
 30
0.0
 11
219.960901
 21
173.799342
 31
0.0
  0
LINE
  5
1538
100
AcDbEntity
  8
11000_LEFT
370
    25
390
0
  6
CONTINUOUS
 62
     7
100
AcDbLine
 10
220.450006
 20
173.285907
 30
0.0
 11
220.45624
 21
173.288558
 31
0.0
  0
LINE
  5
1539
100
AcDbEntity
  8
11000_LEFT
370
    25
390
0
  6
CONTINUOUS
 62
     7
100
AcDbLine
 10
220.449745
 20
173.286052
 30
0.0
 11
220.455945
 21
173.288699
 31
0.0
  0
LINE
  5
153A
100
AcDbEntity
  8
11000_LEFT
370
    25
390
0
  6
CONTINUOUS
 62
     7
100
AcDbLine
 10
219.16003
 20
175.054172
 30
0.0
 11
219.165718
 21
175.056876
 31
0.0
  0
LINE
  5
153B
100
AcDbEntity
  8
11000_LEFT
370
    25
390
0
  6
CONTINUOUS
 62
     7
100
AcDbLine
 10
220.45624
 20
173.288558
 30
0.0
 11
220.462289
 21
173.291454
 31
0.0
  0
LINE
  5
153C
100
AcDbEntity
  8
11000_LEFT
370
    25
390
0
  6
CONTINUOUS
 62
     7
100
AcDbLine
 10
220.455945
 20
173.288699
 30
0.0
 11
220.462031
 21
173.291614
 31
0.0
  0
LINE
  5
153D
100
AcDbEntity
  8
11000_LEFT
370
    25
390
0
  6
CONTINUOUS
 62
     7
100
AcDbLine
 10
219.960901
 20
173.799342
 30
0.0
 11
219.966598
 21
173.802081
 31
0.0
  0
LINE
  5
153E
100
AcDbEntity
  8
11000_LEFT
370
    25
390
0
  6
CONTINUOUS
 62
     7
100
AcDbLine
 10
202.753026
 20
176.998668
 30
0.0
 11
203.007243
 21
177.122657
 31
0.0
  0
LINE
  5
153F
100
AcDbEntity
  8
11000_LEFT
370
    25
390
0
  6
CONTINUOUS
 62
     7
100
AcDbLine
 10
220.462031
 20
173.291614
 30
0.0
 11
220.467989
 21
173.294799
 31
0.0
  0
LINE
  5
1540
100
AcDbEntity
  8
11000_LEFT
370
    25
390
0
  6
CONTINUOUS
 62
     7
100
AcDbLine
 10
219.966598
 20
173.802081
 30
0.0
 11
219.972238
 21
173.805099
 31
0.0
  0
LINE
  5
1541
100
AcDbEntity
  8
11000_LEFT
370
    25
390
0
  6
CONTINUOUS
 62
     7
100
AcDbLine
 10
220.462289
 20
173.291454
 30
0.0
 11
220.468176
 21
173.294608
 31
0.0
  0
LINE
  5
1542
100
AcDbEntity
  8
11000_LEFT
370
    25
390
0
  6
CONTINUOUS
 62
     7
100
AcDbLine
 10
219.154433
 20
175.051124
 30
0.0
 11
219.16003
 21
175.054172
 31
0.0
  0
LINE
  5
1543
100
AcDbEntity
  8
11000_LEFT
370
    25
390
0
  6
CONTINUOUS
 62
     7
100
AcDbLine
 10
223.862693
 20
140.45
 30
0.0
 11
224.209104
 21
140.65
 31
0.0
  0
LINE
  5
1544
100
AcDbEntity
  8
11000_LEFT
370
    25
390
0
  6
CONTINUOUS
 62
     7
100
AcDbLine
 10
224.209104
 20
140.65
 30
0.0
 11
227.5
 21
142.55
 31
0.0
  0
LINE
  5
1545
100
AcDbEntity
  8
11000_LEFT
370
    25
390
0
  6
CONTINUOUS
 62
     7
100
AcDbLine
 10
206.144395
 20
197.235416
 30
0.0
 11
209.431448
 21
199.161723
 31
0.0
  0
LINE
  5
1546
100
AcDbEntity
  8
11000_LEFT
370
    25
390
0
  6
CONTINUOUS
 62
     7
100
AcDbLine
 10
219.972238
 20
173.805099
 30
0.0
 11
219.97781
 21
173.808395
 31
0.0
  0
LINE
  5
1547
100
AcDbEntity
  8
11000_LEFT
370
    25
390
0
  6
CONTINUOUS
 62
     7
100
AcDbLine
 10
220.467989
 20
173.294799
 30
0.0
 11
220.473803
 21
173.29824
 31
0.0
  0
LINE
  5
1548
100
AcDbEntity
  8
11000_LEFT
370
    25
390
0
  6
CONTINUOUS
 62
     7
100
AcDbLine
 10
220.468176
 20
173.294608
 30
0.0
 11
220.473927
 21
173.298034
 31
0.0
  0
LINE
  5
1549
100
AcDbEntity
  8
11000_LEFT
370
    25
390
0
  6
CONTINUOUS
 62
     7
100
AcDbLine
 10
219.148933
 20
175.047717
 30
0.0
 11
219.154433
 21
175.051124
 31
0.0
  0
LINE
  5
154A
100
AcDbEntity
  8
11000_LEFT
370
    25
390
0
  6
CONTINUOUS
 62
     7
100
AcDbLine
 10
219.09838
 20
174.997745
 30
0.0
 11
219.101593
 21
174.999839
 31
0.0
  0
LINE
  5
154B
100
AcDbEntity
  8
11000_LEFT
370
    25
390
0
  6
CONTINUOUS
 62
     7
100
AcDbLine
 10
219.97781
 20
173.808395
 30
0.0
 11
219.983304
 21
173.81198
 31
0.0
  0
LINE
  5
154C
100
AcDbEntity
  8
11000_LEFT
370
    25
390
0
  6
CONTINUOUS
 62
     7
100
AcDbLine
 10
220.473803
 20
173.29824
 30
0.0
 11
220.479459
 21
173.301933
 31
0.0
  0
LINE
  5
154D
100
AcDbEntity
  8
11000_LEFT
370
    25
390
0
  6
CONTINUOUS
 62
     7
100
AcDbLine
 10
220.473927
 20
173.298034
 30
0.0
 11
220.479561
 21
173.301738
 31
0.0
  0
LINE
  5
154E
100
AcDbEntity
  8
11000_LEFT
370
    25
390
0
  6
CONTINUOUS
 62
     7
100
AcDbLine
 10
219.143535
 20
175.043929
 30
0.0
 11
219.148933
 21
175.047717
 31
0.0
  0
LINE
  5
154F
100
AcDbEntity
  8
11000_LEFT
370
    25
390
0
  6
CONTINUOUS
 62
     7
100
AcDbLine
 10
220.479459
 20
173.301933
 30
0.0
 11
220.484942
 21
173.305869
 31
0.0
  0
LINE
  5
1550
100
AcDbEntity
  8
11000_LEFT
370
    25
390
0
  6
CONTINUOUS
 62
     7
100
AcDbLine
 10
219.983304
 20
173.81198
 30
0.0
 11
219.988711
 21
173.815864
 31
0.0
  0
LINE
  5
1551
100
AcDbEntity
  8
11000_LEFT
370
    25
390
0
  6
CONTINUOUS
 62
     7
100
AcDbLine
 10
220.479561
 20
173.301738
 30
0.0
 11
220.485021
 21
173.305686
 31
0.0
  0
LINE
  5
1552
100
AcDbEntity
  8
11000_LEFT
370
    25
390
0
  6
CONTINUOUS
 62
     7
100
AcDbLine
 10
220.484942
 20
173.305869
 30
0.0
 11
220.490236
 21
173.310043
 31
0.0
  0
LINE
  5
1553
100
AcDbEntity
  8
11000_LEFT
370
    25
390
0
  6
CONTINUOUS
 62
     7
100
AcDbLine
 10
219.988711
 20
173.815864
 30
0.0
 11
219.994021
 21
173.820052
 31
0.0
  0
LINE
  5
1554
100
AcDbEntity
  8
11000_LEFT
370
    25
390
0
  6
CONTINUOUS
 62
     7
100
AcDbLine
 10
219.138211
 20
175.03971
 30
0.0
 11
219.143535
 21
175.043929
 31
0.0
  0
LINE
  5
1555
100
AcDbEntity
  8
11000_LEFT
370
    25
390
0
  6
CONTINUOUS
 62
     7
100
AcDbLine
 10
220.485021
 20
173.305686
 30
0.0
 11
220.490285
 21
173.309867
 31
0.0
  0
LINE
  5
1556
100
AcDbEntity
  8
11000_LEFT
370
    25
390
0
  6
CONTINUOUS
 62
     7
100
AcDbLine
 10
220.502897
 20
173.665229
 30
0.0
 11
220.754411
 21
173.881374
 31
0.0
  0
LINE
  5
1557
100
AcDbEntity
  8
11000_LEFT
370
    25
390
0
  6
CONTINUOUS
 62
     7
100
AcDbLine
 10
220.488788
 20
173.863048
 30
0.0
 11
220.6415
 21
173.994285
 31
0.0
  0
LINE
  5
1558
100
AcDbEntity
  8
11000_LEFT
370
    25
390
0
  6
CONTINUOUS
 62
     7
100
AcDbLine
 10
220.490236
 20
173.310043
 30
0.0
 11
220.495327
 21
173.314452
 31
0.0
  0
LINE
  5
1559
100
AcDbEntity
  8
11000_LEFT
370
    25
390
0
  6
CONTINUOUS
 62
     7
100
AcDbLine
 10
219.994021
 20
173.820052
 30
0.0
 11
219.999335
 21
173.824664
 31
0.0
  0
LINE
  5
155A
100
AcDbEntity
  8
11000_LEFT
370
    25
390
0
  6
CONTINUOUS
 62
     7
100
AcDbLine
 10
220.500424
 20
173.663078
 30
0.0
 11
220.502897
 21
173.665229
 31
0.0
  0
LINE
  5
155B
100
AcDbEntity
  8
11000_LEFT
370
    25
390
0
  6
CONTINUOUS
 62
     7
100
AcDbLine
 10
220.490285
 20
173.309867
 30
0.0
 11
220.495349
 21
173.314277
 31
0.0
  0
LINE
  5
155C
100
AcDbEntity
  8
11000_LEFT
370
    25
390
0
  6
CONTINUOUS
 62
     7
100
AcDbLine
 10
220.497726
 20
173.660693
 30
0.0
 11
220.500424
 21
173.663078
 31
0.0
  0
LINE
  5
155D
100
AcDbEntity
  8
11000_LEFT
370
    25
390
0
  6
CONTINUOUS
 62
     7
100
AcDbLine
 10
219.133041
 20
175.035083
 30
0.0
 11
219.138211
 21
175.03971
 31
0.0
  0
LINE
  5
155E
100
AcDbEntity
  8
11000_LEFT
370
    25
390
0
  6
CONTINUOUS
 62
     7
100
AcDbLine
 10
220.494818
 20
173.65808
 30
0.0
 11
220.497726
 21
173.660693
 31
0.0
  0
LINE
  5
155F
100
AcDbEntity
  8
11000_LEFT
370
    25
390
0
  6
CONTINUOUS
 62
     7
100
AcDbLine
 10
220.491712
 20
173.655257
 30
0.0
 11
220.494818
 21
173.65808
 31
0.0
  0
LINE
  5
1560
100
AcDbEntity
  8
11000_LEFT
370
    25
390
0
  6
CONTINUOUS
 62
     7
100
AcDbLine
 10
220.488422
 20
173.652232
 30
0.0
 11
220.491712
 21
173.655257
 31
0.0
  0
LINE
  5
1561
100
AcDbEntity
  8
11000_LEFT
370
    25
390
0
  6
CONTINUOUS
 62
     7
100
AcDbLine
 10
220.48496
 20
173.64902
 30
0.0
 11
220.488422
 21
173.652232
 31
0.0
  0
LINE
  5
1562
100
AcDbEntity
  8
11000_LEFT
370
    25
390
0
  6
CONTINUOUS
 62
     7
100
AcDbLine
 10
220.481342
 20
173.645633
 30
0.0
 11
220.48496
 21
173.64902
 31
0.0
  0
LINE
  5
1563
100
AcDbEntity
  8
11000_LEFT
370
    25
390
0
  6
CONTINUOUS
 62
     7
100
AcDbLine
 10
220.477578
 20
173.642081
 30
0.0
 11
220.481342
 21
173.645633
 31
0.0
  0
LINE
  5
1564
100
AcDbEntity
  8
11000_LEFT
370
    25
390
0
  6
CONTINUOUS
 62
     7
100
AcDbLine
 10
220.482848
 20
173.857433
 30
0.0
 11
220.488788
 21
173.863048
 31
0.0
  0
LINE
  5
1565
100
AcDbEntity
  8
11000_LEFT
370
    25
390
0
  6
CONTINUOUS
 62
     7
100
AcDbLine
 10
220.495327
 20
173.314452
 30
0.0
 11
220.5002
 21
173.319087
 31
0.0
  0
LINE
  5
1566
100
AcDbEntity
  8
11000_LEFT
370
    25
390
0
  6
CONTINUOUS
 62
     7
100
AcDbLine
 10
220.473684
 20
173.638377
 30
0.0
 11
220.477578
 21
173.642081
 31
0.0
  0
LINE
  5
1567
100
AcDbEntity
  8
11000_LEFT
370
    25
390
0
  6
CONTINUOUS
 62
     7
100
AcDbLine
 10
219.999335
 20
173.824664
 30
0.0
 11
220.004488
 21
173.829566
 31
0.0
  0
LINE
  5
1568
100
AcDbEntity
  8
11000_LEFT
370
    25
390
0
  6
CONTINUOUS
 62
     7
100
AcDbLine
 10
220.476336
 20
173.851234
 30
0.0
 11
220.482848
 21
173.857433
 31
0.0
  0
LINE
  5
1569
100
AcDbEntity
  8
11000_LEFT
370
    25
390
0
  6
CONTINUOUS
 62
     7
100
AcDbLine
 10
220.495349
 20
173.314277
 30
0.0
 11
220.50021
 21
173.318908
 31
0.0
  0
LINE
  5
156A
100
AcDbEntity
  8
11000_LEFT
370
    25
390
0
  6
CONTINUOUS
 62
     7
100
AcDbLine
 10
220.469673
 20
173.634536
 30
0.0
 11
220.473684
 21
173.638377
 31
0.0
  0
LINE
  5
156B
100
AcDbEntity
  8
11000_LEFT
370
    25
390
0
  6
CONTINUOUS
 62
     7
100
AcDbLine
 10
220.469287
 20
173.844482
 30
0.0
 11
220.476336
 21
173.851234
 31
0.0
  0
LINE
  5
156C
100
AcDbEntity
  8
11000_LEFT
370
    25
390
0
  6
CONTINUOUS
 62
     7
100
AcDbLine
 10
220.461733
 20
173.837211
 30
0.0
 11
220.469287
 21
173.844482
 31
0.0
  0
LINE
  5
156D
100
AcDbEntity
  8
11000_LEFT
370
    25
390
0
  6
CONTINUOUS
 62
     7
100
AcDbLine
 10
220.465556
 20
173.630569
 30
0.0
 11
220.469673
 21
173.634536
 31
0.0
  0
LINE
  5
156E
100
AcDbEntity
  8
11000_LEFT
370
    25
390
0
  6
CONTINUOUS
 62
     7
100
AcDbLine
 10
220.453706
 20
173.829448
 30
0.0
 11
220.461733
 21
173.837211
 31
0.0
  0
LINE
  5
156F
100
AcDbEntity
  8
11000_LEFT
370
    25
390
0
  6
CONTINUOUS
 62
     7
100
AcDbLine
 10
220.445239
 20
173.821231
 30
0.0
 11
220.453706
 21
173.829448
 31
0.0
  0
LINE
  5
1570
100
AcDbEntity
  8
11000_LEFT
370
    25
390
0
  6
CONTINUOUS
 62
     7
100
AcDbLine
 10
220.436365
 20
173.812587
 30
0.0
 11
220.445239
 21
173.821231
 31
0.0
  0
LINE
  5
1571
100
AcDbEntity
  8
11000_LEFT
370
    25
390
0
  6
CONTINUOUS
 62
     7
100
AcDbLine
 10
220.427116
 20
173.803546
 30
0.0
 11
220.436365
 21
173.812587
 31
0.0
  0
LINE
  5
1572
100
AcDbEntity
  8
11000_LEFT
370
    25
390
0
  6
CONTINUOUS
 62
     7
100
AcDbLine
 10
220.417525
 20
173.794147
 30
0.0
 11
220.427116
 21
173.803546
 31
0.0
  0
LINE
  5
1573
100
AcDbEntity
  8
11000_LEFT
370
    25
390
0
  6
CONTINUOUS
 62
     7
100
AcDbLine
 10
220.407624
 20
173.784415
 30
0.0
 11
220.417525
 21
173.794147
 31
0.0
  0
LINE
  5
1574
100
AcDbEntity
  8
11000_LEFT
370
    25
390
0
  6
CONTINUOUS
 62
     7
100
AcDbLine
 10
220.397446
 20
173.774387
 30
0.0
 11
220.407624
 21
173.784415
 31
0.0
  0
LINE
  5
1575
100
AcDbEntity
  8
11000_LEFT
370
    25
390
0
  6
CONTINUOUS
 62
     7
100
AcDbLine
 10
202.158138
 20
143.391176
 30
0.0
 11
202.299804
 21
143.532353
 31
0.0
  0
LINE
  5
1576
100
AcDbEntity
  8
11000_LEFT
370
    25
390
0
  6
CONTINUOUS
 62
     7
100
AcDbLine
 10
219.297381
 20
174.536674
 30
0.0
 11
219.297798
 21
174.53709
 31
0.0
  0
LINE
  5
1577
100
AcDbEntity
  8
11000_LEFT
370
    25
390
0
  6
CONTINUOUS
 62
     7
100
AcDbLine
 10
220.007236
 20
173.832317
 30
0.0
 11
220.00813
 21
173.833209
 31
0.0
  0
LINE
  5
1578
100
AcDbEntity
  8
11000_LEFT
370
    25
390
0
  6
CONTINUOUS
 62
     7
100
AcDbLine
 10
219.304193
 20
174.543487
 30
0.0
 11
219.30587
 21
174.545161
 31
0.0
  0
LINE
  5
1579
100
AcDbEntity
  8
11000_LEFT
370
    25
390
0
  6
CONTINUOUS
 62
     7
100
AcDbLine
 10
220.017344
 20
173.842426
 30
0.0
 11
220.019056
 21
173.844135
 31
0.0
  0
LINE
  5
157A
100
AcDbEntity
  8
11000_LEFT
370
    25
390
0
  6
CONTINUOUS
 62
     7
100
AcDbLine
 10
219.307709
 20
174.547004
 30
0.0
 11
219.309707
 21
174.548999
 31
0.0
  0
LINE
  5
157B
100
AcDbEntity
  8
11000_LEFT
370
    25
390
0
  6
CONTINUOUS
 62
     7
100
AcDbLine
 10
219.301347
 20
174.540641
 30
0.0
 11
219.302684
 21
174.541976
 31
0.0
  0
LINE
  5
157C
100
AcDbEntity
  8
11000_LEFT
370
    25
390
0
  6
CONTINUOUS
 62
     7
100
AcDbLine
 10
220.005785
 20
173.830867
 30
0.0
 11
220.006454
 21
173.831535
 31
0.0
  0
LINE
  5
157D
100
AcDbEntity
  8
11000_LEFT
370
    25
390
0
  6
CONTINUOUS
 62
     7
100
AcDbLine
 10
219.298406
 20
174.5377
 30
0.0
 11
219.299204
 21
174.538497
 31
0.0
  0
LINE
  5
157E
100
AcDbEntity
  8
11000_LEFT
370
    25
390
0
  6
CONTINUOUS
 62
     7
100
AcDbLine
 10
219.316601
 20
174.555896
 30
0.0
 11
219.319156
 21
174.558448
 31
0.0
  0
LINE
  5
157F
100
AcDbEntity
  8
11000_LEFT
370
    25
390
0
  6
CONTINUOUS
 62
     7
100
AcDbLine
 10
220.00813
 20
173.833209
 30
0.0
 11
220.009134
 21
173.834212
 31
0.0
  0
LINE
  5
1580
100
AcDbEntity
  8
11000_LEFT
370
    25
390
0
  6
CONTINUOUS
 62
     7
100
AcDbLine
 10
220.011463
 20
173.836543
 30
0.0
 11
220.012784
 21
173.837863
 31
0.0
  0
LINE
  5
1581
100
AcDbEntity
  8
11000_LEFT
370
    25
390
0
  6
CONTINUOUS
 62
     7
100
AcDbLine
 10
219.801314
 20
173.838527
 30
0.0
 11
219.806249
 21
173.843459
 31
0.0
  0
LINE
  5
1582
100
AcDbEntity
  8
11000_LEFT
370
    25
390
0
  6
CONTINUOUS
 62
     7
100
AcDbLine
 10
219.297785
 20
174.324947
 30
0.0
 11
219.299548
 21
174.326709
 31
0.0
  0
LINE
  5
1583
100
AcDbEntity
  8
11000_LEFT
370
    25
390
0
  6
CONTINUOUS
 62
     7
100
AcDbLine
 10
220.019056
 20
173.844135
 30
0.0
 11
220.020861
 21
173.845939
 31
0.0
  0
LINE
  5
1584
100
AcDbEntity
  8
11000_LEFT
370
    25
390
0
  6
CONTINUOUS
 62
     7
100
AcDbLine
 10
220.024739
 20
173.849818
 30
0.0
 11
220.026808
 21
173.851886
 31
0.0
  0
LINE
  5
1585
100
AcDbEntity
  8
11000_LEFT
370
    25
390
0
  6
CONTINUOUS
 62
     7
100
AcDbLine
 10
219.317112
 20
174.344276
 30
0.0
 11
219.323916
 21
174.351077
 31
0.0
  0
LINE
  5
1586
100
AcDbEntity
  8
11000_LEFT
370
    25
390
0
  6
CONTINUOUS
 62
     7
100
AcDbLine
 10
219.331598
 20
174.35876
 30
0.0
 11
219.340115
 21
174.367274
 31
0.0
  0
LINE
  5
1587
100
AcDbEntity
  8
11000_LEFT
370
    25
390
0
  6
CONTINUOUS
 62
     7
100
AcDbLine
 10
219.299548
 20
174.326709
 30
0.0
 11
219.302406
 21
174.329566
 31
0.0
  0
LINE
  5
1588
100
AcDbEntity
  8
11000_LEFT
370
    25
390
0
  6
CONTINUOUS
 62
     7
100
AcDbLine
 10
219.536779
 20
174.563941
 30
0.0
 11
219.545842
 21
174.573001
 31
0.0
  0
LINE
  5
1589
100
AcDbEntity
  8
11000_LEFT
370
    25
390
0
  6
CONTINUOUS
 62
     7
100
AcDbLine
 10
219.509244
 20
174.536407
 30
0.0
 11
219.518455
 21
174.545615
 31
0.0
  0
LINE
  5
158A
100
AcDbEntity
  8
11000_LEFT
370
    25
390
0
  6
CONTINUOUS
 62
     7
100
AcDbLine
 10
219.865569
 20
173.902782
 30
0.0
 11
219.877065
 21
173.914275
 31
0.0
  0
LINE
  5
158B
100
AcDbEntity
  8
11000_LEFT
370
    25
390
0
  6
CONTINUOUS
 62
     7
100
AcDbLine
 10
219.393819
 20
174.420982
 30
0.0
 11
219.406414
 21
174.433574
 31
0.0
  0
LINE
  5
158C
100
AcDbEntity
  8
11000_LEFT
370
    25
390
0
  6
CONTINUOUS
 62
     7
100
AcDbLine
 10
219.370263
 20
174.397426
 30
0.0
 11
219.381739
 21
174.4089
 31
0.0
  0
LINE
  5
158D
100
AcDbEntity
  8
11000_LEFT
370
    25
390
0
  6
CONTINUOUS
 62
     7
100
AcDbLine
 10
219.432779
 20
174.459941
 30
0.0
 11
219.446365
 21
174.473525
 31
0.0
  0
LINE
  5
158E
100
AcDbEntity
  8
11000_LEFT
370
    25
390
0
  6
CONTINUOUS
 62
     7
100
AcDbLine
 10
219.563645
 20
174.590808
 30
0.0
 11
219.572336
 21
174.599498
 31
0.0
  0
LINE
  5
158F
100
AcDbEntity
  8
11000_LEFT
370
    25
390
0
  6
CONTINUOUS
 62
     7
100
AcDbLine
 10
220.04978
 20
174.086993
 30
0.0
 11
220.05862
 21
174.095832
 31
0.0
  0
LINE
  5
1590
100
AcDbEntity
  8
11000_LEFT
370
    25
390
0
  6
CONTINUOUS
 62
     7
100
AcDbLine
 10
220.022616
 20
174.059829
 30
0.0
 11
220.031753
 21
174.068965
 31
0.0
  0
LINE
  5
1591
100
AcDbEntity
  8
11000_LEFT
370
    25
390
0
  6
CONTINUOUS
 62
     7
100
AcDbLine
 10
219.518455
 20
174.545615
 30
0.0
 11
219.527642
 21
174.554801
 31
0.0
  0
LINE
  5
1592
100
AcDbEntity
  8
11000_LEFT
370
    25
390
0
  6
CONTINUOUS
 62
     7
100
AcDbLine
 10
219.844588
 20
173.881801
 30
0.0
 11
219.854717
 21
173.891929
 31
0.0
  0
LINE
  5
1593
100
AcDbEntity
  8
11000_LEFT
370
    25
390
0
  6
CONTINUOUS
 62
     7
100
AcDbLine
 10
219.889124
 20
173.926337
 30
0.0
 11
219.901668
 21
173.93888
 31
0.0
  0
LINE
  5
1594
100
AcDbEntity
  8
11000_LEFT
370
    25
390
0
  6
CONTINUOUS
 62
     7
100
AcDbLine
 10
219.901668
 20
173.93888
 30
0.0
 11
219.914616
 21
173.951827
 31
0.0
  0
LINE
  5
1595
100
AcDbEntity
  8
11000_LEFT
370
    25
390
0
  6
CONTINUOUS
 62
     7
100
AcDbLine
 10
219.941409
 20
173.978622
 30
0.0
 11
219.955093
 21
173.992305
 31
0.0
  0
LINE
  5
1596
100
AcDbEntity
  8
11000_LEFT
370
    25
390
0
  6
CONTINUOUS
 62
     7
100
AcDbLine
 10
197.143933
 20
168.943935
 30
0.0
 11
197.158578
 21
168.958579
 31
0.0
  0
LINE
  5
1597
100
AcDbEntity
  8
11000_LEFT
370
    25
390
0
  6
CONTINUOUS
 62
     7
100
AcDbLine
 10
219.192831
 20
175.160114
 30
0.0
 11
219.334253
 21
175.301532
 31
0.0
  0
LINE
  5
1598
100
AcDbEntity
  8
11000_LEFT
370
    25
390
0
  6
CONTINUOUS
 62
     7
100
AcDbLine
 10
220.359591
 20
173.736533
 30
0.0
 11
220.397446
 21
173.774387
 31
0.0
  0
LINE
  5
1599
100
AcDbEntity
  8
11000_LEFT
370
    25
390
0
  6
CONTINUOUS
 62
     7
100
AcDbLine
 10
219.869056
 20
173.694137
 30
0.0
 11
220.004488
 21
173.829566
 31
0.0
  0
LINE
  5
159A
100
AcDbEntity
  8
11000_LEFT
370
    25
390
0
  6
CONTINUOUS
 62
     7
100
AcDbLine
 10
219.098344
 20
174.785777
 30
0.0
 11
219.204345
 21
174.891776
 31
0.0
  0
LINE
  5
159B
100
AcDbEntity
  8
11000_LEFT
370
    25
390
0
  6
CONTINUOUS
 62
     7
100
AcDbLine
 10
227.3
 20
171.767158
 30
0.0
 11
227.441421
 21
171.908578
 31
0.0
  0
LINE
  5
159C
100
AcDbEntity
  8
11000_LEFT
370
    25
390
0
  6
CONTINUOUS
 62
     7
100
AcDbLine
 10
218.786721
 20
175.032397
 30
0.0
 11
219.053634
 21
175.299308
 31
0.0
  0
LINE
  5
159D
100
AcDbEntity
  8
11000_LEFT
370
    25
390
0
  6
CONTINUOUS
 62
     7
100
AcDbLine
 10
197.158578
 20
168.958579
 30
0.0
 11
197.491422
 21
169.291421
 31
0.0
  0
LINE
  5
159E
100
AcDbEntity
  8
11000_LEFT
370
    25
390
0
  6
CONTINUOUS
 62
     7
100
AcDbLine
 10
196.1
 20
179.100002
 30
0.0
 11
196.45
 21
179.45
 31
0.0
  0
LINE
  5
159F
100
AcDbEntity
  8
11000_LEFT
370
    25
390
0
  6
CONTINUOUS
 62
     7
100
AcDbLine
 10
203.194974
 20
185.955024
 30
0.0
 11
203.594976
 21
186.355025
 31
0.0
  0
LINE
  5
15A0
100
AcDbEntity
  8
11000_LEFT
370
    25
390
0
  6
CONTINUOUS
 62
     7
100
AcDbLine
 10
196.143933
 20
167.943935
 30
0.0
 11
197.143933
 21
168.943935
 31
0.0
  0
LINE
  5
15A1
100
AcDbEntity
  8
11000_LEFT
370
    25
390
0
  6
CONTINUOUS
 62
     7
100
AcDbLine
 10
220.087155
 20
172.568732
 30
0.0
 11
221.218526
 21
173.700103
 31
0.0
  0
LINE
  5
15A2
100
AcDbEntity
  8
11000_LEFT
370
    25
390
0
  6
CONTINUOUS
 62
     7
100
AcDbLine
 10
219.76299
 20
173.800201
 30
0.0
 11
219.79276
 21
173.829971
 31
0.0
  0
LINE
  5
15A3
100
AcDbEntity
  8
11000_LEFT
370
    25
390
0
  6
CONTINUOUS
 62
     7
100
AcDbLine
 10
220.004488
 20
173.829566
 30
0.0
 11
220.004801
 21
173.829879
 31
0.0
  0
LINE
  5
15A4
100
AcDbEntity
  8
11000_LEFT
370
    25
390
0
  6
CONTINUOUS
 62
     7
100
AcDbLine
 10
219.79276
 20
173.829971
 30
0.0
 11
219.794526
 21
173.831737
 31
0.0
  0
LINE
  5
15A5
100
AcDbEntity
  8
11000_LEFT
370
    25
390
0
  6
CONTINUOUS
 62
     7
100
AcDbLine
 10
220.006454
 20
173.831535
 30
0.0
 11
220.007236
 21
173.832317
 31
0.0
  0
LINE
  5
15A6
100
AcDbEntity
  8
11000_LEFT
370
    25
390
0
  6
CONTINUOUS
 62
     7
100
AcDbLine
 10
219.797392
 20
173.834605
 30
0.0
 11
219.801314
 21
173.838527
 31
0.0
  0
LINE
  5
15A7
100
AcDbEntity
  8
11000_LEFT
370
    25
390
0
  6
CONTINUOUS
 62
     7
100
AcDbLine
 10
220.010246
 20
173.835326
 30
0.0
 11
220.011463
 21
173.836543
 31
0.0
  0
LINE
  5
15A8
100
AcDbEntity
  8
11000_LEFT
370
    25
390
0
  6
CONTINUOUS
 62
     7
100
AcDbLine
 10
220.022756
 20
173.847835
 30
0.0
 11
220.024739
 21
173.849818
 31
0.0
  0
LINE
  5
15A9
100
AcDbEntity
  8
11000_LEFT
370
    25
390
0
  6
CONTINUOUS
 62
     7
100
AcDbLine
 10
219.812153
 20
173.849364
 30
0.0
 11
219.818982
 21
173.856193
 31
0.0
  0
LINE
  5
15AA
100
AcDbEntity
  8
11000_LEFT
370
    25
390
0
  6
CONTINUOUS
 62
     7
100
AcDbLine
 10
219.955093
 20
173.992305
 30
0.0
 11
220.004219
 21
174.041431
 31
0.0
  0
LINE
  5
15AB
100
AcDbEntity
  8
11000_LEFT
370
    25
390
0
  6
CONTINUOUS
 62
     7
100
AcDbLine
 10
220.01343
 20
174.050643
 30
0.0
 11
220.022616
 21
174.059829
 31
0.0
  0
LINE
  5
15AC
100
AcDbEntity
  8
11000_LEFT
370
    25
390
0
  6
CONTINUOUS
 62
     7
100
AcDbLine
 10
220.040816
 20
174.078029
 30
0.0
 11
220.04978
 21
174.086993
 31
0.0
  0
LINE
  5
15AD
100
AcDbEntity
  8
11000_LEFT
370
    25
390
0
  6
CONTINUOUS
 62
     7
100
AcDbLine
 10
219.835242
 20
173.872455
 30
0.0
 11
219.844588
 21
173.881801
 31
0.0
  0
LINE
  5
15AE
100
AcDbEntity
  8
11000_LEFT
370
    25
390
0
  6
CONTINUOUS
 62
     7
100
AcDbLine
 10
219.826693
 20
173.863906
 30
0.0
 11
219.835242
 21
173.872455
 31
0.0
  0
LINE
  5
15AF
100
AcDbEntity
  8
11000_LEFT
370
    25
390
0
  6
CONTINUOUS
 62
     7
100
AcDbLine
 10
220.05862
 20
174.095832
 30
0.0
 11
220.06731
 21
174.104522
 31
0.0
  0
LINE
  5
15B0
100
AcDbEntity
  8
11000_LEFT
370
    25
390
0
  6
CONTINUOUS
 62
     7
100
AcDbLine
 10
219.268015
 20
174.295177
 30
0.0
 11
219.297785
 21
174.324947
 31
0.0
  0
LINE
  5
15B1
100
AcDbEntity
  8
11000_LEFT
370
    25
390
0
  6
CONTINUOUS
 62
     7
100
AcDbLine
 10
219.306314
 20
174.333476
 30
0.0
 11
219.311231
 21
174.338393
 31
0.0
  0
LINE
  5
15B2
100
AcDbEntity
  8
11000_LEFT
370
    25
390
0
  6
CONTINUOUS
 62
     7
100
AcDbLine
 10
219.359483
 20
174.386646
 30
0.0
 11
219.370263
 21
174.397426
 31
0.0
  0
LINE
  5
15B3
100
AcDbEntity
  8
11000_LEFT
370
    25
390
0
  6
CONTINUOUS
 62
     7
100
AcDbLine
 10
219.419431
 20
174.446593
 30
0.0
 11
219.432779
 21
174.459941
 31
0.0
  0
LINE
  5
15B4
100
AcDbEntity
  8
11000_LEFT
370
    25
390
0
  6
CONTINUOUS
 62
     7
100
AcDbLine
 10
219.460099
 20
174.487262
 30
0.0
 11
219.473889
 21
174.501052
 31
0.0
  0
LINE
  5
15B5
100
AcDbEntity
  8
11000_LEFT
370
    25
390
0
  6
CONTINUOUS
 62
     7
100
AcDbLine
 10
219.473889
 20
174.501052
 30
0.0
 11
219.509244
 21
174.536407
 31
0.0
  0
LINE
  5
15B6
100
AcDbEntity
  8
11000_LEFT
370
    25
390
0
  6
CONTINUOUS
 62
     7
100
AcDbLine
 10
219.299204
 20
174.538497
 30
0.0
 11
219.300185
 21
174.539478
 31
0.0
  0
LINE
  5
15B7
100
AcDbEntity
  8
11000_LEFT
370
    25
390
0
  6
CONTINUOUS
 62
     7
100
AcDbLine
 10
218.036545
 20
174.619342
 30
0.0
 11
219.167916
 21
175.750713
 31
0.0
  0
LINE
  5
15B8
100
AcDbEntity
  8
11000_LEFT
370
    25
390
0
  6
CONTINUOUS
 62
     7
100
AcDbLine
 10
220.087155
 20
172.851573
 30
0.0
 11
220.935683
 21
173.700103
 31
0.0
  0
LINE
  5
15B9
100
AcDbEntity
  8
11000_LEFT
370
    25
390
0
  6
CONTINUOUS
 62
     7
100
AcDbLine
 10
218.319388
 20
174.619342
 30
0.0
 11
219.167916
 21
175.467872
 31
0.0
  0
LINE
  5
15BA
100
AcDbEntity
  8
11000_LEFT
370
    25
390
0
  6
CONTINUOUS
 62
     7
100
AcDbLine
 10
220.50021
 20
173.318908
 30
0.0
 11
220.767123
 21
173.585822
 31
0.0
  0
LINE
  5
15BB
100
AcDbEntity
  8
11000_LEFT
370
    25
390
0
  6
CONTINUOUS
 62
     7
100
AcDbLine
 10
197.3
 20
168.817157
 30
0.0
 11
197.632842
 21
169.150001
 31
0.0
  0
LINE
  5
15BC
100
AcDbEntity
  8
11000_LEFT
370
    25
390
0
  6
CONTINUOUS
 62
     7
100
AcDbLine
 10
197.158578
 20
173.341422
 30
0.0
 11
197.3
 21
173.482845
 31
0.0
  0
LINE
  5
15BD
100
AcDbEntity
  8
11000_LEFT
370
    25
390
0
  6
CONTINUOUS
 62
     7
100
AcDbLine
 10
220.627926
 20
173.725017
 30
0.0
 11
220.769347
 21
173.866439
 31
0.0
  0
LINE
  5
15BE
100
AcDbEntity
  8
11000_LEFT
370
    25
390
0
  6
CONTINUOUS
 62
     7
100
AcDbLine
 10
219.161949
 20
174.401241
 30
0.0
 11
219.297381
 21
174.536674
 31
0.0
  0
LINE
  5
15BF
100
AcDbEntity
  8
11000_LEFT
370
    25
390
0
  6
CONTINUOUS
 62
     7
100
AcDbLine
 10
219.344365
 20
179.722793
 30
0.0
 11
219.485786
 21
179.864215
 31
0.0
  0
LINE
  5
15C0
100
AcDbEntity
  8
11000_LEFT
370
    25
390
0
  6
CONTINUOUS
 62
     7
100
AcDbLine
 10
203.053554
 20
186.096446
 30
0.0
 11
203.453553
 21
186.496448
 31
0.0
  0
LINE
  5
15C1
100
AcDbEntity
  8
11000_LEFT
370
    25
390
0
  6
CONTINUOUS
 62
     7
100
AcDbLine
 10
220.25359
 20
173.630531
 30
0.0
 11
220.359591
 21
173.736533
 31
0.0
  0
LINE
  5
15C2
100
AcDbEntity
  8
11000_LEFT
370
    25
390
0
  6
CONTINUOUS
 62
     7
100
AcDbLine
 10
197.491422
 20
173.008578
 30
0.0
 11
197.632842
 21
173.150001
 31
0.0
  0
LINE
  5
15C3
100
AcDbEntity
  8
11000_LEFT
370
    25
390
0
  6
CONTINUOUS
 62
     7
100
AcDbLine
 10
219.204345
 20
174.891776
 30
0.0
 11
219.2422
 21
174.929633
 31
0.0
  0
LINE
  5
15C4
100
AcDbEntity
  8
11000_LEFT
370
    25
390
0
  6
CONTINUOUS
 62
     7
100
AcDbLine
 10
219.92789
 20
173.965102
 30
0.0
 11
219.941409
 21
173.978622
 31
0.0
  0
LINE
  5
15C5
100
AcDbEntity
  8
11000_LEFT
370
    25
390
0
  6
CONTINUOUS
 62
     7
100
AcDbLine
 10
219.914616
 20
173.951827
 30
0.0
 11
219.92789
 21
173.965102
 31
0.0
  0
LINE
  5
15C6
100
AcDbEntity
  8
11000_LEFT
370
    25
390
0
  6
CONTINUOUS
 62
     7
100
AcDbLine
 10
219.854717
 20
173.891929
 30
0.0
 11
219.865569
 21
173.902782
 31
0.0
  0
LINE
  5
15C7
100
AcDbEntity
  8
11000_LEFT
370
    25
390
0
  6
CONTINUOUS
 62
     7
100
AcDbLine
 10
219.349424
 20
174.376586
 30
0.0
 11
219.359483
 21
174.386646
 31
0.0
  0
LINE
  5
15C8
100
AcDbEntity
  8
11000_LEFT
370
    25
390
0
  6
CONTINUOUS
 62
     7
100
AcDbLine
 10
220.004219
 20
174.041431
 30
0.0
 11
220.01343
 21
174.050643
 31
0.0
  0
LINE
  5
15C9
100
AcDbEntity
  8
11000_LEFT
370
    25
390
0
  6
CONTINUOUS
 62
     7
100
AcDbLine
 10
220.031753
 20
174.068965
 30
0.0
 11
220.040816
 21
174.078029
 31
0.0
  0
LINE
  5
15CA
100
AcDbEntity
  8
11000_LEFT
370
    25
390
0
  6
CONTINUOUS
 62
     7
100
AcDbLine
 10
219.323916
 20
174.351077
 30
0.0
 11
219.331598
 21
174.35876
 31
0.0
  0
LINE
  5
15CB
100
AcDbEntity
  8
11000_LEFT
370
    25
390
0
  6
CONTINUOUS
 62
     7
100
AcDbLine
 10
219.406414
 20
174.433574
 30
0.0
 11
219.419431
 21
174.446593
 31
0.0
  0
LINE
  5
15CC
100
AcDbEntity
  8
11000_LEFT
370
    25
390
0
  6
CONTINUOUS
 62
     7
100
AcDbLine
 10
219.381739
 20
174.4089
 30
0.0
 11
219.393819
 21
174.420982
 31
0.0
  0
LINE
  5
15CD
100
AcDbEntity
  8
11000_LEFT
370
    25
390
0
  6
CONTINUOUS
 62
     7
100
AcDbLine
 10
219.806249
 20
173.843459
 30
0.0
 11
219.812153
 21
173.849364
 31
0.0
  0
LINE
  5
15CE
100
AcDbEntity
  8
11000_LEFT
370
    25
390
0
  6
CONTINUOUS
 62
     7
100
AcDbLine
 10
219.446365
 20
174.473525
 30
0.0
 11
219.460099
 21
174.487262
 31
0.0
  0
LINE
  5
15CF
100
AcDbEntity
  8
11000_LEFT
370
    25
390
0
  6
CONTINUOUS
 62
     7
100
AcDbLine
 10
219.545842
 20
174.573001
 30
0.0
 11
219.554805
 21
174.581966
 31
0.0
  0
LINE
  5
15D0
100
AcDbEntity
  8
11000_LEFT
370
    25
390
0
  6
CONTINUOUS
 62
     7
100
AcDbLine
 10
219.554805
 20
174.581966
 30
0.0
 11
219.563645
 21
174.590808
 31
0.0
  0
LINE
  5
15D1
100
AcDbEntity
  8
11000_LEFT
370
    25
390
0
  6
CONTINUOUS
 62
     7
100
AcDbLine
 10
219.877065
 20
173.914275
 30
0.0
 11
219.889124
 21
173.926337
 31
0.0
  0
LINE
  5
15D2
100
AcDbEntity
  8
11000_LEFT
370
    25
390
0
  6
CONTINUOUS
 62
     7
100
AcDbLine
 10
219.818982
 20
173.856193
 30
0.0
 11
219.826693
 21
173.863906
 31
0.0
  0
LINE
  5
15D3
100
AcDbEntity
  8
11000_LEFT
370
    25
390
0
  6
CONTINUOUS
 62
     7
100
AcDbLine
 10
219.340115
 20
174.367274
 30
0.0
 11
219.349424
 21
174.376586
 31
0.0
  0
LINE
  5
15D4
100
AcDbEntity
  8
11000_LEFT
370
    25
390
0
  6
CONTINUOUS
 62
     7
100
AcDbLine
 10
219.527642
 20
174.554801
 30
0.0
 11
219.536779
 21
174.563941
 31
0.0
  0
LINE
  5
15D5
100
AcDbEntity
  8
11000_LEFT
370
    25
390
0
  6
CONTINUOUS
 62
     7
100
AcDbLine
 10
219.311231
 20
174.338393
 30
0.0
 11
219.317112
 21
174.344276
 31
0.0
  0
LINE
  5
15D6
100
AcDbEntity
  8
11000_LEFT
370
    25
390
0
  6
CONTINUOUS
 62
     7
100
AcDbLine
 10
219.314164
 20
174.553458
 30
0.0
 11
219.316601
 21
174.555896
 31
0.0
  0
LINE
  5
15D7
100
AcDbEntity
  8
11000_LEFT
370
    25
390
0
  6
CONTINUOUS
 62
     7
100
AcDbLine
 10
219.311861
 20
174.551154
 30
0.0
 11
219.314164
 21
174.553458
 31
0.0
  0
LINE
  5
15D8
100
AcDbEntity
  8
11000_LEFT
370
    25
390
0
  6
CONTINUOUS
 62
     7
100
AcDbLine
 10
219.309707
 20
174.548999
 30
0.0
 11
219.311861
 21
174.551154
 31
0.0
  0
LINE
  5
15D9
100
AcDbEntity
  8
11000_LEFT
370
    25
390
0
  6
CONTINUOUS
 62
     7
100
AcDbLine
 10
219.302406
 20
174.329566
 30
0.0
 11
219.306314
 21
174.333476
 31
0.0
  0
LINE
  5
15DA
100
AcDbEntity
  8
11000_LEFT
370
    25
390
0
  6
CONTINUOUS
 62
     7
100
AcDbLine
 10
220.020861
 20
173.845939
 30
0.0
 11
220.022756
 21
173.847835
 31
0.0
  0
LINE
  5
15DB
100
AcDbEntity
  8
11000_LEFT
370
    25
390
0
  6
CONTINUOUS
 62
     7
100
AcDbLine
 10
220.015727
 20
173.840808
 30
0.0
 11
220.017344
 21
173.842426
 31
0.0
  0
LINE
  5
15DC
100
AcDbEntity
  8
11000_LEFT
370
    25
390
0
  6
CONTINUOUS
 62
     7
100
AcDbLine
 10
220.014206
 20
173.839286
 30
0.0
 11
220.015727
 21
173.840808
 31
0.0
  0
LINE
  5
15DD
100
AcDbEntity
  8
11000_LEFT
370
    25
390
0
  6
CONTINUOUS
 62
     7
100
AcDbLine
 10
219.794526
 20
173.831737
 30
0.0
 11
219.797392
 21
173.834605
 31
0.0
  0
LINE
  5
15DE
100
AcDbEntity
  8
11000_LEFT
370
    25
390
0
  6
CONTINUOUS
 62
     7
100
AcDbLine
 10
220.012784
 20
173.837863
 30
0.0
 11
220.014206
 21
173.839286
 31
0.0
  0
LINE
  5
15DF
100
AcDbEntity
  8
11000_LEFT
370
    25
390
0
  6
CONTINUOUS
 62
     7
100
AcDbLine
 10
219.300185
 20
174.539478
 30
0.0
 11
219.301347
 21
174.540641
 31
0.0
  0
LINE
  5
15E0
100
AcDbEntity
  8
11000_LEFT
370
    25
390
0
  6
CONTINUOUS
 62
     7
100
AcDbLine
 10
220.026808
 20
173.851886
 30
0.0
 11
220.028961
 21
173.854041
 31
0.0
  0
LINE
  5
15E1
100
AcDbEntity
  8
11000_LEFT
370
    25
390
0
  6
CONTINUOUS
 62
     7
100
AcDbLine
 10
219.319156
 20
174.558448
 30
0.0
 11
219.321854
 21
174.561149
 31
0.0
  0
LINE
  5
15E2
100
AcDbEntity
  8
11000_LEFT
370
    25
390
0
  6
CONTINUOUS
 62
     7
100
AcDbLine
 10
219.302684
 20
174.541976
 30
0.0
 11
219.304193
 21
174.543487
 31
0.0
  0
LINE
  5
15E3
100
AcDbEntity
  8
11000_LEFT
370
    25
390
0
  6
CONTINUOUS
 62
     7
100
AcDbLine
 10
220.009134
 20
173.834212
 30
0.0
 11
220.010246
 21
173.835326
 31
0.0
  0
LINE
  5
15E4
100
AcDbEntity
  8
11000_LEFT
370
    25
390
0
  6
CONTINUOUS
 62
     7
100
AcDbLine
 10
219.30587
 20
174.545161
 30
0.0
 11
219.307709
 21
174.547004
 31
0.0
  0
LINE
  5
15E5
100
AcDbEntity
  8
11000_LEFT
370
    25
390
0
  6
CONTINUOUS
 62
     7
100
AcDbLine
 10
219.297798
 20
174.53709
 30
0.0
 11
219.298406
 21
174.5377
 31
0.0
  0
LINE
  5
15E6
100
AcDbEntity
  8
11000_LEFT
370
    25
390
0
  6
CONTINUOUS
 62
     7
100
AcDbLine
 10
220.005234
 20
173.830314
 30
0.0
 11
220.005785
 21
173.830867
 31
0.0
  0
LINE
  5
15E7
100
AcDbEntity
  8
11000_LEFT
370
    25
390
0
  6
CONTINUOUS
 62
     7
100
AcDbLine
 10
220.004801
 20
173.829879
 30
0.0
 11
220.005234
 21
173.830314
 31
0.0
  0
LINE
  5
15E8
100
AcDbEntity
  8
11000_LEFT
370
    25
390
0
  6
CONTINUOUS
 62
     7
100
AcDbLine
 10
219.2422
 20
174.929633
 30
0.0
 11
219.25223
 21
174.939811
 31
0.0
  0
LINE
  5
15E9
100
AcDbEntity
  8
11000_LEFT
370
    25
390
0
  6
CONTINUOUS
 62
     7
100
AcDbLine
 10
219.25223
 20
174.939811
 30
0.0
 11
219.261961
 21
174.94971
 31
0.0
  0
LINE
  5
15EA
100
AcDbEntity
  8
11000_LEFT
370
    25
390
0
  6
CONTINUOUS
 62
     7
100
AcDbLine
 10
219.261961
 20
174.94971
 30
0.0
 11
219.271361
 21
174.959304
 31
0.0
  0
LINE
  5
15EB
100
AcDbEntity
  8
11000_LEFT
370
    25
390
0
  6
CONTINUOUS
 62
     7
100
AcDbLine
 10
219.271361
 20
174.959304
 30
0.0
 11
219.280399
 21
174.968551
 31
0.0
  0
LINE
  5
15EC
100
AcDbEntity
  8
11000_LEFT
370
    25
390
0
  6
CONTINUOUS
 62
     7
100
AcDbLine
 10
219.280399
 20
174.968551
 30
0.0
 11
219.289043
 21
174.977428
 31
0.0
  0
LINE
  5
15ED
100
AcDbEntity
  8
11000_LEFT
370
    25
390
0
  6
CONTINUOUS
 62
     7
100
AcDbLine
 10
219.289043
 20
174.977428
 30
0.0
 11
219.297261
 21
174.985892
 31
0.0
  0
LINE
  5
15EE
100
AcDbEntity
  8
11000_LEFT
370
    25
390
0
  6
CONTINUOUS
 62
     7
100
AcDbLine
 10
219.297261
 20
174.985892
 30
0.0
 11
219.305022
 21
174.993919
 31
0.0
  0
LINE
  5
15EF
100
AcDbEntity
  8
11000_LEFT
370
    25
390
0
  6
CONTINUOUS
 62
     7
100
AcDbLine
 10
219.09838
 20
174.997745
 30
0.0
 11
219.102348
 21
175.001861
 31
0.0
  0
LINE
  5
15F0
100
AcDbEntity
  8
11000_LEFT
370
    25
390
0
  6
CONTINUOUS
 62
     7
100
AcDbLine
 10
219.305022
 20
174.993919
 30
0.0
 11
219.312295
 21
175.001476
 31
0.0
  0
LINE
  5
15F1
100
AcDbEntity
  8
11000_LEFT
370
    25
390
0
  6
CONTINUOUS
 62
     7
100
AcDbLine
 10
219.102348
 20
175.001861
 30
0.0
 11
219.10619
 21
175.00587
 31
0.0
  0
LINE
  5
15F2
100
AcDbEntity
  8
11000_LEFT
370
    25
390
0
  6
CONTINUOUS
 62
     7
100
AcDbLine
 10
219.312295
 20
175.001476
 30
0.0
 11
219.319046
 21
175.008521
 31
0.0
  0
LINE
  5
15F3
100
AcDbEntity
  8
11000_LEFT
370
    25
390
0
  6
CONTINUOUS
 62
     7
100
AcDbLine
 10
219.29276
 20
174.531829
 30
0.0
 11
219.297381
 21
174.536674
 31
0.0
  0
LINE
  5
15F4
100
AcDbEntity
  8
11000_LEFT
370
    25
390
0
  6
CONTINUOUS
 62
     7
100
AcDbLine
 10
218.782192
 20
175.027641
 30
0.0
 11
218.786721
 21
175.032397
 31
0.0
  0
LINE
  5
15F5
100
AcDbEntity
  8
11000_LEFT
370
    25
390
0
  6
CONTINUOUS
 62
     7
100
AcDbLine
 10
219.319046
 20
175.008521
 30
0.0
 11
219.325246
 21
175.015033
 31
0.0
  0
LINE
  5
15F6
100
AcDbEntity
  8
11000_LEFT
370
    25
390
0
  6
CONTINUOUS
 62
     7
100
AcDbLine
 10
219.10619
 20
175.00587
 30
0.0
 11
219.109893
 21
175.009765
 31
0.0
  0
LINE
  5
15F7
100
AcDbEntity
  8
11000_LEFT
370
    25
390
0
  6
CONTINUOUS
 62
     7
100
AcDbLine
 10
218.78198
 20
175.027209
 30
0.0
 11
218.7869
 21
175.032386
 31
0.0
  0
LINE
  5
15F8
100
AcDbEntity
  8
11000_LEFT
370
    25
390
0
  6
CONTINUOUS
 62
     7
100
AcDbLine
 10
219.325246
 20
175.015033
 30
0.0
 11
219.330862
 21
175.020976
 31
0.0
  0
LINE
  5
15F9
100
AcDbEntity
  8
11000_LEFT
370
    25
390
0
  6
CONTINUOUS
 62
     7
100
AcDbLine
 10
219.109893
 20
175.009765
 30
0.0
 11
219.113445
 21
175.01353
 31
0.0
  0
LINE
  5
15FA
100
AcDbEntity
  8
11000_LEFT
370
    25
390
0
  6
CONTINUOUS
 62
     7
100
AcDbLine
 10
219.113445
 20
175.01353
 30
0.0
 11
219.116834
 21
175.017146
 31
0.0
  0
LINE
  5
15FB
100
AcDbEntity
  8
11000_LEFT
370
    25
390
0
  6
CONTINUOUS
 62
     7
100
AcDbLine
 10
219.116834
 20
175.017146
 30
0.0
 11
219.120047
 21
175.02061
 31
0.0
  0
LINE
  5
15FC
100
AcDbEntity
  8
11000_LEFT
370
    25
390
0
  6
CONTINUOUS
 62
     7
100
AcDbLine
 10
219.120047
 20
175.02061
 30
0.0
 11
219.123071
 21
175.023898
 31
0.0
  0
LINE
  5
15FD
100
AcDbEntity
  8
11000_LEFT
370
    25
390
0
  6
CONTINUOUS
 62
     7
100
AcDbLine
 10
219.123071
 20
175.023898
 30
0.0
 11
219.125895
 21
175.027003
 31
0.0
  0
LINE
  5
15FE
100
AcDbEntity
  8
11000_LEFT
370
    25
390
0
  6
CONTINUOUS
 62
     7
100
AcDbLine
 10
219.125895
 20
175.027003
 30
0.0
 11
219.128506
 21
175.029914
 31
0.0
  0
LINE
  5
15FF
100
AcDbEntity
  8
11000_LEFT
370
    25
390
0
  6
CONTINUOUS
 62
     7
100
AcDbLine
 10
220.502897
 20
173.665229
 30
0.0
 11
220.507226
 21
173.670066
 31
0.0
  0
LINE
  5
1600
100
AcDbEntity
  8
11000_LEFT
370
    25
390
0
  6
CONTINUOUS
 62
     7
100
AcDbLine
 10
219.128506
 20
175.029914
 30
0.0
 11
219.130892
 21
175.032611
 31
0.0
  0
LINE
  5
1601
100
AcDbEntity
  8
11000_LEFT
370
    25
390
0
  6
CONTINUOUS
 62
     7
100
AcDbLine
 10
218.778227
 20
175.022918
 30
0.0
 11
218.78198
 21
175.027209
 31
0.0
  0
LINE
  5
1602
100
AcDbEntity
  8
11000_LEFT
370
    25
390
0
  6
CONTINUOUS
 62
     7
100
AcDbLine
 10
219.130892
 20
175.032611
 30
0.0
 11
219.133041
 21
175.035083
 31
0.0
  0
LINE
  5
1603
100
AcDbEntity
  8
11000_LEFT
370
    25
390
0
  6
CONTINUOUS
 62
     7
100
AcDbLine
 10
219.28837
 20
174.526771
 30
0.0
 11
219.29276
 21
174.531829
 31
0.0
  0
LINE
  5
1604
100
AcDbEntity
  8
11000_LEFT
370
    25
390
0
  6
CONTINUOUS
 62
     7
100
AcDbLine
 10
218.777673
 20
175.022433
 30
0.0
 11
218.782192
 21
175.027641
 31
0.0
  0
LINE
  5
1605
100
AcDbEntity
  8
11000_LEFT
370
    25
390
0
  6
CONTINUOUS
 62
     7
100
AcDbLine
 10
219.330862
 20
175.020976
 30
0.0
 11
219.4621
 21
175.173686
 31
0.0
  0
LINE
  5
1606
100
AcDbEntity
  8
11000_LEFT
370
    25
390
0
  6
CONTINUOUS
 62
     7
100
AcDbLine
 10
219.133041
 20
175.035083
 30
0.0
 11
219.349189
 21
175.286597
 31
0.0
  0
LINE
  5
1607
100
AcDbEntity
  8
11000_LEFT
370
    25
390
0
  6
CONTINUOUS
 62
     7
100
AcDbLine
 10
218.774011
 20
175.01765
 30
0.0
 11
218.778227
 21
175.022918
 31
0.0
  0
LINE
  5
1608
100
AcDbEntity
  8
11000_LEFT
370
    25
390
0
  6
CONTINUOUS
 62
     7
100
AcDbLine
 10
220.507226
 20
173.670066
 30
0.0
 11
220.511269
 21
173.675163
 31
0.0
  0
LINE
  5
1609
100
AcDbEntity
  8
11000_LEFT
370
    25
390
0
  6
CONTINUOUS
 62
     7
100
AcDbLine
 10
218.773357
 20
175.01699
 30
0.0
 11
218.777673
 21
175.022433
 31
0.0
  0
LINE
  5
160A
100
AcDbEntity
  8
11000_LEFT
370
    25
390
0
  6
CONTINUOUS
 62
     7
100
AcDbLine
 10
219.284217
 20
174.52151
 30
0.0
 11
219.28837
 21
174.526771
 31
0.0
  0
LINE
  5
160B
100
AcDbEntity
  8
11000_LEFT
370
    25
390
0
  6
CONTINUOUS
 62
     7
100
AcDbLine
 10
218.76961
 20
175.011611
 30
0.0
 11
218.774011
 21
175.01765
 31
0.0
  0
LINE
  5
160C
100
AcDbEntity
  8
11000_LEFT
370
    25
390
0
  6
CONTINUOUS
 62
     7
100
AcDbLine
 10
218.769378
 20
175.011497
 30
0.0
 11
218.773357
 21
175.01699
 31
0.0
  0
LINE
  5
160D
100
AcDbEntity
  8
11000_LEFT
370
    25
390
0
  6
CONTINUOUS
 62
     7
100
AcDbLine
 10
219.280306
 20
174.516067
 30
0.0
 11
219.284217
 21
174.52151
 31
0.0
  0
LINE
  5
160E
100
AcDbEntity
  8
11000_LEFT
370
    25
390
0
  6
CONTINUOUS
 62
     7
100
AcDbLine
 10
220.511269
 20
173.675163
 30
0.0
 11
220.515022
 21
173.680507
 31
0.0
  0
LINE
  5
160F
100
AcDbEntity
  8
11000_LEFT
370
    25
390
0
  6
CONTINUOUS
 62
     7
100
AcDbLine
 10
220.028961
 20
173.854041
 30
0.0
 11
220.029027
 21
173.854137
 31
0.0
  0
LINE
  5
1610
100
AcDbEntity
  8
11000_LEFT
370
    25
390
0
  6
CONTINUOUS
 62
     7
100
AcDbLine
 10
220.465556
 20
173.630569
 30
0.0
 11
220.467068
 21
173.632781
 31
0.0
  0
LINE
  5
1611
100
AcDbEntity
  8
11000_LEFT
370
    25
390
0
  6
CONTINUOUS
 62
     7
100
AcDbLine
 10
218.76585
 20
175.005901
 30
0.0
 11
218.76961
 21
175.011611
 31
0.0
  0
LINE
  5
1612
100
AcDbEntity
  8
11000_LEFT
370
    25
390
0
  6
CONTINUOUS
 62
     7
100
AcDbLine
 10
218.7658
 20
175.006042
 30
0.0
 11
218.769378
 21
175.011497
 31
0.0
  0
LINE
  5
1613
100
AcDbEntity
  8
11000_LEFT
370
    25
390
0
  6
CONTINUOUS
 62
     7
100
AcDbLine
 10
219.276642
 20
174.510452
 30
0.0
 11
219.280306
 21
174.516067
 31
0.0
  0
LINE
  5
1614
100
AcDbEntity
  8
11000_LEFT
370
    25
390
0
  6
CONTINUOUS
 62
     7
100
AcDbLine
 10
220.515022
 20
173.680507
 30
0.0
 11
220.518478
 21
173.68608
 31
0.0
  0
LINE
  5
1615
100
AcDbEntity
  8
11000_LEFT
370
    25
390
0
  6
CONTINUOUS
 62
     7
100
AcDbLine
 10
218.762471
 20
175.000457
 30
0.0
 11
218.7658
 21
175.006042
 31
0.0
  0
LINE
  5
1616
100
AcDbEntity
  8
11000_LEFT
370
    25
390
0
  6
CONTINUOUS
 62
     7
100
AcDbLine
 10
218.762524
 20
175.00027
 30
0.0
 11
218.76585
 21
175.005901
 31
0.0
  0
LINE
  5
1617
100
AcDbEntity
  8
11000_LEFT
370
    25
390
0
  6
CONTINUOUS
 62
     7
100
AcDbLine
 10
219.273231
 20
174.504676
 30
0.0
 11
219.276642
 21
174.510452
 31
0.0
  0
LINE
  5
1618
100
AcDbEntity
  8
11000_LEFT
370
    25
390
0
  6
CONTINUOUS
 62
     7
100
AcDbLine
 10
220.518478
 20
173.68608
 30
0.0
 11
220.521634
 21
173.691863
 31
0.0
  0
LINE
  5
1619
100
AcDbEntity
  8
11000_LEFT
370
    25
390
0
  6
CONTINUOUS
 62
     7
100
AcDbLine
 10
218.759369
 20
174.994682
 30
0.0
 11
218.762471
 21
175.000457
 31
0.0
  0
LINE
  5
161A
100
AcDbEntity
  8
11000_LEFT
370
    25
390
0
  6
CONTINUOUS
 62
     7
100
AcDbLine
 10
218.759408
 20
174.994441
 30
0.0
 11
218.762524
 21
175.00027
 31
0.0
  0
LINE
  5
161B
100
AcDbEntity
  8
11000_LEFT
370
    25
390
0
  6
CONTINUOUS
 62
     7
100
AcDbLine
 10
219.270076
 20
174.498756
 30
0.0
 11
219.273231
 21
174.504676
 31
0.0
  0
LINE
  5
161C
100
AcDbEntity
  8
11000_LEFT
370
    25
390
0
  6
CONTINUOUS
 62
     7
100
AcDbLine
 10
220.467068
 20
173.632781
 30
0.0
 11
220.468298
 21
173.635257
 31
0.0
  0
LINE
  5
161D
100
AcDbEntity
  8
11000_LEFT
370
    25
390
0
  6
CONTINUOUS
 62
     7
100
AcDbLine
 10
218.756483
 20
174.988677
 30
0.0
 11
218.759369
 21
174.994682
 31
0.0
  0
LINE
  5
161E
100
AcDbEntity
  8
11000_LEFT
370
    25
390
0
  6
CONTINUOUS
 62
     7
100
AcDbLine
 10
219.267183
 20
174.492702
 30
0.0
 11
219.270076
 21
174.498756
 31
0.0
  0
LINE
  5
161F
100
AcDbEntity
  8
11000_LEFT
370
    25
390
0
  6
CONTINUOUS
 62
     7
100
AcDbLine
 10
218.756511
 20
174.988368
 30
0.0
 11
218.759408
 21
174.994441
 31
0.0
  0
LINE
  5
1620
100
AcDbEntity
  8
11000_LEFT
370
    25
390
0
  6
CONTINUOUS
 62
     7
100
AcDbLine
 10
220.521634
 20
173.691863
 30
0.0
 11
220.524484
 21
173.697845
 31
0.0
  0
LINE
  5
1621
100
AcDbEntity
  8
11000_LEFT
370
    25
390
0
  6
CONTINUOUS
 62
     7
100
AcDbLine
 10
215.048956
 20
201.228831
 30
0.0
 11
215.424658
 21
202.034522
 31
0.0
  0
LINE
  5
1622
100
AcDbEntity
  8
11000_LEFT
370
    25
390
0
  6
CONTINUOUS
 62
     7
100
AcDbLine
 10
203.8
 20
191.758846
 30
0.0
 11
205.912025
 21
196.288093
 31
0.0
  0
LINE
  5
1623
100
AcDbEntity
  8
11000_LEFT
370
    25
390
0
  6
CONTINUOUS
 62
     7
100
AcDbLine
 10
203.618739
 20
191.843368
 30
0.0
 11
205.730762
 21
196.372619
 31
0.0
  0
LINE
  5
1624
100
AcDbEntity
  8
11000_LEFT
370
    25
390
0
  6
CONTINUOUS
 62
     7
100
AcDbLine
 10
218.753807
 20
174.982406
 30
0.0
 11
218.756483
 21
174.988677
 31
0.0
  0
LINE
  5
1625
100
AcDbEntity
  8
11000_LEFT
370
    25
390
0
  6
CONTINUOUS
 62
     7
100
AcDbLine
 10
219.264557
 20
174.48653
 30
0.0
 11
219.267183
 21
174.492702
 31
0.0
  0
LINE
  5
1626
100
AcDbEntity
  8
11000_LEFT
370
    25
390
0
  6
CONTINUOUS
 62
     7
100
AcDbLine
 10
218.753865
 20
174.982112
 30
0.0
 11
218.756511
 21
174.988368
 31
0.0
  0
LINE
  5
1627
100
AcDbEntity
  8
11000_LEFT
370
    25
390
0
  6
CONTINUOUS
 62
     7
100
AcDbLine
 10
220.524484
 20
173.697845
 30
0.0
 11
220.527023
 21
173.704002
 31
0.0
  0
LINE
  5
1628
100
AcDbEntity
  8
11000_LEFT
370
    25
390
0
  6
CONTINUOUS
 62
     7
100
AcDbLine
 10
219.262204
 20
174.480247
 30
0.0
 11
219.264557
 21
174.48653
 31
0.0
  0
LINE
  5
1629
100
AcDbEntity
  8
11000_LEFT
370
    25
390
0
  6
CONTINUOUS
 62
     7
100
AcDbLine
 10
218.751401
 20
174.975978
 30
0.0
 11
218.753807
 21
174.982406
 31
0.0
  0
LINE
  5
162A
100
AcDbEntity
  8
11000_LEFT
370
    25
390
0
  6
CONTINUOUS
 62
     7
100
AcDbLine
 10
218.751487
 20
174.975742
 30
0.0
 11
218.753865
 21
174.982112
 31
0.0
  0
LINE
  5
162B
100
AcDbEntity
  8
11000_LEFT
370
    25
390
0
  6
CONTINUOUS
 62
     7
100
AcDbLine
 10
220.527023
 20
173.704002
 30
0.0
 11
220.529247
 21
173.710319
 31
0.0
  0
LINE
  5
162C
100
AcDbEntity
  8
11000_LEFT
370
    25
390
0
  6
CONTINUOUS
 62
     7
100
AcDbLine
 10
220.468298
 20
173.635257
 30
0.0
 11
220.469248
 21
173.637984
 31
0.0
  0
LINE
  5
162D
100
AcDbEntity
  8
11000_LEFT
370
    25
390
0
  6
CONTINUOUS
 62
     7
100
AcDbLine
 10
205.514936
 20
178.955062
 30
0.0
 11
205.580049
 21
179.144164
 31
0.0
  0
LINE
  5
162E
100
AcDbEntity
  8
11000_LEFT
370
    25
390
0
  6
CONTINUOUS
 62
     7
100
AcDbLine
 10
202.753026
 20
176.998668
 30
0.0
 11
203.713124
 21
179.786998
 31
0.0
  0
LINE
  5
162F
100
AcDbEntity
  8
11000_LEFT
370
    25
390
0
  6
CONTINUOUS
 62
     7
100
AcDbLine
 10
203.007243
 20
177.122657
 30
0.0
 11
203.837115
 21
179.532783
 31
0.0
  0
LINE
  5
1630
100
AcDbEntity
  8
11000_LEFT
370
    25
390
0
  6
CONTINUOUS
 62
     7
100
AcDbLine
 10
204.61995
 20
176.355834
 30
0.0
 11
204.685064
 21
176.54494
 31
0.0
  0
LINE
  5
1631
100
AcDbEntity
  8
11000_LEFT
370
    25
390
0
  6
CONTINUOUS
 62
     7
100
AcDbLine
 10
219.260127
 20
174.473876
 30
0.0
 11
219.262204
 21
174.480247
 31
0.0
  0
LINE
  5
1632
100
AcDbEntity
  8
11000_LEFT
370
    25
390
0
  6
CONTINUOUS
 62
     7
100
AcDbLine
 10
218.749398
 20
174.969318
 30
0.0
 11
218.751487
 21
174.975742
 31
0.0
  0
LINE
  5
1633
100
AcDbEntity
  8
11000_LEFT
370
    25
390
0
  6
CONTINUOUS
 62
     7
100
AcDbLine
 10
218.749297
 20
174.969466
 30
0.0
 11
218.751401
 21
174.975978
 31
0.0
  0
LINE
  5
1634
100
AcDbEntity
  8
11000_LEFT
370
    25
390
0
  6
CONTINUOUS
 62
     7
100
AcDbLine
 10
220.499118
 20
173.314964
 30
0.0
 11
220.499554
 21
173.316344
 31
0.0
  0
LINE
  5
1635
100
AcDbEntity
  8
11000_LEFT
370
    25
390
0
  6
CONTINUOUS
 62
     7
100
AcDbLine
 10
220.029027
 20
173.854137
 30
0.0
 11
220.029065
 21
173.854259
 31
0.0
  0
LINE
  5
1636
100
AcDbEntity
  8
11000_LEFT
370
    25
390
0
  6
CONTINUOUS
 62
     7
100
AcDbLine
 10
220.499983
 20
173.318168
 30
0.0
 11
220.50021
 21
173.318908
 31
0.0
  0
LINE
  5
1637
100
AcDbEntity
  8
11000_LEFT
370
    25
390
0
  6
CONTINUOUS
 62
     7
100
AcDbLine
 10
220.529247
 20
173.710319
 30
0.0
 11
220.531149
 21
173.716781
 31
0.0
  0
LINE
  5
1638
100
AcDbEntity
  8
11000_LEFT
370
    25
390
0
  6
CONTINUOUS
 62
     7
100
AcDbLine
 10
220.496157
 20
173.304229
 30
0.0
 11
220.497045
 21
173.307281
 31
0.0
  0
LINE
  5
1639
100
AcDbEntity
  8
11000_LEFT
370
    25
390
0
  6
CONTINUOUS
 62
     7
100
AcDbLine
 10
220.498669
 20
173.313415
 30
0.0
 11
220.499118
 21
173.314964
 31
0.0
  0
LINE
  5
163A
100
AcDbEntity
  8
11000_LEFT
370
    25
390
0
  6
CONTINUOUS
 62
     7
100
AcDbLine
 10
220.491329
 20
173.286548
 30
0.0
 11
220.492954
 21
173.292171
 31
0.0
  0
LINE
  5
163B
100
AcDbEntity
  8
11000_LEFT
370
    25
390
0
  6
CONTINUOUS
 62
     7
100
AcDbLine
 10
220.497045
 20
173.307281
 30
0.0
 11
220.497756
 21
173.309779
 31
0.0
  0
LINE
  5
163C
100
AcDbEntity
  8
11000_LEFT
370
    25
390
0
  6
CONTINUOUS
 62
     7
100
AcDbLine
 10
219.258333
 20
174.467422
 30
0.0
 11
219.260127
 21
174.473876
 31
0.0
  0
LINE
  5
163D
100
AcDbEntity
  8
11000_LEFT
370
    25
390
0
  6
CONTINUOUS
 62
     7
100
AcDbLine
 10
218.747616
 20
174.962901
 30
0.0
 11
218.749398
 21
174.969318
 31
0.0
  0
LINE
  5
163E
100
AcDbEntity
  8
11000_LEFT
370
    25
390
0
  6
CONTINUOUS
 62
     7
100
AcDbLine
 10
218.747497
 20
174.962894
 30
0.0
 11
218.749297
 21
174.969466
 31
0.0
  0
LINE
  5
163F
100
AcDbEntity
  8
11000_LEFT
370
    25
390
0
  6
CONTINUOUS
 62
     7
100
AcDbLine
 10
220.482768
 20
173.25497
 30
0.0
 11
220.485353
 21
173.264419
 31
0.0
  0
LINE
  5
1640
100
AcDbEntity
  8
11000_LEFT
370
    25
390
0
  6
CONTINUOUS
 62
     7
100
AcDbLine
 10
220.485353
 20
173.264419
 30
0.0
 11
220.48763
 21
173.272754
 31
0.0
  0
LINE
  5
1641
100
AcDbEntity
  8
11000_LEFT
370
    25
390
0
  6
CONTINUOUS
 62
     7
100
AcDbLine
 10
220.489564
 20
173.280078
 30
0.0
 11
220.491329
 21
173.286548
 31
0.0
  0
LINE
  5
1642
100
AcDbEntity
  8
11000_LEFT
370
    25
390
0
  6
CONTINUOUS
 62
     7
100
AcDbLine
 10
220.479857
 20
173.244277
 30
0.0
 11
220.482768
 21
173.25497
 31
0.0
  0
LINE
  5
1643
100
AcDbEntity
  8
11000_LEFT
370
    25
390
0
  6
CONTINUOUS
 62
     7
100
AcDbLine
 10
220.495209
 20
173.300742
 30
0.0
 11
220.496157
 21
173.304229
 31
0.0
  0
LINE
  5
1644
100
AcDbEntity
  8
11000_LEFT
370
    25
390
0
  6
CONTINUOUS
 62
     7
100
AcDbLine
 10
220.492954
 20
173.292171
 30
0.0
 11
220.494199
 21
173.296809
 31
0.0
  0
LINE
  5
1645
100
AcDbEntity
  8
11000_LEFT
370
    25
390
0
  6
CONTINUOUS
 62
     7
100
AcDbLine
 10
220.48763
 20
173.272754
 30
0.0
 11
220.489564
 21
173.280078
 31
0.0
  0
LINE
  5
1646
100
AcDbEntity
  8
11000_LEFT
370
    25
390
0
  6
CONTINUOUS
 62
     7
100
AcDbLine
 10
220.494199
 20
173.296809
 30
0.0
 11
220.495209
 21
173.300742
 31
0.0
  0
LINE
  5
1647
100
AcDbEntity
  8
11000_LEFT
370
    25
390
0
  6
CONTINUOUS
 62
     7
100
AcDbLine
 10
220.497756
 20
173.309779
 30
0.0
 11
220.498258
 21
173.311748
 31
0.0
  0
LINE
  5
1648
100
AcDbEntity
  8
11000_LEFT
370
    25
390
0
  6
CONTINUOUS
 62
     7
100
AcDbLine
 10
220.498258
 20
173.311748
 30
0.0
 11
220.498669
 21
173.313415
 31
0.0
  0
LINE
  5
1649
100
AcDbEntity
  8
11000_LEFT
370
    25
390
0
  6
CONTINUOUS
 62
     7
100
AcDbLine
 10
220.499554
 20
173.316344
 30
0.0
 11
220.4998
 21
173.317344
 31
0.0
  0
LINE
  5
164A
100
AcDbEntity
  8
11000_LEFT
370
    25
390
0
  6
CONTINUOUS
 62
     7
100
AcDbLine
 10
220.043901
 20
174.00175
 30
0.0
 11
220.046143
 21
174.011016
 31
0.0
  0
LINE
  5
164B
100
AcDbEntity
  8
11000_LEFT
370
    25
390
0
  6
CONTINUOUS
 62
     7
100
AcDbLine
 10
220.046143
 20
174.011016
 30
0.0
 11
220.0484
 21
174.020354
 31
0.0
  0
LINE
  5
164C
100
AcDbEntity
  8
11000_LEFT
370
    25
390
0
  6
CONTINUOUS
 62
     7
100
AcDbLine
 10
220.0484
 20
174.020354
 30
0.0
 11
220.050659
 21
174.029742
 31
0.0
  0
LINE
  5
164D
100
AcDbEntity
  8
11000_LEFT
370
    25
390
0
  6
CONTINUOUS
 62
     7
100
AcDbLine
 10
220.531149
 20
173.716781
 30
0.0
 11
220.532724
 21
173.723373
 31
0.0
  0
LINE
  5
164E
100
AcDbEntity
  8
11000_LEFT
370
    25
390
0
  6
CONTINUOUS
 62
     7
100
AcDbLine
 10
220.050659
 20
174.029742
 30
0.0
 11
220.052909
 21
174.039169
 31
0.0
  0
LINE
  5
164F
100
AcDbEntity
  8
11000_LEFT
370
    25
390
0
  6
CONTINUOUS
 62
     7
100
AcDbLine
 10
220.052909
 20
174.039169
 30
0.0
 11
220.055136
 21
174.04861
 31
0.0
  0
LINE
  5
1650
100
AcDbEntity
  8
11000_LEFT
370
    25
390
0
  6
CONTINUOUS
 62
     7
100
AcDbLine
 10
220.055136
 20
174.04861
 30
0.0
 11
220.057336
 21
174.058074
 31
0.0
  0
LINE
  5
1651
100
AcDbEntity
  8
11000_LEFT
370
    25
390
0
  6
CONTINUOUS
 62
     7
100
AcDbLine
 10
219.256826
 20
174.460902
 30
0.0
 11
219.258333
 21
174.467422
 31
0.0
  0
LINE
  5
1652
100
AcDbEntity
  8
11000_LEFT
370
    25
390
0
  6
CONTINUOUS
 62
     7
100
AcDbLine
 10
218.746159
 20
174.956554
 30
0.0
 11
218.747616
 21
174.962901
 31
0.0
  0
LINE
  5
1653
100
AcDbEntity
  8
11000_LEFT
370
    25
390
0
  6
CONTINUOUS
 62
     7
100
AcDbLine
 10
220.057336
 20
174.058074
 30
0.0
 11
220.059507
 21
174.067561
 31
0.0
  0
LINE
  5
1654
100
AcDbEntity
  8
11000_LEFT
370
    25
390
0
  6
CONTINUOUS
 62
     7
100
AcDbLine
 10
220.469248
 20
173.637984
 30
0.0
 11
220.469922
 21
173.640952
 31
0.0
  0
LINE
  5
1655
100
AcDbEntity
  8
11000_LEFT
370
    25
390
0
  6
CONTINUOUS
 62
     7
100
AcDbLine
 10
218.746004
 20
174.956283
 30
0.0
 11
218.747497
 21
174.962894
 31
0.0
  0
LINE
  5
1656
100
AcDbEntity
  8
11000_LEFT
370
    25
390
0
  6
CONTINUOUS
 62
     7
100
AcDbLine
 10
220.4998
 20
173.317344
 30
0.0
 11
220.499983
 21
173.318168
 31
0.0
  0
LINE
  5
1657
100
AcDbEntity
  8
11000_LEFT
370
    25
390
0
  6
CONTINUOUS
 62
     7
100
AcDbLine
 10
220.059507
 20
174.067561
 30
0.0
 11
220.061575
 21
174.076896
 31
0.0
  0
LINE
  5
1658
100
AcDbEntity
  8
11000_LEFT
370
    25
390
0
  6
CONTINUOUS
 62
     7
100
AcDbLine
 10
220.041985
 20
173.992969
 30
0.0
 11
220.04389
 21
174.00175
 31
0.0
  0
LINE
  5
1659
100
AcDbEntity
  8
11000_LEFT
370
    25
390
0
  6
CONTINUOUS
 62
     7
100
AcDbLine
 10
220.065269
 20
174.094825
 30
0.0
 11
220.06731
 21
174.104522
 31
0.0
  0
LINE
  5
165A
100
AcDbEntity
  8
11000_LEFT
370
    25
390
0
  6
CONTINUOUS
 62
     7
100
AcDbLine
 10
220.061575
 20
174.076896
 30
0.0
 11
220.063454
 21
174.085868
 31
0.0
  0
LINE
  5
165B
100
AcDbEntity
  8
11000_LEFT
370
    25
390
0
  6
CONTINUOUS
 62
     7
100
AcDbLine
 10
220.063454
 20
174.085868
 30
0.0
 11
220.065269
 21
174.094825
 31
0.0
  0
LINE
  5
165C
100
AcDbEntity
  8
11000_LEFT
370
    25
390
0
  6
CONTINUOUS
 62
     7
100
AcDbLine
 10
220.532724
 20
173.723373
 30
0.0
 11
220.533969
 21
173.730071
 31
0.0
  0
LINE
  5
165D
100
AcDbEntity
  8
11000_LEFT
370
    25
390
0
  6
CONTINUOUS
 62
     7
100
AcDbLine
 10
219.255611
 20
174.45433
 30
0.0
 11
219.256826
 21
174.460902
 31
0.0
  0
LINE
  5
165E
100
AcDbEntity
  8
11000_LEFT
370
    25
390
0
  6
CONTINUOUS
 62
     7
100
AcDbLine
 10
218.745003
 20
174.95013
 30
0.0
 11
218.746159
 21
174.956554
 31
0.0
  0
LINE
  5
165F
100
AcDbEntity
  8
11000_LEFT
370
    25
390
0
  6
CONTINUOUS
 62
     7
100
AcDbLine
 10
218.744818
 20
174.949676
 30
0.0
 11
218.746004
 21
174.956283
 31
0.0
  0
LINE
  5
1660
100
AcDbEntity
  8
11000_LEFT
370
    25
390
0
  6
CONTINUOUS
 62
     7
100
AcDbLine
 10
220.04044
 20
173.984
 30
0.0
 11
220.041985
 21
173.992969
 31
0.0
  0
LINE
  5
1661
100
AcDbEntity
  8
11000_LEFT
370
    25
390
0
  6
CONTINUOUS
 62
     7
100
AcDbLine
 10
220.039141
 20
173.974929
 30
0.0
 11
220.04044
 21
173.984
 31
0.0
  0
LINE
  5
1662
100
AcDbEntity
  8
11000_LEFT
370
    25
390
0
  6
CONTINUOUS
 62
     7
100
AcDbLine
 10
219.254693
 20
174.447715
 30
0.0
 11
219.255611
 21
174.45433
 31
0.0
  0
LINE
  5
1663
100
AcDbEntity
  8
11000_LEFT
370
    25
390
0
  6
CONTINUOUS
 62
     7
100
AcDbLine
 10
218.743936
 20
174.943092
 30
0.0
 11
218.744818
 21
174.949676
 31
0.0
  0
LINE
  5
1664
100
AcDbEntity
  8
11000_LEFT
370
    25
390
0
  6
CONTINUOUS
 62
     7
100
AcDbLine
 10
220.533969
 20
173.730071
 30
0.0
 11
220.534877
 21
173.736865
 31
0.0
  0
LINE
  5
1665
100
AcDbEntity
  8
11000_LEFT
370
    25
390
0
  6
CONTINUOUS
 62
     7
100
AcDbLine
 10
218.744122
 20
174.94353
 30
0.0
 11
218.745003
 21
174.95013
 31
0.0
  0
LINE
  5
1666
100
AcDbEntity
  8
11000_LEFT
370
    25
390
0
  6
CONTINUOUS
 62
     7
100
AcDbLine
 10
220.469922
 20
173.640952
 30
0.0
 11
220.470324
 21
173.644149
 31
0.0
  0
LINE
  5
1667
100
AcDbEntity
  8
11000_LEFT
370
    25
390
0
  6
CONTINUOUS
 62
     7
100
AcDbLine
 10
220.038038
 20
173.96585
 30
0.0
 11
220.039141
 21
173.974929
 31
0.0
  0
LINE
  5
1668
100
AcDbEntity
  8
11000_LEFT
370
    25
390
0
  6
CONTINUOUS
 62
     7
100
AcDbLine
 10
220.031177
 20
173.894962
 30
0.0
 11
220.031813
 21
173.900573
 31
0.0
  0
LINE
  5
1669
100
AcDbEntity
  8
11000_LEFT
370
    25
390
0
  6
CONTINUOUS
 62
     7
100
AcDbLine
 10
220.030578
 20
173.889636
 30
0.0
 11
220.031177
 21
173.894962
 31
0.0
  0
LINE
  5
166A
100
AcDbEntity
  8
11000_LEFT
370
    25
390
0
  6
CONTINUOUS
 62
     7
100
AcDbLine
 10
220.031813
 20
173.900573
 30
0.0
 11
220.032472
 21
173.906455
 31
0.0
  0
LINE
  5
166B
100
AcDbEntity
  8
11000_LEFT
370
    25
390
0
  6
CONTINUOUS
 62
     7
100
AcDbLine
 10
220.030026
 20
173.884612
 30
0.0
 11
220.030578
 21
173.889636
 31
0.0
  0
LINE
  5
166C
100
AcDbEntity
  8
11000_LEFT
370
    25
390
0
  6
CONTINUOUS
 62
     7
100
AcDbLine
 10
220.032472
 20
173.906455
 30
0.0
 11
220.033144
 21
173.912593
 31
0.0
  0
LINE
  5
166D
100
AcDbEntity
  8
11000_LEFT
370
    25
390
0
  6
CONTINUOUS
 62
     7
100
AcDbLine
 10
220.029533
 20
173.879924
 30
0.0
 11
220.030026
 21
173.884612
 31
0.0
  0
LINE
  5
166E
100
AcDbEntity
  8
11000_LEFT
370
    25
390
0
  6
CONTINUOUS
 62
     7
100
AcDbLine
 10
220.033144
 20
173.912593
 30
0.0
 11
220.033813
 21
173.91896
 31
0.0
  0
LINE
  5
166F
100
AcDbEntity
  8
11000_LEFT
370
    25
390
0
  6
CONTINUOUS
 62
     7
100
AcDbLine
 10
220.037104
 20
173.95684
 30
0.0
 11
220.038038
 21
173.96585
 31
0.0
  0
LINE
  5
1670
100
AcDbEntity
  8
11000_LEFT
370
    25
390
0
  6
CONTINUOUS
 62
     7
100
AcDbLine
 10
220.033813
 20
173.91896
 30
0.0
 11
220.034466
 21
173.925544
 31
0.0
  0
LINE
  5
1671
100
AcDbEntity
  8
11000_LEFT
370
    25
390
0
  6
CONTINUOUS
 62
     7
100
AcDbLine
 10
220.029106
 20
173.875583
 30
0.0
 11
220.029533
 21
173.879924
 31
0.0
  0
LINE
  5
1672
100
AcDbEntity
  8
11000_LEFT
370
    25
390
0
  6
CONTINUOUS
 62
     7
100
AcDbLine
 10
219.254078
 20
174.441074
 30
0.0
 11
219.254693
 21
174.447715
 31
0.0
  0
LINE
  5
1673
100
AcDbEntity
  8
11000_LEFT
370
    25
390
0
  6
CONTINUOUS
 62
     7
100
AcDbLine
 10
220.034466
 20
173.925544
 30
0.0
 11
220.035084
 21
173.932323
 31
0.0
  0
LINE
  5
1674
100
AcDbEntity
  8
11000_LEFT
370
    25
390
0
  6
CONTINUOUS
 62
     7
100
AcDbLine
 10
220.028751
 20
173.871612
 30
0.0
 11
220.029106
 21
173.875583
 31
0.0
  0
LINE
  5
1675
100
AcDbEntity
  8
11000_LEFT
370
    25
390
0
  6
CONTINUOUS
 62
     7
100
AcDbLine
 10
220.036311
 20
173.947967
 30
0.0
 11
220.037104
 21
173.95684
 31
0.0
  0
LINE
  5
1676
100
AcDbEntity
  8
11000_LEFT
370
    25
390
0
  6
CONTINUOUS
 62
     7
100
AcDbLine
 10
218.74335
 20
174.936511
 30
0.0
 11
218.743936
 21
174.943092
 31
0.0
  0
LINE
  5
1677
100
AcDbEntity
  8
11000_LEFT
370
    25
390
0
  6
CONTINUOUS
 62
     7
100
AcDbLine
 10
218.743523
 20
174.936797
 30
0.0
 11
218.744122
 21
174.94353
 31
0.0
  0
LINE
  5
1678
100
AcDbEntity
  8
11000_LEFT
370
    25
390
0
  6
CONTINUOUS
 62
     7
100
AcDbLine
 10
220.534877
 20
173.736865
 30
0.0
 11
220.535444
 21
173.743739
 31
0.0
  0
LINE
  5
1679
100
AcDbEntity
  8
11000_LEFT
370
    25
390
0
  6
CONTINUOUS
 62
     7
100
AcDbLine
 10
220.035084
 20
173.932323
 30
0.0
 11
220.03565
 21
173.939288
 31
0.0
  0
LINE
  5
167A
100
AcDbEntity
  8
11000_LEFT
370
    25
390
0
  6
CONTINUOUS
 62
     7
100
AcDbLine
 10
220.035631
 20
173.9393
 30
0.0
 11
220.036311
 21
173.947967
 31
0.0
  0
LINE
  5
167B
100
AcDbEntity
  8
11000_LEFT
370
    25
390
0
  6
CONTINUOUS
 62
     7
100
AcDbLine
 10
220.028474
 20
173.868018
 30
0.0
 11
220.028751
 21
173.871612
 31
0.0
  0
LINE
  5
167C
100
AcDbEntity
  8
11000_LEFT
370
    25
390
0
  6
CONTINUOUS
 62
     7
100
AcDbLine
 10
218.7
 20
196.749999
 30
0.0
 11
218.714286
 21
196.949489
 31
0.0
  0
LINE
  5
167D
100
AcDbEntity
  8
11000_LEFT
370
    25
390
0
  6
CONTINUOUS
 62
     7
100
AcDbLine
 10
220.028284
 20
173.864822
 30
0.0
 11
220.028474
 21
173.868018
 31
0.0
  0
LINE
  5
167E
100
AcDbEntity
  8
11000_LEFT
370
    25
390
0
  6
CONTINUOUS
 62
     7
100
AcDbLine
 10
219.25377
 20
174.434421
 30
0.0
 11
219.254078
 21
174.441074
 31
0.0
  0
LINE
  5
167F
100
AcDbEntity
  8
11000_LEFT
370
    25
390
0
  6
CONTINUOUS
 62
     7
100
AcDbLine
 10
220.029065
 20
173.854259
 30
0.0
 11
220.029072
 21
173.854411
 31
0.0
  0
LINE
  5
1680
100
AcDbEntity
  8
11000_LEFT
370
    25
390
0
  6
CONTINUOUS
 62
     7
100
AcDbLine
 10
218.74321
 20
174.929992
 30
0.0
 11
218.743523
 21
174.936797
 31
0.0
  0
LINE
  5
1681
100
AcDbEntity
  8
11000_LEFT
370
    25
390
0
  6
CONTINUOUS
 62
     7
100
AcDbLine
 10
218.743057
 20
174.929908
 30
0.0
 11
218.74335
 21
174.936511
 31
0.0
  0
LINE
  5
1682
100
AcDbEntity
  8
11000_LEFT
370
    25
390
0
  6
CONTINUOUS
 62
     7
100
AcDbLine
 10
220.470324
 20
173.644149
 30
0.0
 11
220.470457
 21
173.647567
 31
0.0
  0
LINE
  5
1683
100
AcDbEntity
  8
11000_LEFT
370
    25
390
0
  6
CONTINUOUS
 62
     7
100
AcDbLine
 10
220.028185
 20
173.862029
 30
0.0
 11
220.028284
 21
173.864822
 31
0.0
  0
LINE
  5
1684
100
AcDbEntity
  8
11000_LEFT
370
    25
390
0
  6
CONTINUOUS
 62
     7
100
AcDbLine
 10
220.535444
 20
173.743739
 30
0.0
 11
220.535664
 21
173.750671
 31
0.0
  0
LINE
  5
1685
100
AcDbEntity
  8
11000_LEFT
370
    25
390
0
  6
CONTINUOUS
 62
     7
100
AcDbLine
 10
218.743188
 20
174.92316
 30
0.0
 11
218.74321
 21
174.929992
 31
0.0
  0
LINE
  5
1686
100
AcDbEntity
  8
11000_LEFT
370
    25
390
0
  6
CONTINUOUS
 62
     7
100
AcDbLine
 10
218.743054
 20
174.923251
 30
0.0
 11
218.743057
 21
174.929908
 31
0.0
  0
LINE
  5
1687
100
AcDbEntity
  8
11000_LEFT
370
    25
390
0
  6
CONTINUOUS
 62
     7
100
AcDbLine
 10
196.1
 20
174.462131
 30
0.0
 11
196.1
 21
179.100002
 31
0.0
  0
LINE
  5
1688
100
AcDbEntity
  8
11000_LEFT
370
    25
390
0
  6
CONTINUOUS
 62
     7
100
AcDbLine
 10
196.1
 20
144.25
 30
0.0
 11
196.1
 21
147.25
 31
0.0
  0
LINE
  5
1689
100
AcDbEntity
  8
11000_LEFT
370
    25
390
0
  6
CONTINUOUS
 62
     7
100
AcDbLine
 10
196.1
 20
147.25
 30
0.0
 11
196.1
 21
167.837869
 31
0.0
  0
LINE
  5
168A
100
AcDbEntity
  8
11000_LEFT
370
    25
390
0
  6
CONTINUOUS
 62
     7
100
AcDbLine
 10
197.1
 20
146.65
 30
0.0
 11
197.1
 21
168.837869
 31
0.0
  0
LINE
  5
168B
100
AcDbEntity
  8
11000_LEFT
370
    25
390
0
  6
CONTINUOUS
 62
     7
100
AcDbLine
 10
197.1
 20
173.462131
 30
0.0
 11
197.1
 21
173.482845
 31
0.0
  0
LINE
  5
168C
100
AcDbEntity
  8
11000_LEFT
370
    25
390
0
  6
CONTINUOUS
 62
     7
100
AcDbLine
 10
197.1
 20
173.482845
 30
0.0
 11
197.1
 21
185.749999
 31
0.0
  0
LINE
  5
168D
100
AcDbEntity
  8
11000_LEFT
370
    25
390
0
  6
CONTINUOUS
 62
     7
100
AcDbLine
 10
197.3
 20
173.482845
 30
0.0
 11
197.3
 21
185.95
 31
0.0
  0
LINE
  5
168E
100
AcDbEntity
  8
11000_LEFT
370
    25
390
0
  6
CONTINUOUS
 62
     7
100
AcDbLine
 10
197.3
 20
146.65
 30
0.0
 11
197.3
 21
168.817157
 31
0.0
  0
LINE
  5
168F
100
AcDbEntity
  8
11000_LEFT
370
    25
390
0
  6
CONTINUOUS
 62
     7
100
AcDbLine
 10
197.3
 20
146.45
 30
0.0
 11
197.3
 21
146.65
 31
0.0
  0
LINE
  5
1690
100
AcDbEntity
  8
11000_LEFT
370
    25
390
0
  6
CONTINUOUS
 62
     7
100
AcDbLine
 10
197.55
 20
169.432843
 30
0.0
 11
197.55
 21
172.867156
 31
0.0
  0
LINE
  5
1691
100
AcDbEntity
  8
11000_LEFT
370
    25
390
0
  6
CONTINUOUS
 62
     7
100
AcDbLine
 10
197.749999
 20
169.432843
 30
0.0
 11
197.749999
 21
172.867156
 31
0.0
  0
LINE
  5
1692
100
AcDbEntity
  8
11000_LEFT
370
    25
390
0
  6
CONTINUOUS
 62
     7
100
AcDbLine
 10
197.85
 20
175.150001
 30
0.0
 11
197.85
 21
179.249999
 31
0.0
  0
LINE
  5
1693
100
AcDbEntity
  8
11000_LEFT
370
    25
390
0
  6
CONTINUOUS
 62
     7
100
AcDbLine
 10
197.85
 20
149.35
 30
0.0
 11
197.85
 21
153.45
 31
0.0
  0
LINE
  5
1694
100
AcDbEntity
  8
11000_LEFT
370
    25
390
0
  6
CONTINUOUS
 62
     7
100
AcDbLine
 10
197.999999
 20
175.150001
 30
0.0
 11
197.999999
 21
179.249999
 31
0.0
  0
LINE
  5
1695
100
AcDbEntity
  8
11000_LEFT
370
    25
390
0
  6
CONTINUOUS
 62
     7
100
AcDbLine
 10
197.999999
 20
149.35
 30
0.0
 11
197.999999
 21
153.45
 31
0.0
  0
LINE
  5
1696
100
AcDbEntity
  8
11000_LEFT
370
    25
390
0
  6
CONTINUOUS
 62
     7
100
AcDbLine
 10
198.1
 20
146.45
 30
0.0
 11
198.1
 21
146.65
 31
0.0
  0
LINE
  5
1697
100
AcDbEntity
  8
11000_LEFT
370
    25
390
0
  6
CONTINUOUS
 62
     7
100
AcDbLine
 10
198.3
 20
143.65
 30
0.0
 11
198.3
 21
146.25
 31
0.0
  0
LINE
  5
1698
100
AcDbEntity
  8
11000_LEFT
370
    25
390
0
  6
CONTINUOUS
 62
     7
100
AcDbLine
 10
198.499999
 20
149.85
 30
0.0
 11
198.499999
 21
152.95
 31
0.0
  0
LINE
  5
1699
100
AcDbEntity
  8
11000_LEFT
370
    25
390
0
  6
CONTINUOUS
 62
     7
100
AcDbLine
 10
198.499999
 20
175.650001
 30
0.0
 11
198.499999
 21
178.749999
 31
0.0
  0
LINE
  5
169A
100
AcDbEntity
  8
11000_LEFT
370
    25
390
0
  6
CONTINUOUS
 62
     7
100
AcDbLine
 10
198.499999
 20
143.65
 30
0.0
 11
198.499999
 21
146.25
 31
0.0
  0
LINE
  5
169B
100
AcDbEntity
  8
11000_LEFT
370
    25
390
0
  6
CONTINUOUS
 62
     7
100
AcDbLine
 10
198.499999
 20
143.45
 30
0.0
 11
198.499999
 21
143.65
 31
0.0
  0
LINE
  5
169C
100
AcDbEntity
  8
11000_LEFT
370
    25
390
0
  6
CONTINUOUS
 62
     7
100
AcDbLine
 10
199.3
 20
175.150001
 30
0.0
 11
199.3
 21
179.249999
 31
0.0
  0
LINE
  5
169D
100
AcDbEntity
  8
11000_LEFT
370
    25
390
0
  6
CONTINUOUS
 62
     7
100
AcDbLine
 10
199.3
 20
149.35
 30
0.0
 11
199.3
 21
153.45
 31
0.0
  0
LINE
  5
169E
100
AcDbEntity
  8
11000_LEFT
370
    25
390
0
  6
CONTINUOUS
 62
     7
100
AcDbLine
 10
202.016471
 20
143.45
 30
0.0
 11
202.016471
 21
143.65
 31
0.0
  0
LINE
  5
169F
100
AcDbEntity
  8
11000_LEFT
370
    25
390
0
  6
CONTINUOUS
 62
     7
100
AcDbLine
 10
202.7
 20
185.749999
 30
0.0
 11
202.7
 21
185.95
 31
0.0
  0
LINE
  5
16A0
100
AcDbEntity
  8
11000_LEFT
370
    25
390
0
  6
CONTINUOUS
 62
     7
100
AcDbLine
 10
203.6
 20
186.850002
 30
0.0
 11
203.6
 21
191.758846
 31
0.0
  0
LINE
  5
16A1
100
AcDbEntity
  8
11000_LEFT
370
    25
390
0
  6
CONTINUOUS
 62
     7
100
AcDbLine
 10
203.8
 20
186.850002
 30
0.0
 11
203.8
 21
191.758846
 31
0.0
  0
LINE
  5
16A2
100
AcDbEntity
  8
11000_LEFT
370
    25
390
0
  6
CONTINUOUS
 62
     7
100
AcDbLine
 10
205.1
 20
140.25
 30
0.0
 11
205.1
 21
141.347881
 31
0.0
  0
LINE
  5
16A3
100
AcDbEntity
  8
11000_LEFT
370
    25
390
0
  6
CONTINUOUS
 62
     7
100
AcDbLine
 10
206.63707
 20
196.749999
 30
0.0
 11
206.63707
 21
196.95
 31
0.0
  0
LINE
  5
16A4
100
AcDbEntity
  8
11000_LEFT
370
    25
390
0
  6
CONTINUOUS
 62
     7
100
AcDbLine
 10
207.647
 20
174.650001
 30
0.0
 11
207.647
 21
174.850002
 31
0.0
  0
LINE
  5
16A5
100
AcDbEntity
  8
11000_LEFT
370
    25
390
0
  6
CONTINUOUS
 62
     7
100
AcDbLine
 10
207.647
 20
176.650001
 30
0.0
 11
207.647
 21
176.850002
 31
0.0
  0
LINE
  5
16A6
100
AcDbEntity
  8
11000_LEFT
370
    25
390
0
  6
CONTINUOUS
 62
     7
100
AcDbLine
 10
209.241429
 20
140.45
 30
0.0
 11
209.241429
 21
140.65
 31
0.0
  0
LINE
  5
16A7
100
AcDbEntity
  8
11000_LEFT
370
    25
390
0
  6
CONTINUOUS
 62
     7
100
AcDbLine
 10
209.7
 20
141.2
 30
0.0
 11
209.7
 21
142.65
 31
0.0
  0
LINE
  5
16A8
100
AcDbEntity
  8
11000_LEFT
370
    25
390
0
  6
CONTINUOUS
 62
     7
100
AcDbLine
 10
210.2
 20
141.35
 30
0.0
 11
210.2
 21
141.85
 31
0.0
  0
LINE
  5
16A9
100
AcDbEntity
  8
11000_LEFT
370
    25
390
0
  6
CONTINUOUS
 62
     7
100
AcDbLine
 10
210.473432
 20
196.749999
 30
0.0
 11
210.473432
 21
196.95
 31
0.0
  0
LINE
  5
16AA
100
AcDbEntity
  8
11000_LEFT
370
    25
390
0
  6
CONTINUOUS
 62
     7
100
AcDbLine
 10
212.6
 20
174.650001
 30
0.0
 11
212.6
 21
174.850002
 31
0.0
  0
LINE
  5
16AB
100
AcDbEntity
  8
11000_LEFT
370
    25
390
0
  6
CONTINUOUS
 62
     7
100
AcDbLine
 10
212.6
 20
176.650001
 30
0.0
 11
212.6
 21
176.850002
 31
0.0
  0
LINE
  5
16AC
100
AcDbEntity
  8
11000_LEFT
370
    25
390
0
  6
CONTINUOUS
 62
     7
100
AcDbLine
 10
213.0
 20
137.0
 30
0.0
 11
213.0
 21
140.45
 31
0.0
  0
LINE
  5
16AD
100
AcDbEntity
  8
11000_LEFT
370
    25
390
0
  6
CONTINUOUS
 62
     7
100
AcDbLine
 10
213.2
 20
194.749999
 30
0.0
 11
213.2
 21
196.049998
 31
0.0
  0
LINE
  5
16AE
100
AcDbEntity
  8
11000_LEFT
370
    25
390
0
  6
CONTINUOUS
 62
     7
100
AcDbLine
 10
213.3
 20
141.35
 30
0.0
 11
213.3
 21
141.85
 31
0.0
  0
LINE
  5
16AF
100
AcDbEntity
  8
11000_LEFT
370
    25
390
0
  6
CONTINUOUS
 62
     7
100
AcDbLine
 10
213.7
 20
195.549998
 30
0.0
 11
213.7
 21
196.049998
 31
0.0
  0
LINE
  5
16B0
100
AcDbEntity
  8
11000_LEFT
370
    25
390
0
  6
CONTINUOUS
 62
     7
100
AcDbLine
 10
213.8
 20
141.2
 30
0.0
 11
213.8
 21
142.65
 31
0.0
  0
LINE
  5
16B1
100
AcDbEntity
  8
11000_LEFT
370
    25
390
0
  6
CONTINUOUS
 62
     7
100
AcDbLine
 10
214.0
 20
137.0
 30
0.0
 11
214.0
 21
140.45
 31
0.0
  0
LINE
  5
16B2
100
AcDbEntity
  8
11000_LEFT
370
    25
390
0
  6
CONTINUOUS
 62
     7
100
AcDbLine
 10
216.65
 20
200.249999
 30
0.0
 11
216.65
 21
200.45
 31
0.0
  0
LINE
  5
16B3
100
AcDbEntity
  8
11000_LEFT
370
    25
390
0
  6
CONTINUOUS
 62
     7
100
AcDbLine
 10
216.8
 20
195.549998
 30
0.0
 11
216.8
 21
196.049998
 31
0.0
  0
LINE
  5
16B4
100
AcDbEntity
  8
11000_LEFT
370
    25
390
0
  6
CONTINUOUS
 62
     7
100
AcDbLine
 10
217.3
 20
194.749999
 30
0.0
 11
217.3
 21
196.049998
 31
0.0
  0
LINE
  5
16B5
100
AcDbEntity
  8
11000_LEFT
370
    25
390
0
  6
CONTINUOUS
 62
     7
100
AcDbLine
 10
217.4
 20
198.146423
 30
0.0
 11
217.4
 21
200.45
 31
0.0
  0
LINE
  5
16B6
100
AcDbEntity
  8
11000_LEFT
370
    25
390
0
  6
CONTINUOUS
 62
     7
100
AcDbLine
 10
217.6
 20
200.95
 30
0.0
 11
217.6
 21
201.150001
 31
0.0
  0
LINE
  5
16B7
100
AcDbEntity
  8
11000_LEFT
370
    25
390
0
  6
CONTINUOUS
 62
     7
100
AcDbLine
 10
217.6
 20
198.146423
 30
0.0
 11
217.6
 21
200.249999
 31
0.0
  0
LINE
  5
16B8
100
AcDbEntity
  8
11000_LEFT
370
    25
390
0
  6
CONTINUOUS
 62
     7
100
AcDbLine
 10
217.9
 20
197.352699
 30
0.0
 11
217.9
 21
198.249999
 31
0.0
  0
LINE
  5
16B9
100
AcDbEntity
  8
11000_LEFT
370
    25
390
0
  6
CONTINUOUS
 62
     7
100
AcDbLine
 10
218.6
 20
200.95
 30
0.0
 11
218.6
 21
201.150001
 31
0.0
  0
LINE
  5
16BA
100
AcDbEntity
  8
11000_LEFT
370
    25
390
0
  6
CONTINUOUS
 62
     7
100
AcDbLine
 10
218.7
 20
181.278426
 30
0.0
 11
218.7
 21
196.749999
 31
0.0
  0
LINE
  5
16BB
100
AcDbEntity
  8
11000_LEFT
370
    25
390
0
  6
CONTINUOUS
 62
     7
100
AcDbLine
 10
218.9
 20
196.750415
 30
0.0
 11
218.9
 21
198.249999
 31
0.0
  0
LINE
  5
16BC
100
AcDbEntity
  8
11000_LEFT
370
    25
390
0
  6
CONTINUOUS
 62
     7
100
AcDbLine
 10
218.9
 20
181.278426
 30
0.0
 11
218.9
 21
196.749999
 31
0.0
  0
LINE
  5
16BD
100
AcDbEntity
  8
11000_LEFT
370
    25
390
0
  6
CONTINUOUS
 62
     7
100
AcDbLine
 10
219.167916
 20
175.467872
 30
0.0
 11
219.167916
 21
175.750713
 31
0.0
  0
LINE
  5
16BE
100
AcDbEntity
  8
11000_LEFT
370
    25
390
0
  6
CONTINUOUS
 62
     7
100
AcDbLine
 10
219.6
 20
200.049998
 30
0.0
 11
219.6
 21
201.249999
 31
0.0
  0
LINE
  5
16BF
100
AcDbEntity
  8
11000_LEFT
370
    25
390
0
  6
CONTINUOUS
 62
     7
100
AcDbLine
 10
219.891188
 20
173.671966
 30
0.0
 11
219.891188
 21
173.716094
 31
0.0
  0
LINE
  5
16C0
100
AcDbEntity
  8
11000_LEFT
370
    25
390
0
  6
CONTINUOUS
 62
     7
100
AcDbLine
 10
220.0
 20
141.2
 30
0.0
 11
220.0
 21
142.65
 31
0.0
  0
LINE
  5
16C1
100
AcDbEntity
  8
11000_LEFT
370
    25
390
0
  6
CONTINUOUS
 62
     7
100
AcDbLine
 10
220.028185
 20
173.859668
 30
0.0
 11
220.028185
 21
173.862029
 31
0.0
  0
LINE
  5
16C2
100
AcDbEntity
  8
11000_LEFT
370
    25
390
0
  6
CONTINUOUS
 62
     7
100
AcDbLine
 10
220.087155
 20
172.568732
 30
0.0
 11
220.087155
 21
172.851573
 31
0.0
  0
LINE
  5
16C3
100
AcDbEntity
  8
11000_LEFT
370
    25
390
0
  6
CONTINUOUS
 62
     7
100
AcDbLine
 10
220.500208
 20
173.318988
 30
0.0
 11
220.500207
 21
173.319011
 31
0.0
  0
LINE
  5
16C4
100
AcDbEntity
  8
11000_LEFT
370
    25
390
0
  6
CONTINUOUS
 62
     7
100
AcDbLine
 10
220.50021
 20
173.318908
 30
0.0
 11
220.50021
 21
173.318961
 31
0.0
  0
LINE
  5
16C5
100
AcDbEntity
  8
11000_LEFT
370
    25
390
0
  6
CONTINUOUS
 62
     7
100
AcDbLine
 10
221.3
 20
141.35
 30
0.0
 11
221.3
 21
142.65
 31
0.0
  0
LINE
  5
16C6
100
AcDbEntity
  8
11000_LEFT
370
    25
390
0
  6
CONTINUOUS
 62
     7
100
AcDbLine
 10
221.6
 20
141.35
 30
0.0
 11
221.6
 21
141.85
 31
0.0
  0
LINE
  5
16C7
100
AcDbEntity
  8
11000_LEFT
370
    25
390
0
  6
CONTINUOUS
 62
     7
100
AcDbLine
 10
221.8
 20
141.2
 30
0.0
 11
221.8
 21
142.65
 31
0.0
  0
LINE
  5
16C8
100
AcDbEntity
  8
11000_LEFT
370
    25
390
0
  6
CONTINUOUS
 62
     7
100
AcDbLine
 10
227.3
 20
142.43453
 30
0.0
 11
227.3
 21
171.767158
 31
0.0
  0
LINE
  5
16C9
100
AcDbEntity
  8
11000_LEFT
370
    25
390
0
  6
CONTINUOUS
 62
     7
100
AcDbLine
 10
227.5
 20
142.55
 30
0.0
 11
227.5
 21
171.767158
 31
0.0
  0
ARC
  5
16CA
100
AcDbEntity
  8
11000_LEFT
370
    25
390
0
  6
CONTINUOUS
 62
     7
100
AcDbCircle
 10
193.451391
 20
171.534524
 30
0.0
 40
0.4
100
AcDbArc
 50
107.871573
 51
171.63448
  0
ARC
  5
16CB
100
AcDbEntity
  8
11000_LEFT
370
    25
390
0
  6
CONTINUOUS
 62
     7
100
AcDbCircle
 10
193.585654
 20
169.259151
 30
0.0
 40
0.4
100
AcDbArc
 50
195.119339
 51
289.233872
  0
ARC
  5
16CC
100
AcDbEntity
  8
11000_LEFT
370
    25
390
0
  6
CONTINUOUS
 62
     7
100
AcDbCircle
 10
194.529843
 20
172.065601
 30
0.0
 40
0.2
100
AcDbArc
 50
98.745808
 51
106.645143
  0
ARC
  5
16CD
100
AcDbEntity
  8
11000_LEFT
370
    25
390
0
  6
CONTINUOUS
 62
     7
100
AcDbCircle
 10
196.25
 20
167.837868
 30
0.0
 40
0.15
100
AcDbArc
 50
134.999959
 51
179.99965
  0
ARC
  5
16CE
100
AcDbEntity
  8
11000_LEFT
370
    25
390
0
  6
CONTINUOUS
 62
     7
100
AcDbCircle
 10
196.25
 20
174.462132
 30
0.0
 40
0.15
100
AcDbArc
 50
180.000495
 51
224.999629
  0
ARC
  5
16CF
100
AcDbEntity
  8
11000_LEFT
370
    25
390
0
  6
CONTINUOUS
 62
     7
100
AcDbCircle
 10
196.9
 20
144.25
 30
0.0
 40
0.8
100
AcDbArc
 50
180.0
 51
270.000055
  0
ARC
  5
16D0
100
AcDbEntity
  8
11000_LEFT
370
    25
390
0
  6
CONTINUOUS
 62
     7
100
AcDbCircle
 10
197.25
 20
168.837868
 30
0.0
 40
0.15
100
AcDbArc
 50
134.999959
 51
179.99965
  0
ARC
  5
16D1
100
AcDbEntity
  8
11000_LEFT
370
    25
390
0
  6
CONTINUOUS
 62
     7
100
AcDbCircle
 10
197.25
 20
173.462132
 30
0.0
 40
0.15
100
AcDbArc
 50
180.000495
 51
224.999629
  0
ARC
  5
16D2
100
AcDbEntity
  8
11000_LEFT
370
    25
390
0
  6
CONTINUOUS
 62
     7
100
AcDbCircle
 10
197.3
 20
146.65
 30
0.0
 40
0.2
100
AcDbArc
 50
180.0
 51
270.000109
  0
ARC
  5
16D3
100
AcDbEntity
  8
11000_LEFT
370
    25
390
0
  6
CONTINUOUS
 62
     7
100
AcDbCircle
 10
197.3
 20
168.817157
 30
0.0
 40
0.2
100
AcDbArc
 50
134.999985
 51
180.000087
  0
ARC
  5
16D4
100
AcDbEntity
  8
11000_LEFT
370
    25
390
0
  6
CONTINUOUS
 62
     7
100
AcDbCircle
 10
197.3
 20
173.482843
 30
0.0
 40
0.2
100
AcDbArc
 50
179.999475
 51
224.999706
  0
ARC
  5
16D5
100
AcDbEntity
  8
11000_LEFT
370
    25
390
0
  6
CONTINUOUS
 62
     7
100
AcDbCircle
 10
197.3
 20
185.75
 30
0.0
 40
0.2
100
AcDbArc
 50
89.999891
 51
180.000219
  0
ARC
  5
16D6
100
AcDbEntity
  8
11000_LEFT
370
    25
390
0
  6
CONTINUOUS
 62
     7
100
AcDbCircle
 10
197.35
 20
169.432843
 30
0.0
 40
0.2
100
AcDbArc
 50
315.000062
 51
0.000197
  0
ARC
  5
16D7
100
AcDbEntity
  8
11000_LEFT
370
    25
390
0
  6
CONTINUOUS
 62
     7
100
AcDbCircle
 10
197.35
 20
169.432843
 30
0.0
 40
0.4
100
AcDbArc
 50
315.000031
 51
0.000098
  0
ARC
  5
16D8
100
AcDbEntity
  8
11000_LEFT
370
    25
390
0
  6
CONTINUOUS
 62
     7
100
AcDbCircle
 10
197.35
 20
172.867157
 30
0.0
 40
0.2
100
AcDbArc
 50
359.999694
 51
44.999861
  0
ARC
  5
16D9
100
AcDbEntity
  8
11000_LEFT
370
    25
390
0
  6
CONTINUOUS
 62
     7
100
AcDbCircle
 10
197.35
 20
172.867157
 30
0.0
 40
0.4
100
AcDbArc
 50
359.999847
 51
45.000124
  0
ARC
  5
16DA
100
AcDbEntity
  8
11000_LEFT
370
    25
390
0
  6
CONTINUOUS
 62
     7
100
AcDbCircle
 10
198.1
 20
146.25
 30
0.0
 40
0.2
100
AcDbArc
 50
0.0
 51
90.000109
  0
ARC
  5
16DB
100
AcDbEntity
  8
11000_LEFT
370
    25
390
0
  6
CONTINUOUS
 62
     7
100
AcDbCircle
 10
198.1
 20
146.25
 30
0.0
 40
0.4
100
AcDbArc
 50
0.0
 51
90.000055
  0
ARC
  5
16DC
100
AcDbEntity
  8
11000_LEFT
370
    25
390
0
  6
CONTINUOUS
 62
     7
100
AcDbCircle
 10
198.5
 20
143.65
 30
0.0
 40
0.2
100
AcDbArc
 50
180.0
 51
269.999781
  0
ARC
  5
16DD
100
AcDbEntity
  8
11000_LEFT
370
    25
390
0
  6
CONTINUOUS
 62
     7
100
AcDbCircle
 10
198.991808
 20
170.719799
 30
0.0
 40
6.0
100
AcDbArc
 50
171.634533
 51
195.11932
  0
ARC
  5
16DE
100
AcDbEntity
  8
11000_LEFT
370
    25
390
0
  6
CONTINUOUS
 62
     7
100
AcDbCircle
 10
200.738033
 20
197.396683
 30
0.0
 40
5.0
100
AcDbArc
 50
342.454705
 51
350.173106
  0
CIRCLE
  5
16DF
100
AcDbEntity
  8
11000_LEFT
370
    25
390
0
  6
CONTINUOUS
 62
     7
100
AcDbCircle
 10
201.1
 20
155.95
 30
0.0
 40
1.25
  0
CIRCLE
  5
16E0
100
AcDbEntity
  8
11000_LEFT
370
    25
390
0
  6
CONTINUOUS
 62
     7
100
AcDbCircle
 10
201.1
 20
155.95
 30
0.0
 40
1.45
  0
ARC
  5
16E1
100
AcDbEntity
  8
11000_LEFT
370
    25
390
0
  6
CONTINUOUS
 62
     7
100
AcDbCircle
 10
201.491808
 20
146.598773
 30
0.0
 40
26.599999
100
AcDbArc
 50
98.52963
 51
105.240501
  0
ARC
  5
16E2
100
AcDbEntity
  8
11000_LEFT
370
    25
390
0
  6
CONTINUOUS
 62
     7
100
AcDbCircle
 10
201.491808
 20
146.598773
 30
0.0
 40
26.599999
100
AcDbArc
 50
105.418541
 51
107.871674
  0
ARC
  5
16E3
100
AcDbEntity
  8
11000_LEFT
370
    25
390
0
  6
CONTINUOUS
 62
     7
100
AcDbCircle
 10
201.491809
 20
146.598772
 30
0.0
 40
23.600001
100
AcDbArc
 50
99.614931
 51
103.913103
  0
ARC
  5
16E4
100
AcDbEntity
  8
11000_LEFT
370
    25
390
0
  6
CONTINUOUS
 62
     7
100
AcDbCircle
 10
202.016472
 20
143.25
 30
0.0
 40
0.2
100
AcDbArc
 50
44.900858
 51
90.000167
  0
ARC
  5
16E5
100
AcDbEntity
  8
11000_LEFT
370
    25
390
0
  6
CONTINUOUS
 62
     7
100
AcDbCircle
 10
202.016472
 20
143.25
 30
0.0
 40
0.4
100
AcDbArc
 50
44.900804
 51
90.000083
  0
ARC
  5
16E6
100
AcDbEntity
  8
11000_LEFT
370
    25
390
0
  6
CONTINUOUS
 62
     7
100
AcDbCircle
 10
202.7
 20
186.45
 30
0.0
 40
0.5
100
AcDbArc
 50
270.0
 51
315.0
  0
ARC
  5
16E7
100
AcDbEntity
  8
11000_LEFT
370
    25
390
0
  6
CONTINUOUS
 62
     7
100
AcDbCircle
 10
202.7
 20
186.45
 30
0.0
 40
0.7
100
AcDbArc
 50
270.0
 51
314.99989
  0
CIRCLE
  5
16E8
100
AcDbEntity
  8
11000_LEFT
370
    25
390
0
  6
CONTINUOUS
 62
     7
100
AcDbCircle
 10
202.95
 20
171.45
 30
0.0
 40
1.25
  0
CIRCLE
  5
16E9
100
AcDbEntity
  8
11000_LEFT
370
    25
390
0
  6
CONTINUOUS
 62
     7
100
AcDbCircle
 10
202.95
 20
171.45
 30
0.0
 40
1.45
  0
CIRCLE
  5
16EA
100
AcDbEntity
  8
11000_LEFT
370
    25
390
0
  6
CONTINUOUS
 62
     7
100
AcDbCircle
 10
203.1
 20
160.95
 30
0.0
 40
1.25
  0
CIRCLE
  5
16EB
100
AcDbEntity
  8
11000_LEFT
370
    25
390
0
  6
CONTINUOUS
 62
     7
100
AcDbCircle
 10
203.1
 20
160.95
 30
0.0
 40
1.45
  0
ARC
  5
16EC
100
AcDbEntity
  8
11000_LEFT
370
    25
390
0
  6
CONTINUOUS
 62
     7
100
AcDbCircle
 10
203.1
 20
186.85
 30
0.0
 40
0.5
100
AcDbArc
 50
315.000093
 51
0.000175
  0
ARC
  5
16ED
100
AcDbEntity
  8
11000_LEFT
370
    25
390
0
  6
CONTINUOUS
 62
     7
100
AcDbCircle
 10
203.1
 20
186.85
 30
0.0
 40
0.7
100
AcDbArc
 50
315.000066
 51
0.000125
  0
ARC
  5
16EE
100
AcDbEntity
  8
11000_LEFT
370
    25
390
0
  6
CONTINUOUS
 62
     7
100
AcDbCircle
 10
203.8
 20
191.658844
 30
0.0
 40
0.2
100
AcDbArc
 50
179.859376
 51
180.000352
  0
ARC
  5
16EF
100
AcDbEntity
  8
11000_LEFT
370
    25
390
0
  6
CONTINUOUS
 62
     7
100
AcDbCircle
 10
203.8
 20
191.758844
 30
0.0
 40
0.2
100
AcDbArc
 50
154.999983
 51
179.999696
  0
CIRCLE
  5
16F0
100
AcDbEntity
  8
11000_LEFT
370
    25
390
0
  6
CONTINUOUS
 62
     7
100
AcDbCircle
 10
205.1
 20
166.45
 30
0.0
 40
1.25
  0
CIRCLE
  5
16F1
100
AcDbEntity
  8
11000_LEFT
370
    25
390
0
  6
CONTINUOUS
 62
     7
100
AcDbCircle
 10
205.1
 20
166.45
 30
0.0
 40
1.45
  0
ARC
  5
16F2
100
AcDbEntity
  8
11000_LEFT
370
    25
390
0
  6
CONTINUOUS
 62
     7
100
AcDbCircle
 10
205.1
 20
177.75
 30
0.0
 40
1.274498
100
AcDbArc
 50
250.999954
 51
71.00002
  0
ARC
  5
16F3
100
AcDbEntity
  8
11000_LEFT
370
    25
390
0
  6
CONTINUOUS
 62
     7
100
AcDbCircle
 10
205.1
 20
177.75
 30
0.0
 40
1.474498
100
AcDbArc
 50
251.00001
 51
71.000019
  0
ARC
  5
16F4
100
AcDbEntity
  8
11000_LEFT
370
    25
390
0
  6
CONTINUOUS
 62
     7
100
AcDbCircle
 10
205.9
 20
140.25
 30
0.0
 40
0.8
100
AcDbArc
 50
180.0
 51
270.000055
  0
CIRCLE
  5
16F5
100
AcDbEntity
  8
11000_LEFT
370
    25
390
0
  6
CONTINUOUS
 62
     7
100
AcDbCircle
 10
206.4
 20
144.65
 30
0.0
 40
1.25
  0
CIRCLE
  5
16F6
100
AcDbEntity
  8
11000_LEFT
370
    25
390
0
  6
CONTINUOUS
 62
     7
100
AcDbCircle
 10
206.4
 20
144.65
 30
0.0
 40
1.45
  0
ARC
  5
16F7
100
AcDbEntity
  8
11000_LEFT
370
    25
390
0
  6
CONTINUOUS
 62
     7
100
AcDbCircle
 10
206.63707
 20
195.95
 30
0.0
 40
0.8
100
AcDbArc
 50
90.000026
 51
155.000097
  0
ARC
  5
16F8
100
AcDbEntity
  8
11000_LEFT
370
    25
390
0
  6
CONTINUOUS
 62
     7
100
AcDbCircle
 10
206.63707
 20
195.95
 30
0.0
 40
1.0
100
AcDbArc
 50
90.000021
 51
154.999987
  0
ARC
  5
16F9
100
AcDbEntity
  8
11000_LEFT
370
    25
390
0
  6
CONTINUOUS
 62
     7
100
AcDbCircle
 10
206.65
 20
196.37265
 30
0.0
 40
1.0
100
AcDbArc
 50
120.371494
 51
170.17305
  0
ARC
  5
16FA
100
AcDbEntity
  8
11000_LEFT
370
    25
390
0
  6
CONTINUOUS
 62
     7
100
AcDbCircle
 10
207.647
 20
175.75
 30
0.0
 40
0.9
100
AcDbArc
 50
90.000029
 51
269.999971
  0
ARC
  5
16FB
100
AcDbEntity
  8
11000_LEFT
370
    25
390
0
  6
CONTINUOUS
 62
     7
100
AcDbCircle
 10
207.647
 20
175.75
 30
0.0
 40
1.1
100
AcDbArc
 50
90.000023
 51
269.999977
  0
ARC
  5
16FC
100
AcDbEntity
  8
11000_LEFT
370
    25
390
0
  6
CONTINUOUS
 62
     7
100
AcDbCircle
 10
209.241428
 20
150.45
 30
0.0
 40
9.8
100
AcDbArc
 50
224.900875
 51
270.000001
  0
ARC
  5
16FD
100
AcDbEntity
  8
11000_LEFT
370
    25
390
0
  6
CONTINUOUS
 62
     7
100
AcDbCircle
 10
209.241428
 20
150.45
 30
0.0
 40
10.0
100
AcDbArc
 50
224.900872
 51
270.000001
  0
ARC
  5
16FE
100
AcDbEntity
  8
11000_LEFT
370
    25
390
0
  6
CONTINUOUS
 62
     7
100
AcDbCircle
 10
209.889329
 20
197.45
 30
0.0
 40
0.5
100
AcDbArc
 50
122.398361
 51
269.906507
  0
ARC
  5
16FF
100
AcDbEntity
  8
11000_LEFT
370
    25
390
0
  6
CONTINUOUS
 62
     7
100
AcDbCircle
 10
210.218629
 20
138.65
 30
0.0
 40
0.8
100
AcDbArc
 50
45.000012
 51
90.000005
  0
ARC
  5
1700
100
AcDbEntity
  8
11000_LEFT
370
    25
390
0
  6
CONTINUOUS
 62
     7
100
AcDbCircle
 10
210.473431
 20
197.15
 30
0.0
 40
0.2
100
AcDbArc
 50
270.000116
 51
329.076551
  0
ARC
  5
1701
100
AcDbEntity
  8
11000_LEFT
370
    25
390
0
  6
CONTINUOUS
 62
     7
100
AcDbCircle
 10
210.473431
 20
197.15
 30
0.0
 40
0.4
100
AcDbArc
 50
270.000058
 51
329.076967
  0
ARC
  5
1702
100
AcDbEntity
  8
11000_LEFT
370
    25
390
0
  6
CONTINUOUS
 62
     7
100
AcDbCircle
 10
212.6
 20
175.75
 30
0.0
 40
0.9
100
AcDbArc
 50
269.999976
 51
90.000024
  0
ARC
  5
1703
100
AcDbEntity
  8
11000_LEFT
370
    25
390
0
  6
CONTINUOUS
 62
     7
100
AcDbCircle
 10
212.6
 20
175.75
 30
0.0
 40
1.1
100
AcDbArc
 50
269.99998
 51
90.00002
  0
ARC
  5
1704
100
AcDbEntity
  8
11000_LEFT
370
    25
390
0
  6
CONTINUOUS
 62
     7
100
AcDbCircle
 10
214.777064
 20
201.355615
 30
0.0
 40
0.3
100
AcDbArc
 50
278.412889
 51
335.000268
  0
ARC
  5
1705
100
AcDbEntity
  8
11000_LEFT
370
    25
390
0
  6
CONTINUOUS
 62
     7
100
AcDbCircle
 10
215.605919
 20
201.95
 30
0.0
 40
0.200001
100
AcDbArc
 50
35.000089
 51
155.000363
  0
ARC
  5
1706
100
AcDbEntity
  8
11000_LEFT
370
    25
390
0
  6
CONTINUOUS
 62
     7
100
AcDbCircle
 10
216.374175
 20
201.288678
 30
0.0
 40
0.05
100
AcDbArc
 50
214.998299
 51
275.658194
  0
ARC
  5
1707
100
AcDbEntity
  8
11000_LEFT
370
    25
390
0
  6
CONTINUOUS
 62
     7
100
AcDbCircle
 10
216.501661
 20
201.05
 30
0.0
 40
0.2
100
AcDbArc
 50
90.000043
 51
95.564069
  0
ARC
  5
1708
100
AcDbEntity
  8
11000_LEFT
370
    25
390
0
  6
CONTINUOUS
 62
     7
100
AcDbCircle
 10
216.65
 20
193.45
 30
0.0
 40
6.8
100
AcDbArc
 50
90.000002
 51
149.076774
  0
ARC
  5
1709
100
AcDbEntity
  8
11000_LEFT
370
    25
390
0
  6
CONTINUOUS
 62
     7
100
AcDbCircle
 10
216.65
 20
193.45
 30
0.0
 40
7.0
100
AcDbArc
 50
90.000002
 51
149.076791
  0
ARC
  5
170A
100
AcDbEntity
  8
11000_LEFT
370
    25
390
0
  6
CONTINUOUS
 62
     7
100
AcDbCircle
 10
217.015528
 20
186.22025
 30
0.0
 40
13.8
100
AcDbArc
 50
106.916001
 51
122.398481
  0
ARC
  5
170B
100
AcDbEntity
  8
11000_LEFT
370
    25
390
0
  6
CONTINUOUS
 62
     7
100
AcDbCircle
 10
217.015528
 20
186.22025
 30
0.0
 40
15.0
100
AcDbArc
 50
98.412846
 51
120.371544
  0
ARC
  5
170C
100
AcDbEntity
  8
11000_LEFT
370
    25
390
0
  6
CONTINUOUS
 62
     7
100
AcDbCircle
 10
217.4
 20
200.25
 30
0.0
 40
0.2
100
AcDbArc
 50
359.999781
 51
90.000055
  0
ARC
  5
170D
100
AcDbEntity
  8
11000_LEFT
370
    25
390
0
  6
CONTINUOUS
 62
     7
100
AcDbCircle
 10
217.5
 20
201.15
 30
0.0
 40
0.1
100
AcDbArc
 50
0.000437
 51
89.99989
  0
ARC
  5
170E
100
AcDbEntity
  8
11000_LEFT
370
    25
390
0
  6
CONTINUOUS
 62
     7
100
AcDbCircle
 10
217.7
 20
200.95
 30
0.0
 40
0.1
100
AcDbArc
 50
180.0
 51
270.0
  0
ARC
  5
170F
100
AcDbEntity
  8
11000_LEFT
370
    25
390
0
  6
CONTINUOUS
 62
     7
100
AcDbCircle
 10
218.5
 20
200.95
 30
0.0
 40
0.1
100
AcDbArc
 50
269.999973
 51
0.0
  0
ARC
  5
1710
100
AcDbEntity
  8
11000_LEFT
370
    25
390
0
  6
CONTINUOUS
 62
     7
100
AcDbCircle
 10
218.7
 20
196.75
 30
0.0
 40
0.2
100
AcDbArc
 50
359.999781
 51
85.903925
  0
ARC
  5
1711
100
AcDbEntity
  8
11000_LEFT
370
    25
390
0
  6
CONTINUOUS
 62
     7
100
AcDbCircle
 10
218.7
 20
201.15
 30
0.0
 40
0.1
100
AcDbArc
 50
90.0
 51
179.999563
  0
ARC
  5
1712
100
AcDbEntity
  8
11000_LEFT
370
    25
390
0
  6
CONTINUOUS
 62
     7
100
AcDbCircle
 10
218.8
 20
198.146424
 30
0.0
 40
1.2
100
AcDbArc
 50
180.000068
 51
265.903962
  0
ARC
  5
1713
100
AcDbEntity
  8
11000_LEFT
370
    25
390
0
  6
CONTINUOUS
 62
     7
100
AcDbCircle
 10
218.8
 20
198.146424
 30
0.0
 40
1.4
100
AcDbArc
 50
180.000058
 51
265.903958
  0
LINE
  5
1714
100
AcDbEntity
  8
11000_LEFT
370
    25
390
0
  6
CONTINUOUS
 62
     7
100
AcDbLine
 10
219.183907
 20
174.423375
 30
0.0
 11
219.184167
 21
174.423461
 31
0.0
  0
POLYLINE
  5
1715
100
AcDbEntity
  8
11000_LEFT
370
    25
390
0
  6
CONTINUOUS
 62
     7
100
AcDb2dPolyline
 66
     1
 10
0.0
 20
0.0
 30
0.0
  0
VERTEX
  5
1716
100
AcDbEntity
  8
11000_LEFT
370
    25
390
0
  6
CONTINUOUS
 62
     7
100
AcDbVertex
100
AcDb2dVertex
 10
219.098381
 20
174.997744
 30
0.0
  0
VERTEX
  5
1717
100
AcDbEntity
  8
11000_LEFT
370
    25
390
0
  6
CONTINUOUS
 62
     7
100
AcDbVertex
100
AcDb2dVertex
 10
219.079784
 20
174.97502
 30
0.0
  0
VERTEX
  5
1718
100
AcDbEntity
  8
11000_LEFT
370
    25
390
0
  6
CONTINUOUS
 62
     7
100
AcDbVertex
100
AcDb2dVertex
 10
219.065965
 20
174.949104
 30
0.0
  0
VERTEX
  5
1719
100
AcDbEntity
  8
11000_LEFT
370
    25
390
0
  6
CONTINUOUS
 62
     7
100
AcDbVertex
100
AcDb2dVertex
 10
219.057454
 20
174.920989
 30
0.0
  0
VERTEX
  5
171A
100
AcDbEntity
  8
11000_LEFT
370
    25
390
0
  6
CONTINUOUS
 62
     7
100
AcDbVertex
100
AcDb2dVertex
 10
219.054576
 20
174.891753
 30
0.0
  0
VERTEX
  5
171B
100
AcDbEntity
  8
11000_LEFT
370
    25
390
0
  6
CONTINUOUS
 62
     7
100
AcDbVertex
100
AcDb2dVertex
 10
219.057443
 20
174.862519
 30
0.0
  0
VERTEX
  5
171C
100
AcDbEntity
  8
11000_LEFT
370
    25
390
0
  6
CONTINUOUS
 62
     7
100
AcDbVertex
100
AcDb2dVertex
 10
219.065945
 20
174.834406
 30
0.0
  0
VERTEX
  5
171D
100
AcDbEntity
  8
11000_LEFT
370
    25
390
0
  6
CONTINUOUS
 62
     7
100
AcDbVertex
100
AcDb2dVertex
 10
219.079755
 20
174.808494
 30
0.0
  0
VERTEX
  5
171E
100
AcDbEntity
  8
11000_LEFT
370
    25
390
0
  6
CONTINUOUS
 62
     7
100
AcDbVertex
100
AcDb2dVertex
 10
219.098343
 20
174.785777
 30
0.0
  0
SEQEND
  5
171F
100
AcDbEntity
  8
11000_LEFT
370
    25
390
0
  6
CONTINUOUS
 62
     7
  0
LINE
  5
1720
100
AcDbEntity
  8
11000_LEFT
370
    25
390
0
  6
CONTINUOUS
 62
     7
100
AcDbLine
 10
219.891275
 20
173.716354
 30
0.0
 11
219.891189
 21
173.716094
 31
0.0
  0
POLYLINE
  5
1721
100
AcDbEntity
  8
11000_LEFT
370
    25
390
0
  6
CONTINUOUS
 62
     7
100
AcDb2dPolyline
 66
     1
 10
0.0
 20
0.0
 30
0.0
  0
VERTEX
  5
1722
100
AcDbEntity
  8
11000_LEFT
370
    25
390
0
  6
CONTINUOUS
 62
     7
100
AcDbVertex
100
AcDb2dVertex
 10
220.253589
 20
173.630531
 30
0.0
  0
VERTEX
  5
1723
100
AcDbEntity
  8
11000_LEFT
370
    25
390
0
  6
CONTINUOUS
 62
     7
100
AcDbVertex
100
AcDb2dVertex
 10
220.276307
 20
173.611942
 30
0.0
  0
VERTEX
  5
1724
100
AcDbEntity
  8
11000_LEFT
370
    25
390
0
  6
CONTINUOUS
 62
     7
100
AcDbVertex
100
AcDb2dVertex
 10
220.302219
 20
173.598132
 30
0.0
  0
VERTEX
  5
1725
100
AcDbEntity
  8
11000_LEFT
370
    25
390
0
  6
CONTINUOUS
 62
     7
100
AcDbVertex
100
AcDb2dVertex
 10
220.330331
 20
173.58963
 30
0.0
  0
VERTEX
  5
1726
100
AcDbEntity
  8
11000_LEFT
370
    25
390
0
  6
CONTINUOUS
 62
     7
100
AcDbVertex
100
AcDb2dVertex
 10
220.359566
 20
173.586763
 30
0.0
  0
VERTEX
  5
1727
100
AcDbEntity
  8
11000_LEFT
370
    25
390
0
  6
CONTINUOUS
 62
     7
100
AcDbVertex
100
AcDb2dVertex
 10
220.388802
 20
173.589641
 30
0.0
  0
VERTEX
  5
1728
100
AcDbEntity
  8
11000_LEFT
370
    25
390
0
  6
CONTINUOUS
 62
     7
100
AcDbVertex
100
AcDb2dVertex
 10
220.416917
 20
173.598152
 30
0.0
  0
VERTEX
  5
1729
100
AcDbEntity
  8
11000_LEFT
370
    25
390
0
  6
CONTINUOUS
 62
     7
100
AcDbVertex
100
AcDb2dVertex
 10
220.442833
 20
173.611971
 30
0.0
  0
VERTEX
  5
172A
100
AcDbEntity
  8
11000_LEFT
370
    25
390
0
  6
CONTINUOUS
 62
     7
100
AcDbVertex
100
AcDb2dVertex
 10
220.465557
 20
173.630568
 30
0.0
  0
SEQEND
  5
172B
100
AcDbEntity
  8
11000_LEFT
370
    25
390
0
  6
CONTINUOUS
 62
     7
  0
ARC
  5
172C
100
AcDbEntity
  8
11000_LEFT
370
    25
390
0
  6
CONTINUOUS
 62
     7
100
AcDbCircle
 10
220.9
 20
181.278427
 30
0.0
 40
2.0
100
AcDbArc
 50
180.0
 51
224.999968
  0
ARC
  5
172D
100
AcDbEntity
  8
11000_LEFT
370
    25
390
0
  6
CONTINUOUS
 62
     7
100
AcDbCircle
 10
220.9
 20
181.278427
 30
0.0
 40
2.2
100
AcDbArc
 50
180.0
 51
224.999989
  0
ARC
  5
172E
100
AcDbEntity
  8
11000_LEFT
370
    25
390
0
  6
CONTINUOUS
 62
     7
100
AcDbCircle
 10
222.0
 20
140.65
 30
0.0
 40
0.2
100
AcDbArc
 50
269.999999
 51
270.142016
  0
ARC
  5
172F
100
AcDbEntity
  8
11000_LEFT
370
    25
390
0
  6
CONTINUOUS
 62
     7
100
AcDbCircle
 10
222.6
 20
138.45
 30
0.0
 40
63.096342
100
AcDbArc
 50
95.564058
 51
95.658189
  0
ARC
  5
1730
100
AcDbEntity
  8
11000_LEFT
370
    25
390
0
  6
CONTINUOUS
 62
     7
100
AcDbCircle
 10
227.3
 20
171.767157
 30
0.0
 40
0.2
100
AcDbArc
 50
0.000131
 51
44.999919
  0
LINE
  5
1731
100
AcDbEntity
  8
11100_LEFT_DIM
370
    13
390
0
  6
CONTINUOUS
 62
     7
100
AcDbLine
 10
193.0
 20
170.8
 30
0.0
 11
193.0
 21
213.15
 31
0.0
  0
LINE
  5
1732
100
AcDbEntity
  8
11100_LEFT_DIM
370
    13
390
0
  6
CONTINUOUS
 62
     7
100
AcDbLine
 10
227.5
 20
213.15
 30
0.0
 11
227.5
 21
171.75
 31
0.0
  0
LINE
  5
1733
100
AcDbEntity
  8
11100_LEFT_DIM
370
    13
390
0
  6
CONTINUOUS
 62
     7
100
AcDbLine
 10
193.0
 20
212.15
 30
0.0
 11
227.5
 21
212.15
 31
0.0
  0
TEXT
  5
1734
100
AcDbEntity
  8
11100_LEFT_DIM
370
    13
390
0
  6
CONTINUOUS
 62
     7
100
AcDbText
 10
207.25
 20
213.15
 30
0.0
 40
2.0
  1
34.5
 72
     1
 11
210.25
 21
213.15
 31
0.0
100
AcDbText
  0
LINE
  5
1735
100
AcDbEntity
  8
11100_LEFT_DIM
370
    13
390
0
  6
CONTINUOUS
 62
     7
100
AcDbLine
 10
198.0
 20
212.808262
 30
0.0
 11
198.0
 21
211.491738
 31
0.0
  0
LINE
  5
1736
100
AcDbEntity
  8
11100_LEFT_DIM
370
    13
390
0
  6
CONTINUOUS
 62
     7
100
AcDbLine
 10
198.0
 20
212.808262
 30
0.0
 11
193.0
 21
212.15
 31
0.0
  0
LINE
  5
1737
100
AcDbEntity
  8
11100_LEFT_DIM
370
    13
390
0
  6
CONTINUOUS
 62
     7
100
AcDbLine
 10
198.0
 20
211.491738
 30
0.0
 11
193.0
 21
212.15
 31
0.0
  0
LINE
  5
1738
100
AcDbEntity
  8
11100_LEFT_DIM
370
    13
390
0
  6
CONTINUOUS
 62
     7
100
AcDbLine
 10
222.5
 20
211.491738
 30
0.0
 11
222.5
 21
212.808262
 31
0.0
  0
LINE
  5
1739
100
AcDbEntity
  8
11100_LEFT_DIM
370
    13
390
0
  6
CONTINUOUS
 62
     7
100
AcDbLine
 10
222.5
 20
211.491738
 30
0.0
 11
227.5
 21
212.15
 31
0.0
  0
LINE
  5
173A
100
AcDbEntity
  8
11100_LEFT_DIM
370
    13
390
0
  6
CONTINUOUS
 62
     7
100
AcDbLine
 10
222.5
 20
212.808262
 30
0.0
 11
227.5
 21
212.15
 31
0.0
  0
LINE
  5
173B
100
AcDbEntity
  8
11100_LEFT_DIM
370
    13
390
0
  6
CONTINUOUS
 62
     7
100
AcDbLine
 10
227.26023
 20
212.181566
 30
0.0
 11
227.316018
 21
212.125778
 31
0.0
  0
LINE
  5
173C
100
AcDbEntity
  8
11100_LEFT_DIM
370
    13
390
0
  6
CONTINUOUS
 62
     7
100
AcDbLine
 10
227.258785
 20
212.118243
 30
0.0
 11
227.314909
 21
212.174368
 31
0.0
  0
LINE
  5
173D
100
AcDbEntity
  8
11100_LEFT_DIM
370
    13
390
0
  6
CONTINUOUS
 62
     7
100
AcDbLine
 10
193.308766
 20
212.10935
 30
0.0
 11
193.402392
 21
212.202976
 31
0.0
  0
LINE
  5
173E
100
AcDbEntity
  8
11100_LEFT_DIM
370
    13
390
0
  6
CONTINUOUS
 62
     7
100
AcDbLine
 10
193.309875
 20
212.190796
 30
0.0
 11
193.403837
 21
212.096834
 31
0.0
  0
LINE
  5
173F
100
AcDbEntity
  8
11100_LEFT_DIM
370
    13
390
0
  6
CONTINUOUS
 62
     7
100
AcDbLine
 10
226.771642
 20
212.24589
 30
0.0
 11
226.941111
 21
212.076421
 31
0.0
  0
LINE
  5
1740
100
AcDbEntity
  8
11100_LEFT_DIM
370
    13
390
0
  6
CONTINUOUS
 62
     7
100
AcDbLine
 10
226.770197
 20
212.05392
 30
0.0
 11
226.940002
 21
212.223725
 31
0.0
  0
LINE
  5
1741
100
AcDbEntity
  8
11100_LEFT_DIM
370
    13
390
0
  6
CONTINUOUS
 62
     7
100
AcDbLine
 10
197.808755
 20
212.783085
 30
0.0
 11
198.0
 21
212.59184
 31
0.0
  0
LINE
  5
1742
100
AcDbEntity
  8
11100_LEFT_DIM
370
    13
390
0
  6
CONTINUOUS
 62
     7
100
AcDbLine
 10
197.807646
 20
211.517061
 30
0.0
 11
198.0
 21
211.709415
 31
0.0
  0
LINE
  5
1743
100
AcDbEntity
  8
11100_LEFT_DIM
370
    13
390
0
  6
CONTINUOUS
 62
     7
100
AcDbLine
 10
193.683673
 20
212.059993
 30
0.0
 11
193.890979
 21
212.2673
 31
0.0
  0
LINE
  5
1744
100
AcDbEntity
  8
11100_LEFT_DIM
370
    13
390
0
  6
CONTINUOUS
 62
     7
100
AcDbLine
 10
193.684782
 20
212.240153
 30
0.0
 11
193.892425
 21
212.03251
 31
0.0
  0
LINE
  5
1745
100
AcDbEntity
  8
11100_LEFT_DIM
370
    13
390
0
  6
CONTINUOUS
 62
     7
100
AcDbLine
 10
226.283054
 20
212.310214
 30
0.0
 11
226.566205
 21
212.027064
 31
0.0
  0
LINE
  5
1746
100
AcDbEntity
  8
11100_LEFT_DIM
370
    13
390
0
  6
CONTINUOUS
 62
     7
100
AcDbLine
 10
226.281609
 20
211.989596
 30
0.0
 11
226.565096
 21
212.273083
 31
0.0
  0
LINE
  5
1747
100
AcDbEntity
  8
11100_LEFT_DIM
370
    13
390
0
  6
CONTINUOUS
 62
     7
100
AcDbLine
 10
222.5
 20
212.450628
 30
0.0
 11
222.816029
 21
212.766656
 31
0.0
  0
LINE
  5
1748
100
AcDbEntity
  8
11100_LEFT_DIM
370
    13
390
0
  6
CONTINUOUS
 62
     7
100
AcDbLine
 10
222.5
 20
211.850628
 30
0.0
 11
222.817138
 21
211.53349
 31
0.0
  0
LINE
  5
1749
100
AcDbEntity
  8
11100_LEFT_DIM
370
    13
390
0
  6
CONTINUOUS
 62
     7
100
AcDbLine
 10
194.058579
 20
212.010635
 30
0.0
 11
194.379567
 21
212.331623
 31
0.0
  0
LINE
  5
174A
100
AcDbEntity
  8
11100_LEFT_DIM
370
    13
390
0
  6
CONTINUOUS
 62
     7
100
AcDbLine
 10
194.059688
 20
212.289511
 30
0.0
 11
194.381013
 21
211.968186
 31
0.0
  0
LINE
  5
174B
100
AcDbEntity
  8
11100_LEFT_DIM
370
    13
390
0
  6
CONTINUOUS
 62
     7
100
AcDbLine
 10
225.794466
 20
212.374538
 30
0.0
 11
226.191298
 21
211.977706
 31
0.0
  0
LINE
  5
174C
100
AcDbEntity
  8
11100_LEFT_DIM
370
    13
390
0
  6
CONTINUOUS
 62
     7
100
AcDbLine
 10
225.793021
 20
211.925272
 30
0.0
 11
226.190189
 21
212.32244
 31
0.0
  0
LINE
  5
174D
100
AcDbEntity
  8
11100_LEFT_DIM
370
    13
390
0
  6
CONTINUOUS
 62
     7
100
AcDbLine
 10
194.433486
 20
211.961278
 30
0.0
 11
194.868155
 21
212.395947
 31
0.0
  0
LINE
  5
174E
100
AcDbEntity
  8
11100_LEFT_DIM
370
    13
390
0
  6
CONTINUOUS
 62
     7
100
AcDbLine
 10
194.434595
 20
212.338868
 30
0.0
 11
194.869601
 21
211.903862
 31
0.0
  0
LINE
  5
174F
100
AcDbEntity
  8
11100_LEFT_DIM
370
    13
390
0
  6
CONTINUOUS
 62
     7
100
AcDbLine
 10
225.305879
 20
212.438862
 30
0.0
 11
225.816391
 21
211.928349
 31
0.0
  0
LINE
  5
1750
100
AcDbEntity
  8
11100_LEFT_DIM
370
    13
390
0
  6
CONTINUOUS
 62
     7
100
AcDbLine
 10
225.304433
 20
211.860948
 30
0.0
 11
225.815282
 21
212.371797
 31
0.0
  0
LINE
  5
1751
100
AcDbEntity
  8
11100_LEFT_DIM
370
    13
390
0
  6
CONTINUOUS
 62
     7
100
AcDbLine
 10
194.808393
 20
211.911921
 30
0.0
 11
195.356743
 21
212.460271
 31
0.0
  0
LINE
  5
1752
100
AcDbEntity
  8
11100_LEFT_DIM
370
    13
390
0
  6
CONTINUOUS
 62
     7
100
AcDbLine
 10
194.809502
 20
212.388225
 30
0.0
 11
195.358189
 21
211.839539
 31
0.0
  0
LINE
  5
1753
100
AcDbEntity
  8
11100_LEFT_DIM
370
    13
390
0
  6
CONTINUOUS
 62
     7
100
AcDbLine
 10
197.433848
 20
212.733727
 30
0.0
 11
198.0
 21
212.167576
 31
0.0
  0
LINE
  5
1754
100
AcDbEntity
  8
11100_LEFT_DIM
370
    13
390
0
  6
CONTINUOUS
 62
     7
100
AcDbLine
 10
197.432739
 20
211.566419
 30
0.0
 11
198.0
 21
212.13368
 31
0.0
  0
LINE
  5
1755
100
AcDbEntity
  8
11100_LEFT_DIM
370
    13
390
0
  6
CONTINUOUS
 62
     7
100
AcDbLine
 10
224.817291
 20
212.503185
 30
0.0
 11
225.441485
 21
211.878991
 31
0.0
  0
LINE
  5
1756
100
AcDbEntity
  8
11100_LEFT_DIM
370
    13
390
0
  6
CONTINUOUS
 62
     7
100
AcDbLine
 10
224.815845
 20
211.796624
 30
0.0
 11
225.440376
 21
212.421155
 31
0.0
  0
LINE
  5
1757
100
AcDbEntity
  8
11100_LEFT_DIM
370
    13
390
0
  6
CONTINUOUS
 62
     7
100
AcDbLine
 10
195.183299
 20
211.862563
 30
0.0
 11
195.845331
 21
212.524595
 31
0.0
  0
LINE
  5
1758
100
AcDbEntity
  8
11100_LEFT_DIM
370
    13
390
0
  6
CONTINUOUS
 62
     7
100
AcDbLine
 10
195.184408
 20
212.437583
 30
0.0
 11
195.846777
 21
211.775215
 31
0.0
  0
LINE
  5
1759
100
AcDbEntity
  8
11100_LEFT_DIM
370
    13
390
0
  6
CONTINUOUS
 62
     7
100
AcDbLine
 10
222.5
 20
212.026364
 30
0.0
 11
223.190936
 21
212.717299
 31
0.0
  0
LINE
  5
175A
100
AcDbEntity
  8
11100_LEFT_DIM
370
    13
390
0
  6
CONTINUOUS
 62
     7
100
AcDbLine
 10
222.5
 20
212.274892
 30
0.0
 11
223.192045
 21
211.582847
 31
0.0
  0
LINE
  5
175B
100
AcDbEntity
  8
11100_LEFT_DIM
370
    13
390
0
  6
CONTINUOUS
 62
     7
100
AcDbLine
 10
224.328703
 20
212.567509
 30
0.0
 11
225.066578
 21
211.829634
 31
0.0
  0
LINE
  5
175C
100
AcDbEntity
  8
11100_LEFT_DIM
370
    13
390
0
  6
CONTINUOUS
 62
     7
100
AcDbLine
 10
224.327257
 20
211.7323
 30
0.0
 11
225.065469
 21
212.470512
 31
0.0
  0
LINE
  5
175D
100
AcDbEntity
  8
11100_LEFT_DIM
370
    13
390
0
  6
CONTINUOUS
 62
     7
100
AcDbLine
 10
195.558206
 20
211.813206
 30
0.0
 11
196.333919
 21
212.588919
 31
0.0
  0
LINE
  5
175E
100
AcDbEntity
  8
11100_LEFT_DIM
370
    13
390
0
  6
CONTINUOUS
 62
     7
100
AcDbLine
 10
195.559315
 20
212.48694
 30
0.0
 11
196.335364
 21
211.710891
 31
0.0
  0
LINE
  5
175F
100
AcDbEntity
  8
11100_LEFT_DIM
370
    13
390
0
  6
CONTINUOUS
 62
     7
100
AcDbLine
 10
223.840115
 20
212.631833
 30
0.0
 11
224.691671
 21
211.780277
 31
0.0
  0
LINE
  5
1760
100
AcDbEntity
  8
11100_LEFT_DIM
370
    13
390
0
  6
CONTINUOUS
 62
     7
100
AcDbLine
 10
223.838669
 20
211.667977
 30
0.0
 11
224.690562
 21
212.519869
 31
0.0
  0
LINE
  5
1761
100
AcDbEntity
  8
11100_LEFT_DIM
370
    13
390
0
  6
CONTINUOUS
 62
     7
100
AcDbLine
 10
195.933113
 20
211.763848
 30
0.0
 11
196.822507
 21
212.653243
 31
0.0
  0
LINE
  5
1762
100
AcDbEntity
  8
11100_LEFT_DIM
370
    13
390
0
  6
CONTINUOUS
 62
     7
100
AcDbLine
 10
195.934222
 20
212.536298
 30
0.0
 11
196.823952
 21
211.646567
 31
0.0
  0
LINE
  5
1763
100
AcDbEntity
  8
11100_LEFT_DIM
370
    13
390
0
  6
CONTINUOUS
 62
     7
100
AcDbLine
 10
197.058942
 20
212.68437
 30
0.0
 11
198.0
 21
211.743312
 31
0.0
  0
LINE
  5
1764
100
AcDbEntity
  8
11100_LEFT_DIM
370
    13
390
0
  6
CONTINUOUS
 62
     7
100
AcDbLine
 10
197.057833
 20
211.615776
 30
0.0
 11
198.0
 21
212.557944
 31
0.0
  0
LINE
  5
1765
100
AcDbEntity
  8
11100_LEFT_DIM
370
    13
390
0
  6
CONTINUOUS
 62
     7
100
AcDbLine
 10
223.351527
 20
212.696157
 30
0.0
 11
224.316765
 21
211.730919
 31
0.0
  0
LINE
  5
1766
100
AcDbEntity
  8
11100_LEFT_DIM
370
    13
390
0
  6
CONTINUOUS
 62
     7
100
AcDbLine
 10
223.350082
 20
211.603653
 30
0.0
 11
224.315656
 21
212.569227
 31
0.0
  0
LINE
  5
1767
100
AcDbEntity
  8
11100_LEFT_DIM
370
    13
390
0
  6
CONTINUOUS
 62
     7
100
AcDbLine
 10
196.308019
 20
211.714491
 30
0.0
 11
197.311095
 21
212.717566
 31
0.0
  0
LINE
  5
1768
100
AcDbEntity
  8
11100_LEFT_DIM
370
    13
390
0
  6
CONTINUOUS
 62
     7
100
AcDbLine
 10
196.309128
 20
212.585655
 30
0.0
 11
197.31254
 21
211.582243
 31
0.0
  0
LINE
  5
1769
100
AcDbEntity
  8
11100_LEFT_DIM
370
    13
390
0
  6
CONTINUOUS
 62
     7
100
AcDbLine
 10
222.5
 20
211.602099
 30
0.0
 11
223.565842
 21
212.667942
 31
0.0
  0
LINE
  5
176A
100
AcDbEntity
  8
11100_LEFT_DIM
370
    13
390
0
  6
CONTINUOUS
 62
     7
100
AcDbLine
 10
222.5
 20
212.699156
 30
0.0
 11
223.566951
 21
211.632204
 31
0.0
  0
LINE
  5
176B
100
AcDbEntity
  8
11100_LEFT_DIM
370
    13
390
0
  6
CONTINUOUS
 62
     7
100
AcDbLine
 10
222.862939
 20
212.760481
 30
0.0
 11
223.941858
 21
211.681562
 31
0.0
  0
LINE
  5
176C
100
AcDbEntity
  8
11100_LEFT_DIM
370
    13
390
0
  6
CONTINUOUS
 62
     7
100
AcDbLine
 10
222.861494
 20
211.539329
 30
0.0
 11
223.940749
 21
212.618584
 31
0.0
  0
LINE
  5
176D
100
AcDbEntity
  8
11100_LEFT_DIM
370
    13
390
0
  6
CONTINUOUS
 62
     7
100
AcDbLine
 10
196.682926
 20
211.665134
 30
0.0
 11
197.799683
 21
212.78189
 31
0.0
  0
LINE
  5
176E
100
AcDbEntity
  8
11100_LEFT_DIM
370
    13
390
0
  6
CONTINUOUS
 62
     7
100
AcDbLine
 10
196.684035
 20
212.635012
 30
0.0
 11
197.801128
 21
211.517919
 31
0.0
  0
LINE
  5
176F
100
AcDbEntity
  8
90000_FRAME
370
    13
  6
CONTINUOUS
 62
     7
100
AcDbLine
 10
50.7041
 20
59.4969
 30
0.0
 11
50.7041
 21
259.4969
 31
0.0
  0
LINE
  5
1770
100
AcDbEntity
  8
90000_FRAME
370
    13
  6
CONTINUOUS
 62
     7
100
AcDbLine
 10
320.7041
 20
259.4969
 30
0.0
 11
50.7041
 21
259.4969
 31
0.0
  0
LINE
  5
1771
100
AcDbEntity
  8
91000_TIP
370
    13
  6
CONTINUOUS
 62
     7
100
AcDbLine
 10
152.083561
 20
75.706991
 30
0.0
 11
162.083561
 21
78.206991
 31
0.0
  0
LINE
  5
1772
100
AcDbEntity
  8
91000_TIP
370
    13
  6
CONTINUOUS
 62
     7
100
AcDbLine
 10
150.80405
 20
73.206991
 30
0.0
 11
174.40604
 21
73.206991
 31
0.0
  0
LINE
  5
1773
100
AcDbEntity
  8
91000_TIP
370
    13
  6
CONTINUOUS
 62
     7
100
AcDbLine
 10
152.083561
 20
70.706991
 30
0.0
 11
162.083561
 21
68.206991
 31
0.0
  0
LINE
  5
1774
100
AcDbEntity
  8
91000_TIP
370
    13
  6
CONTINUOUS
 62
     7
100
AcDbLine
 10
152.083561
 20
75.706991
 30
0.0
 11
152.083561
 21
70.706991
 31
0.0
  0
LINE
  5
1775
100
AcDbEntity
  8
91000_TIP
370
    13
  6
CONTINUOUS
 62
     7
100
AcDbLine
 10
162.083561
 20
78.206991
 30
0.0
 11
162.083561
 21
68.206991
 31
0.0
  0
LINE
  5
1776
100
AcDbEntity
  8
91000_TIP
370
    13
  6
CONTINUOUS
 62
     7
100
AcDbLine
 10
168.58356
 20
67.48551
 30
0.0
 11
168.58356
 21
78.768896
 31
0.0
  0
CIRCLE
  5
1777
100
AcDbEntity
  8
91000_TIP
370
    13
  6
CONTINUOUS
 62
     7
100
AcDbCircle
 10
168.58356
 20
73.206991
 30
0.0
 40
5.0
  0
CIRCLE
  5
1778
100
AcDbEntity
  8
91000_TIP
370
    13
  6
CONTINUOUS
 62
     7
100
AcDbCircle
 10
168.58356
 20
73.206991
 30
0.0
 40
2.5
  0
TEXT
  5
1779
100
AcDbEntity
  8
90000_FRAME
370
    13
  6
CONTINUOUS
 62
     7
100
AcDbText
 10
181.263641
 20
84.274604
 30
0.0
 40
2.2
  1
All dimensions are in millimeters (mm)
 41
0.961374
100
AcDbText
  0
TEXT
  5
177A
100
AcDbEntity
  8
90000_FRAME
370
    13
  6
CONTINUOUS
 62
     7
100
AcDbText
 10
181.263641
 20
87.403627
 30
0.0
 40
2.2
  1
Alle Bemassungswerte sind in Millimeter (mm) angegeben.
 41
0.825144
100
AcDbText
  0
LINE
  5
177B
100
AcDbEntity
  8
90000_FRAME
370
    13
  6
CONTINUOUS
 62
     7
100
AcDbLine
 10
320.7041
 20
59.4969
 30
0.0
 11
320.7041
 21
259.4969
 31
0.0
  0
LINE
  5
177C
100
AcDbEntity
  8
90000_FRAME
370
    13
  6
CONTINUOUS
 62
     7
100
AcDbLine
 10
320.7041
 20
59.4969
 30
0.0
 11
50.7041
 21
59.4969
 31
0.0
  0
TEXT
  5
177D
100
AcDbEntity
  8
90000_FRAME
370
    13
  6
CONTINUOUS
 62
     7
100
AcDbText
 10
232.152183
 20
77.200042
 30
0.0
 40
3.0
  1
3VA9....(AA12,AA13)
 41
0.784213
100
AcDbText
  0
TEXT
  5
177E
100
AcDbEntity
  8
90000_FRAME
370
    13
  6
CONTINUOUS
 62
     7
100
AcDbText
 10
273.8641
 20
66.3969
 30
0.0
 40
2.2
  1
Massstab/Scale:
 41
0.9
100
AcDbText
  0
TEXT
  5
177F
100
AcDbEntity
  8
90000_FRAME
370
    13
  6
CONTINUOUS
 62
     7
100
AcDbText
 10
232.000028
 20
66.3969
 30
0.0
 40
2.2
  1
Format/Size: DIN A4
 41
0.803258
100
AcDbText
  0
LINE
  5
1780
100
AcDbEntity
  8
90000_FRAME
370
    13
  6
CONTINUOUS
 62
     7
100
AcDbLine
 10
315.7041
 20
64.4969
 30
0.0
 11
315.7041
 21
82.4969
 31
0.0
  0
LINE
  5
1781
100
AcDbEntity
  8
90000_FRAME
370
    13
  6
CONTINUOUS
 62
     7
100
AcDbLine
 10
273.2041
 20
64.4969
 30
0.0
 11
273.2041
 21
70.4969
 31
0.0
  0
LINE
  5
1782
100
AcDbEntity
  8
90000_FRAME
370
    13
  6
CONTINUOUS
 62
     7
100
AcDbLine
 10
230.7041
 20
64.4969
 30
0.0
 11
230.7041
 21
82.4969
 31
0.0
  0
LINE
  5
1783
100
AcDbEntity
  8
90000_FRAME
370
    13
  6
CONTINUOUS
 62
     7
100
AcDbLine
 10
180.7041
 20
82.4969
 30
0.0
 11
315.7041
 21
82.4969
 31
0.0
  0
LINE
  5
1784
100
AcDbEntity
  8
90000_FRAME
370
    13
  6
CONTINUOUS
 62
     7
100
AcDbLine
 10
230.7041
 20
70.4969
 30
0.0
 11
315.7041
 21
70.4969
 31
0.0
  0
LINE
  5
1785
100
AcDbEntity
  8
90000_FRAME
370
    13
  6
CONTINUOUS
 62
     7
100
AcDbLine
 10
180.7041
 20
64.4969
 30
0.0
 11
180.7041
 21
82.4969
 31
0.0
  0
LINE
  5
1786
100
AcDbEntity
  8
90000_FRAME
370
    13
  6
CONTINUOUS
 62
     7
100
AcDbLine
 10
180.7041
 20
64.4969
 30
0.0
 11
315.7041
 21
64.4969
 31
0.0
  0
LINE
  5
1787
100
AcDbEntity
  8
90000_FRAME
370
    13
  6
CONTINUOUS
 62
     7
100
AcDbLine
 10
194.890301
 20
75.911448
 30
0.0
 11
194.890301
 21
71.158179
 31
0.0
  0
LINE
  5
1788
100
AcDbEntity
  8
90000_FRAME
370
    13
  6
CONTINUOUS
 62
     7
100
AcDbLine
 10
196.316281
 20
75.911448
 30
0.0
 11
196.316281
 21
71.158179
 31
0.0
  0
LINE
  5
1789
100
AcDbEntity
  8
90000_FRAME
370
    13
  6
CONTINUOUS
 62
     7
100
AcDbLine
 10
194.890301
 20
71.158179
 30
0.0
 11
196.316281
 21
71.158179
 31
0.0
  0
LINE
  5
178A
100
AcDbEntity
  8
90000_FRAME
370
    13
  6
CONTINUOUS
 62
     7
100
AcDbLine
 10
194.890301
 20
75.911448
 30
0.0
 11
196.316281
 21
75.911448
 31
0.0
  0
LINE
  5
178B
100
AcDbEntity
  8
90000_FRAME
370
    13
  6
CONTINUOUS
 62
     7
100
AcDbLine
 10
197.409533
 20
75.911448
 30
0.0
 11
197.409533
 21
71.158179
 31
0.0
  0
LINE
  5
178C
100
AcDbEntity
  8
90000_FRAME
370
    13
  6
CONTINUOUS
 62
     7
100
AcDbLine
 10
197.409533
 20
71.158179
 30
0.0
 11
200.974485
 21
71.158179
 31
0.0
  0
LINE
  5
178D
100
AcDbEntity
  8
90000_FRAME
370
    13
  6
CONTINUOUS
 62
     7
100
AcDbLine
 10
200.974485
 20
72.0613
 30
0.0
 11
198.787981
 21
72.0613
 31
0.0
  0
LINE
  5
178E
100
AcDbEntity
  8
90000_FRAME
370
    13
  6
CONTINUOUS
 62
     7
100
AcDbLine
 10
200.974485
 20
72.0613
 30
0.0
 11
200.974485
 21
71.158179
 31
0.0
  0
LINE
  5
178F
100
AcDbEntity
  8
90000_FRAME
370
    13
  6
CONTINUOUS
 62
     7
100
AcDbLine
 10
200.926952
 20
75.911448
 30
0.0
 11
197.409533
 21
75.911448
 31
0.0
  0
LINE
  5
1790
100
AcDbEntity
  8
90000_FRAME
370
    13
  6
CONTINUOUS
 62
     7
100
AcDbLine
 10
200.926952
 20
75.032093
 30
0.0
 11
198.787981
 21
75.032093
 31
0.0
  0
LINE
  5
1791
100
AcDbEntity
  8
90000_FRAME
370
    13
  6
CONTINUOUS
 62
     7
100
AcDbLine
 10
200.926952
 20
75.911448
 30
0.0
 11
200.926952
 21
75.032093
 31
0.0
  0
LINE
  5
1792
100
AcDbEntity
  8
90000_FRAME
370
    13
  6
CONTINUOUS
 62
     7
100
AcDbLine
 10
200.641756
 20
73.178318
 30
0.0
 11
198.787981
 21
73.178318
 31
0.0
  0
LINE
  5
1793
100
AcDbEntity
  8
90000_FRAME
370
    13
  6
CONTINUOUS
 62
     7
100
AcDbLine
 10
200.641756
 20
73.962608
 30
0.0
 11
200.641756
 21
73.178318
 31
0.0
  0
LINE
  5
1794
100
AcDbEntity
  8
90000_FRAME
370
    13
  6
CONTINUOUS
 62
     7
100
AcDbLine
 10
200.641756
 20
73.962608
 30
0.0
 11
198.787981
 21
73.962608
 31
0.0
  0
LINE
  5
1795
100
AcDbEntity
  8
90000_FRAME
370
    13
  6
CONTINUOUS
 62
     7
100
AcDbLine
 10
198.787981
 20
75.032093
 30
0.0
 11
198.787981
 21
73.962608
 31
0.0
  0
LINE
  5
1796
100
AcDbEntity
  8
90000_FRAME
370
    13
  6
CONTINUOUS
 62
     7
100
AcDbLine
 10
198.787981
 20
73.178318
 30
0.0
 11
198.787981
 21
72.0613
 31
0.0
  0
LINE
  5
1797
100
AcDbEntity
  8
90000_FRAME
370
    13
  6
CONTINUOUS
 62
     7
100
AcDbLine
 10
201.782541
 20
71.158179
 30
0.0
 11
201.782541
 21
75.911448
 31
0.0
  0
LINE
  5
1798
100
AcDbEntity
  8
90000_FRAME
370
    13
  6
CONTINUOUS
 62
     7
100
AcDbLine
 10
201.782541
 20
71.158179
 30
0.0
 11
202.733194
 21
71.158179
 31
0.0
  0
LINE
  5
1799
100
AcDbEntity
  8
90000_FRAME
370
    13
  6
CONTINUOUS
 62
     7
100
AcDbLine
 10
207.629062
 20
75.911448
 30
0.0
 11
207.629062
 21
71.158179
 31
0.0
  0
LINE
  5
179A
100
AcDbEntity
  8
90000_FRAME
370
    13
  6
CONTINUOUS
 62
     7
100
AcDbLine
 10
207.629062
 20
71.158179
 30
0.0
 11
206.250614
 21
71.158179
 31
0.0
  0
LINE
  5
179B
100
AcDbEntity
  8
90000_FRAME
370
    13
  6
CONTINUOUS
 62
     7
100
AcDbLine
 10
204.06411
 20
71.110646
 30
0.0
 11
204.919698
 21
71.110646
 31
0.0
  0
LINE
  5
179C
100
AcDbEntity
  8
90000_FRAME
370
    13
  6
CONTINUOUS
 62
     7
100
AcDbLine
 10
204.06411
 20
71.110646
 30
0.0
 11
202.733194
 21
74.200271
 31
0.0
  0
LINE
  5
179D
100
AcDbEntity
  8
90000_FRAME
370
    13
  6
CONTINUOUS
 62
     7
100
AcDbLine
 10
202.733194
 20
71.158179
 30
0.0
 11
202.733194
 21
74.200271
 31
0.0
  0
LINE
  5
179E
100
AcDbEntity
  8
90000_FRAME
370
    13
  6
CONTINUOUS
 62
     7
100
AcDbLine
 10
206.250614
 20
74.247804
 30
0.0
 11
204.919698
 21
71.110646
 31
0.0
  0
LINE
  5
179F
100
AcDbEntity
  8
90000_FRAME
370
    13
  6
CONTINUOUS
 62
     7
100
AcDbLine
 10
203.493718
 20
75.911448
 30
0.0
 11
201.782541
 21
75.911448
 31
0.0
  0
LINE
  5
17A0
100
AcDbEntity
  8
90000_FRAME
370
    13
  6
CONTINUOUS
 62
     7
100
AcDbLine
 10
207.629062
 20
75.911448
 30
0.0
 11
205.917885
 21
75.911448
 31
0.0
  0
LINE
  5
17A1
100
AcDbEntity
  8
90000_FRAME
370
    13
  6
CONTINUOUS
 62
     7
100
AcDbLine
 10
203.493718
 20
75.911448
 30
0.0
 11
204.729568
 21
73.011954
 31
0.0
  0
LINE
  5
17A2
100
AcDbEntity
  8
90000_FRAME
370
    13
  6
CONTINUOUS
 62
     7
100
AcDbLine
 10
205.917885
 20
75.911448
 30
0.0
 11
204.729568
 21
73.011954
 31
0.0
  0
LINE
  5
17A3
100
AcDbEntity
  8
90000_FRAME
370
    13
  6
CONTINUOUS
 62
     7
100
AcDbLine
 10
206.250614
 20
74.247804
 30
0.0
 11
206.250614
 21
71.158179
 31
0.0
  0
LINE
  5
17A4
100
AcDbEntity
  8
90000_FRAME
370
    13
  6
CONTINUOUS
 62
     7
100
AcDbLine
 10
208.722314
 20
75.911448
 30
0.0
 11
208.722314
 21
71.158179
 31
0.0
  0
LINE
  5
17A5
100
AcDbEntity
  8
90000_FRAME
370
    13
  6
CONTINUOUS
 62
     7
100
AcDbLine
 10
208.722314
 20
71.158179
 30
0.0
 11
212.287265
 21
71.158179
 31
0.0
  0
LINE
  5
17A6
100
AcDbEntity
  8
90000_FRAME
370
    13
  6
CONTINUOUS
 62
     7
100
AcDbLine
 10
212.287265
 20
72.0613
 30
0.0
 11
210.100762
 21
72.0613
 31
0.0
  0
LINE
  5
17A7
100
AcDbEntity
  8
90000_FRAME
370
    13
  6
CONTINUOUS
 62
     7
100
AcDbLine
 10
212.287265
 20
72.0613
 30
0.0
 11
212.287265
 21
71.158179
 31
0.0
  0
LINE
  5
17A8
100
AcDbEntity
  8
90000_FRAME
370
    13
  6
CONTINUOUS
 62
     7
100
AcDbLine
 10
212.239733
 20
75.911448
 30
0.0
 11
208.722314
 21
75.911448
 31
0.0
  0
LINE
  5
17A9
100
AcDbEntity
  8
90000_FRAME
370
    13
  6
CONTINUOUS
 62
     7
100
AcDbLine
 10
212.239733
 20
75.032093
 30
0.0
 11
210.100762
 21
75.032093
 31
0.0
  0
LINE
  5
17AA
100
AcDbEntity
  8
90000_FRAME
370
    13
  6
CONTINUOUS
 62
     7
100
AcDbLine
 10
212.239733
 20
75.911448
 30
0.0
 11
212.239733
 21
75.032093
 31
0.0
  0
LINE
  5
17AB
100
AcDbEntity
  8
90000_FRAME
370
    13
  6
CONTINUOUS
 62
     7
100
AcDbLine
 10
211.954537
 20
73.178318
 30
0.0
 11
210.100762
 21
73.178318
 31
0.0
  0
LINE
  5
17AC
100
AcDbEntity
  8
90000_FRAME
370
    13
  6
CONTINUOUS
 62
     7
100
AcDbLine
 10
211.954537
 20
73.962608
 30
0.0
 11
211.954537
 21
73.178318
 31
0.0
  0
LINE
  5
17AD
100
AcDbEntity
  8
90000_FRAME
370
    13
  6
CONTINUOUS
 62
     7
100
AcDbLine
 10
211.954537
 20
73.962608
 30
0.0
 11
210.100762
 21
73.962608
 31
0.0
  0
LINE
  5
17AE
100
AcDbEntity
  8
90000_FRAME
370
    13
  6
CONTINUOUS
 62
     7
100
AcDbLine
 10
210.100762
 20
75.032093
 30
0.0
 11
210.100762
 21
73.962608
 31
0.0
  0
LINE
  5
17AF
100
AcDbEntity
  8
90000_FRAME
370
    13
  6
CONTINUOUS
 62
     7
100
AcDbLine
 10
210.100762
 20
73.178318
 30
0.0
 11
210.100762
 21
72.0613
 31
0.0
  0
LINE
  5
17B0
100
AcDbEntity
  8
90000_FRAME
370
    13
  6
CONTINUOUS
 62
     7
100
AcDbLine
 10
213.071555
 20
71.158179
 30
0.0
 11
213.071555
 21
75.911448
 31
0.0
  0
LINE
  5
17B1
100
AcDbEntity
  8
90000_FRAME
370
    13
  6
CONTINUOUS
 62
     7
100
AcDbLine
 10
217.254432
 20
75.911448
 30
0.0
 11
217.254432
 21
71.158179
 31
0.0
  0
LINE
  5
17B2
100
AcDbEntity
  8
90000_FRAME
370
    13
  6
CONTINUOUS
 62
     7
100
AcDbLine
 10
213.071555
 20
71.158179
 30
0.0
 11
214.022209
 21
71.158179
 31
0.0
  0
LINE
  5
17B3
100
AcDbEntity
  8
90000_FRAME
370
    13
  6
CONTINUOUS
 62
     7
100
AcDbLine
 10
217.254432
 20
75.911448
 30
0.0
 11
216.303778
 21
75.911448
 31
0.0
  0
LINE
  5
17B4
100
AcDbEntity
  8
90000_FRAME
370
    13
  6
CONTINUOUS
 62
     7
100
AcDbLine
 10
214.616367
 20
75.911448
 30
0.0
 11
213.071555
 21
75.911448
 31
0.0
  0
LINE
  5
17B5
100
AcDbEntity
  8
90000_FRAME
370
    13
  6
CONTINUOUS
 62
     7
100
AcDbLine
 10
217.254432
 20
71.158179
 30
0.0
 11
215.733385
 21
71.158179
 31
0.0
  0
LINE
  5
17B6
100
AcDbEntity
  8
90000_FRAME
370
    13
  6
CONTINUOUS
 62
     7
100
AcDbLine
 10
215.733385
 20
71.158179
 30
0.0
 11
214.022209
 21
74.200271
 31
0.0
  0
LINE
  5
17B7
100
AcDbEntity
  8
90000_FRAME
370
    13
  6
CONTINUOUS
 62
     7
100
AcDbLine
 10
214.616367
 20
75.911448
 30
0.0
 11
216.303778
 21
72.964421
 31
0.0
  0
LINE
  5
17B8
100
AcDbEntity
  8
90000_FRAME
370
    13
  6
CONTINUOUS
 62
     7
100
AcDbLine
 10
216.303778
 20
75.911448
 30
0.0
 11
216.303778
 21
72.964421
 31
0.0
  0
LINE
  5
17B9
100
AcDbEntity
  8
90000_FRAME
370
    13
  6
CONTINUOUS
 62
     7
100
AcDbLine
 10
214.022209
 20
71.158179
 30
0.0
 11
214.022209
 21
74.200271
 31
0.0
  0
LINE
  5
17BA
100
AcDbEntity
  8
90000_FRAME
370
    13
  6
CONTINUOUS
 62
     7
100
AcDbLine
 10
218.062487
 20
71.253244
 30
0.0
 11
218.062487
 21
72.203898
 31
0.0
  0
LINE
  5
17BB
100
AcDbEntity
  8
90000_FRAME
370
    13
  6
CONTINUOUS
 62
     7
100
AcDbLine
 10
221.389776
 20
74.913261
 30
0.0
 11
221.389776
 21
75.863915
 31
0.0
  0
ARC
  5
17BC
100
AcDbEntity
  8
90000_FRAME
370
    13
  6
CONTINUOUS
 62
     7
100
AcDbCircle
 10
219.767128
 20
73.115337
 30
0.0
 40
1.111619
100
AcDbArc
 50
277.709996
 51
295.688493
  0
ARC
  5
17BD
100
AcDbEntity
  8
90000_FRAME
370
    13
  6
CONTINUOUS
 62
     7
100
AcDbCircle
 10
220.051438
 20
72.390512
 30
0.0
 40
0.340169
100
AcDbArc
 50
305.503221
 51
72.46529
  0
ARC
  5
17BE
100
AcDbEntity
  8
90000_FRAME
370
    13
  6
CONTINUOUS
 62
     7
100
AcDbCircle
 10
219.485445
 20
75.792219
 30
0.0
 40
4.756795
100
AcDbArc
 50
252.59392
 51
280.98166
  0
ARC
  5
17BF
100
AcDbEntity
  8
90000_FRAME
370
    13
  6
CONTINUOUS
 62
     7
100
AcDbCircle
 10
219.94028
 20
73.174205
 30
0.0
 40
2.100727
100
AcDbArc
 50
282.405836
 51
311.864443
  0
ARC
  5
17C0
100
AcDbEntity
  8
90000_FRAME
370
    13
  6
CONTINUOUS
 62
     7
100
AcDbCircle
 10
219.666716
 20
74.782546
 30
0.0
 40
0.302963
100
AcDbArc
 50
154.440035
 51
221.82017
  0
ARC
  5
17C1
100
AcDbEntity
  8
90000_FRAME
370
    13
  6
CONTINUOUS
 62
     7
100
AcDbCircle
 10
219.745937
 20
74.703325
 30
0.0
 40
0.410309
100
AcDbArc
 50
102.828783
 51
149.225964
  0
ARC
  5
17C2
100
AcDbEntity
  8
90000_FRAME
370
    13
  6
CONTINUOUS
 62
     7
100
AcDbCircle
 10
220.162964
 20
72.96099
 30
0.0
 40
2.201837
100
AcDbArc
 50
84.040006
 51
103.342766
  0
ARC
  5
17C3
100
AcDbEntity
  8
90000_FRAME
370
    13
  6
CONTINUOUS
 62
     7
100
AcDbCircle
 10
219.822
 20
70.543626
 30
0.0
 40
4.642374
100
AcDbArc
 50
70.262586
 51
82.952419
  0
ARC
  5
17C4
100
AcDbEntity
  8
90000_FRAME
370
    13
  6
CONTINUOUS
 62
     7
100
AcDbCircle
 10
219.307982
 20
75.215249
 30
0.0
 40
3.258756
100
AcDbArc
 50
247.530021
 51
280.757952
  0
ARC
  5
17C5
100
AcDbEntity
  8
90000_FRAME
370
    13
  6
CONTINUOUS
 62
     7
100
AcDbCircle
 10
212.923015
 20
56.963729
 30
0.0
 40
17.331608
100
AcDbArc
 50
65.341467
 51
67.399777
  0
ARC
  5
17C6
100
AcDbEntity
  8
90000_FRAME
370
    13
  6
CONTINUOUS
 62
     7
100
AcDbCircle
 10
223.718877
 20
82.756155
 30
0.0
 40
10.629164
100
AcDbArc
 50
242.86201
 51
247.104203
  0
ARC
  5
17C7
100
AcDbEntity
  8
90000_FRAME
370
    13
  6
CONTINUOUS
 62
     7
100
AcDbCircle
 10
219.863976
 20
75.222224
 30
0.0
 40
2.166292
100
AcDbArc
 50
227.311928
 51
242.704032
  0
ARC
  5
17C8
100
AcDbEntity
  8
90000_FRAME
370
    13
  6
CONTINUOUS
 62
     7
100
AcDbCircle
 10
219.259945
 20
74.516546
 30
0.0
 40
1.238522
100
AcDbArc
 50
194.795219
 51
225.717655
  0
ARC
  5
17C9
100
AcDbEntity
  8
90000_FRAME
370
    13
  6
CONTINUOUS
 62
     7
100
AcDbCircle
 10
219.322104
 20
74.556766
 30
0.0
 40
1.309092
100
AcDbArc
 50
164.197486
 51
195.802514
  0
ARC
  5
17CA
100
AcDbEntity
  8
90000_FRAME
370
    13
  6
CONTINUOUS
 62
     7
100
AcDbCircle
 10
219.879127
 20
73.668499
 30
0.0
 40
2.366925
100
AcDbArc
 50
86.221802
 51
120.42726
  0
ARC
  5
17CB
100
AcDbEntity
  8
90000_FRAME
370
    13
  6
CONTINUOUS
 62
     7
100
AcDbCircle
 10
219.610271
 20
66.972331
 30
0.0
 40
9.067905
100
AcDbArc
 50
78.682705
 51
87.31476
  0
ARC
  5
17CC
100
AcDbEntity
  8
90000_FRAME
370
    13
  6
CONTINUOUS
 62
     7
100
AcDbCircle
 10
219.154201
 20
74.664274
 30
0.0
 40
1.119747
100
AcDbArc
 50
142.813918
 51
167.152295
  0
ARC
  5
17CD
100
AcDbEntity
  8
90000_FRAME
370
    13
  6
CONTINUOUS
 62
     7
100
AcDbCircle
 10
219.499511
 20
74.357692
 30
0.0
 40
1.580547
100
AcDbArc
 50
121.214095
 51
141.525477
  0
ARC
  5
17CE
100
AcDbEntity
  8
90000_FRAME
370
    13
  6
CONTINUOUS
 62
     7
100
AcDbCircle
 10
220.076685
 20
75.16875
 30
0.0
 40
0.866128
100
AcDbArc
 50
222.776039
 51
239.036243
  0
ARC
  5
17CF
100
AcDbEntity
  8
90000_FRAME
370
    13
  6
CONTINUOUS
 62
     7
100
AcDbCircle
 10
217.569975
 20
67.838477
 30
0.0
 40
6.858774
100
AcDbArc
 50
59.902027
 51
68.203648
  0
ARC
  5
17D0
100
AcDbEntity
  8
90000_FRAME
370
    13
  6
CONTINUOUS
 62
     7
100
AcDbCircle
 10
220.97847
 20
76.764364
 30
0.0
 40
2.698741
100
AcDbArc
 50
240.0482
 51
251.377967
  0
ARC
  5
17D1
100
AcDbEntity
  8
90000_FRAME
370
    13
  6
CONTINUOUS
 62
     7
100
AcDbCircle
 10
220.313013
 20
72.607465
 30
0.0
 40
1.433447
100
AcDbArc
 50
315.890455
 51
333.522926
  0
ARC
  5
17D2
100
AcDbEntity
  8
90000_FRAME
370
    13
  6
CONTINUOUS
 62
     7
100
AcDbCircle
 10
220.317651
 20
72.554058
 30
0.0
 40
1.406229
100
AcDbArc
 50
335.386797
 51
24.391512
  0
ARC
  5
17D3
100
AcDbEntity
  8
90000_FRAME
370
    13
  6
CONTINUOUS
 62
     7
100
AcDbCircle
 10
220.245446
 20
72.476201
 30
0.0
 40
1.504703
100
AcDbArc
 50
25.956292
 51
59.483483
  0
LINE
  5
17D4
100
AcDbEntity
  8
90000_FRAME
370
    13
  6
CONTINUOUS
 62
     7
100
AcDbLine
 10
190.46976
 20
71.253244
 30
0.0
 11
190.46976
 21
72.203898
 31
0.0
  0
LINE
  5
17D5
100
AcDbEntity
  8
90000_FRAME
370
    13
  6
CONTINUOUS
 62
     7
100
AcDbLine
 10
193.797049
 20
74.913261
 30
0.0
 11
193.797049
 21
75.863915
 31
0.0
  0
ARC
  5
17D6
100
AcDbEntity
  8
90000_FRAME
370
    13
  6
CONTINUOUS
 62
     7
100
AcDbCircle
 10
192.174401
 20
73.115337
 30
0.0
 40
1.111619
100
AcDbArc
 50
277.709996
 51
295.688493
  0
ARC
  5
17D7
100
AcDbEntity
  8
90000_FRAME
370
    13
  6
CONTINUOUS
 62
     7
100
AcDbCircle
 10
192.458711
 20
72.390512
 30
0.0
 40
0.340169
100
AcDbArc
 50
305.503221
 51
72.46529
  0
ARC
  5
17D8
100
AcDbEntity
  8
90000_FRAME
370
    13
  6
CONTINUOUS
 62
     7
100
AcDbCircle
 10
191.892718
 20
75.792219
 30
0.0
 40
4.756795
100
AcDbArc
 50
252.59392
 51
280.98166
  0
ARC
  5
17D9
100
AcDbEntity
  8
90000_FRAME
370
    13
  6
CONTINUOUS
 62
     7
100
AcDbCircle
 10
192.347553
 20
73.174205
 30
0.0
 40
2.100727
100
AcDbArc
 50
282.405836
 51
311.864443
  0
ARC
  5
17DA
100
AcDbEntity
  8
90000_FRAME
370
    13
  6
CONTINUOUS
 62
     7
100
AcDbCircle
 10
192.073989
 20
74.782546
 30
0.0
 40
0.302963
100
AcDbArc
 50
154.440035
 51
221.82017
  0
ARC
  5
17DB
100
AcDbEntity
  8
90000_FRAME
370
    13
  6
CONTINUOUS
 62
     7
100
AcDbCircle
 10
192.15321
 20
74.703325
 30
0.0
 40
0.410309
100
AcDbArc
 50
102.828783
 51
149.225964
  0
ARC
  5
17DC
100
AcDbEntity
  8
90000_FRAME
370
    13
  6
CONTINUOUS
 62
     7
100
AcDbCircle
 10
192.570237
 20
72.96099
 30
0.0
 40
2.201837
100
AcDbArc
 50
84.040006
 51
103.342766
  0
ARC
  5
17DD
100
AcDbEntity
  8
90000_FRAME
370
    13
  6
CONTINUOUS
 62
     7
100
AcDbCircle
 10
192.229273
 20
70.543626
 30
0.0
 40
4.642374
100
AcDbArc
 50
70.262586
 51
82.952419
  0
ARC
  5
17DE
100
AcDbEntity
  8
90000_FRAME
370
    13
  6
CONTINUOUS
 62
     7
100
AcDbCircle
 10
191.715255
 20
75.215249
 30
0.0
 40
3.258756
100
AcDbArc
 50
247.530021
 51
280.757952
  0
ARC
  5
17DF
100
AcDbEntity
  8
90000_FRAME
370
    13
  6
CONTINUOUS
 62
     7
100
AcDbCircle
 10
185.330288
 20
56.963729
 30
0.0
 40
17.331608
100
AcDbArc
 50
65.341467
 51
67.399777
  0
ARC
  5
17E0
100
AcDbEntity
  8
90000_FRAME
370
    13
  6
CONTINUOUS
 62
     7
100
AcDbCircle
 10
196.12615
 20
82.756155
 30
0.0
 40
10.629164
100
AcDbArc
 50
242.86201
 51
247.104203
  0
ARC
  5
17E1
100
AcDbEntity
  8
90000_FRAME
370
    13
  6
CONTINUOUS
 62
     7
100
AcDbCircle
 10
192.271249
 20
75.222224
 30
0.0
 40
2.166292
100
AcDbArc
 50
227.311928
 51
242.704032
  0
ARC
  5
17E2
100
AcDbEntity
  8
90000_FRAME
370
    13
  6
CONTINUOUS
 62
     7
100
AcDbCircle
 10
191.667218
 20
74.516546
 30
0.0
 40
1.238522
100
AcDbArc
 50
194.795219
 51
225.717655
  0
ARC
  5
17E3
100
AcDbEntity
  8
90000_FRAME
370
    13
  6
CONTINUOUS
 62
     7
100
AcDbCircle
 10
192.2864
 20
73.668499
 30
0.0
 40
2.366925
100
AcDbArc
 50
86.221802
 51
120.42726
  0
ARC
  5
17E4
100
AcDbEntity
  8
90000_FRAME
370
    13
  6
CONTINUOUS
 62
     7
100
AcDbCircle
 10
192.017544
 20
66.972331
 30
0.0
 40
9.067905
100
AcDbArc
 50
78.682705
 51
87.31476
  0
ARC
  5
17E5
100
AcDbEntity
  8
90000_FRAME
370
    13
  6
CONTINUOUS
 62
     7
100
AcDbCircle
 10
191.906784
 20
74.357692
 30
0.0
 40
1.580547
100
AcDbArc
 50
121.214095
 51
141.525477
  0
ARC
  5
17E6
100
AcDbEntity
  8
90000_FRAME
370
    13
  6
CONTINUOUS
 62
     7
100
AcDbCircle
 10
192.483958
 20
75.16875
 30
0.0
 40
0.866128
100
AcDbArc
 50
222.776039
 51
239.036243
  0
ARC
  5
17E7
100
AcDbEntity
  8
90000_FRAME
370
    13
  6
CONTINUOUS
 62
     7
100
AcDbCircle
 10
189.977248
 20
67.838477
 30
0.0
 40
6.858774
100
AcDbArc
 50
59.902027
 51
68.203648
  0
ARC
  5
17E8
100
AcDbEntity
  8
90000_FRAME
370
    13
  6
CONTINUOUS
 62
     7
100
AcDbCircle
 10
193.385743
 20
76.764364
 30
0.0
 40
2.698741
100
AcDbArc
 50
240.0482
 51
251.377967
  0
ARC
  5
17E9
100
AcDbEntity
  8
90000_FRAME
370
    13
  6
CONTINUOUS
 62
     7
100
AcDbCircle
 10
192.720286
 20
72.607465
 30
0.0
 40
1.433447
100
AcDbArc
 50
315.890455
 51
333.522926
  0
ARC
  5
17EA
100
AcDbEntity
  8
90000_FRAME
370
    13
  6
CONTINUOUS
 62
     7
100
AcDbCircle
 10
192.724924
 20
72.554058
 30
0.0
 40
1.406229
100
AcDbArc
 50
335.386797
 51
24.391512
  0
ARC
  5
17EB
100
AcDbEntity
  8
90000_FRAME
370
    13
  6
CONTINUOUS
 62
     7
100
AcDbCircle
 10
192.652719
 20
72.476201
 30
0.0
 40
1.504703
100
AcDbArc
 50
25.956292
 51
59.483483
  0
LINE
  5
17EC
100
AcDbEntity
  8
90000_FRAME
370
    13
  6
CONTINUOUS
 62
     7
100
AcDbLine
 10
190.661589
 20
75.330642
 30
0.0
 11
190.935655
 21
75.604715
 31
0.0
  0
ARC
  5
17ED
100
AcDbEntity
  8
90000_FRAME
370
    13
  6
CONTINUOUS
 62
     7
100
AcDbCircle
 10
191.729377
 20
74.556766
 30
0.0
 40
1.309092
100
AcDbArc
 50
164.197486
 51
195.802514
  0
ARC
  5
17EE
100
AcDbEntity
  8
90000_FRAME
370
    13
  6
CONTINUOUS
 62
     7
100
AcDbCircle
 10
191.561474
 20
74.664274
 30
0.0
 40
1.119747
100
AcDbArc
 50
142.813918
 51
167.152295
  0
TEXT
  5
17EF
100
AcDbEntity
  8
90000_FRAME
370
    13
  6
CONTINUOUS
 62
     7
100
AcDbText
 10
302.000028
 20
66.396942
 30
0.0
 40
2.2
  1
1:1
 41
0.9
100
AcDbText
  0
TEXT
  5
17F0
100
AcDbEntity
  8
90000_FRAME
370
    13
  6
CONTINUOUS
 62
     7
100
AcDbText
 10
232.000028
 20
72.200042
 30
0.0
 40
2.2
  1

 41
0.784213
100
AcDbText
  0
ENDSEC
  0
SECTION
  2
OBJECTS
  0
DICTIONARY
  5
10CF
100
AcDbDictionary
280
     0
281
     1
  3
ACAD_GROUP
350
10D0
  3
ACAD_MLINESTYLE
350
10D1
  0
DICTIONARY
  5
10D0
102
{ACAD_REACTORS
330
10CF
102
}
100
AcDbDictionary
280
     0
281
     1
  0
DICTIONARY
  5
10D1
102
{ACAD_REACTORS
330
10CF
102
}
100
AcDbDictionary
280
     0
281
     1
  3
Standard
350
10D2
  0
MLINESTYLE
  5
10D2
102
{ACAD_REACTORS
330
10D1
102
}
100
AcDbMlineStyle
  2
Standard
 70
     0
  3

 62
     0
 51
90.0
 52
90.0
 71
     2
 49
0.5
 62
   256
  6
ByLayer
 49
-0.5
 62
   256
  6
ByLayer
  0
ENDSEC
  0
EOF
