  0
SECTION
  2
HEADER
  9
$ACADVER
  1
AC1015
  9
$ACADMAINTVER
 70
     6
  9
$DWGCODEPAGE
  3
ANSI_1252
  9
$INSBASE
 10
0.0
 20
0.0
 30
0.0
  9
$EXTMIN
 10
69.395417
 20
287.976483
 30
-1.0
  9
$EXTMAX
 10
1026.514554
 20
492.804657
 30
0.7
  9
$LIMMIN
 10
0.0
 20
0.0
  9
$LIMMAX
 10
12.0
 20
9.0
  9
$ORTHOMODE
 70
     0
  9
$REGENMODE
 70
     1
  9
$FILLMODE
 70
     1
  9
$QTEXTMODE
 70
     0
  9
$MIRRTEXT
 70
     0
  9
$LTSCALE
 40
5.0
  9
$ATTMODE
 70
     1
  9
$TEXTSIZE
 40
0.2
  9
$TRACEWID
 40
0.05
  9
$TEXTSTYLE
  7
STANDARD
  9
$CLAYER
  8
0
  9
$CELTYPE
  6
ByLayer
  9
$CECOLOR
 62
   256
  9
$CELTSCALE
 40
1.0
  9
$DISPSILH
 70
     0
  9
$DIMSCALE
 40
1.0
  9
$DIMASZ
 40
0.18
  9
$DIMEXO
 40
0.0625
  9
$DIMDLI
 40
0.38
  9
$DIMRND
 40
0.0
  9
$DIMDLE
 40
0.0
  9
$DIMEXE
 40
0.18
  9
$DIMTP
 40
0.0
  9
$DIMTM
 40
0.0
  9
$DIMTXT
 40
0.18
  9
$DIMCEN
 40
0.09
  9
$DIMTSZ
 40
0.0
  9
$DIMTOL
 70
     0
  9
$DIMLIM
 70
     0
  9
$DIMTIH
 70
     1
  9
$DIMTOH
 70
     1
  9
$DIMSE1
 70
     0
  9
$DIMSE2
 70
     0
  9
$DIMTAD
 70
     0
  9
$DIMZIN
 70
     0
  9
$DIMBLK
  1

  9
$DIMASO
 70
     1
  9
$DIMSHO
 70
     1
  9
$DIMPOST
  1

  9
$DIMAPOST
  1

  9
$DIMALT
 70
     0
  9
$DIMALTD
 70
     2
  9
$DIMALTF
 40
25.4
  9
$DIMLFAC
 40
1.0
  9
$DIMTOFL
 70
     0
  9
$DIMTVP
 40
0.0
  9
$DIMTIX
 70
     0
  9
$DIMSOXD
 70
     0
  9
$DIMSAH
 70
     0
  9
$DIMBLK1
  1

  9
$DIMBLK2
  1

  9
$DIMSTYLE
  2
STANDARD
  9
$DIMCLRD
 70
     0
  9
$DIMCLRE
 70
     0
  9
$DIMCLRT
 70
     0
  9
$DIMTFAC
 40
1.0
  9
$DIMGAP
 40
0.09
  9
$DIMJUST
 70
     0
  9
$DIMSD1
 70
     0
  9
$DIMSD2
 70
     0
  9
$DIMTOLJ
 70
     1
  9
$DIMTZIN
 70
     0
  9
$DIMALTZ
 70
     0
  9
$DIMALTTZ
 70
     0
  9
$DIMUPT
 70
     0
  9
$DIMDEC
 70
     4
  9
$DIMTDEC
 70
     4
  9
$DIMALTU
 70
     2
  9
$DIMALTTD
 70
     2
  9
$DIMTXSTY
  7
STANDARD
  9
$DIMAUNIT
 70
     0
  9
$DIMADEC
 70
     0
  9
$DIMALTRND
 40
0.0
  9
$DIMAZIN
 70
     0
  9
$DIMDSEP
 70
     0
  9
$DIMATFIT
 70
     3
  9
$DIMFRAC
 70
     0
  9
$DIMLDRBLK
  1

  9
$DIMLUNIT
 70
     2
  9
$DIMLWD
 70
     0
  9
$DIMLWE
 70
     0
  9
$DIMTMOVE
 70
     0
  9
$LUNITS
 70
     2
  9
$LUPREC
 70
     4
  9
$SKETCHINC
 40
0.1
  9
$FILLETRAD
 40
0.0
  9
$AUNITS
 70
     0
  9
$AUPREC
 70
     0
  9
$MENU
  1
.
  9
$ELEVATION
 40
0.0
  9
$PELEVATION
 40
0.0
  9
$THICKNESS
 40
0.0
  9
$LIMCHECK
 70
     0
  9
$CHAMFERA
 40
0.0
  9
$CHAMFERB
 40
0.0
  9
$CHAMFERC
 40
0.0
  9
$CHAMFERD
 40
0.0
  9
$SKPOLY
 70
     0
  9
$TDCREATE
 40
2453353.758792454
  9
$TDUCREATE
 40
0.000000000
  9
$TDUPDATE
 40
0.000000000
  9
$TDUUPDATE
 40
2447892.958333334
  9
$TDINDWG
 40
78332576.0667047050
  9
$TDUSRTIMER
 40
0.0000000000
  9
$USRTIMER
 70
     1
  9
$ANGBASE
 50
0.0
  9
$ANGDIR
 70
     0
  9
$PDMODE
 70
     0
  9
$PDSIZE
 40
0.0
  9
$PLINEWID
 40
0.0
  9
$SPLFRAME
 70
     0
  9
$SPLINETYPE
 70
     6
  9
$SPLINESEGS
 70
     8
  9
$HANDSEED
  5
172D
  9
$SURFTAB1
 70
     6
  9
$SURFTAB2
 70
     6
  9
$SURFTYPE
 70
     6
  9
$SURFU
 70
     6
  9
$SURFV
 70
     6
  9
$UCSBASE
  2

  9
$UCSNAME
  2

  9
$UCSORG
 10
0.0
 20
0.0
 30
0.0
  9
$UCSXDIR
 10
1.0
 20
0.0
 30
0.0
  9
$UCSYDIR
 10
0.0
 20
1.0
 30
0.0
  9
$UCSORTHOREF
  2

  9
$UCSORTHOVIEW
 70
     0
  9
$UCSORGTOP
 10
0.0
 20
0.0
 30
0.0
  9
$UCSORGBOTTOM
 10
0.0
 20
0.0
 30
0.0
  9
$UCSORGLEFT
 10
0.0
 20
0.0
 30
0.0
  9
$UCSORGRIGHT
 10
0.0
 20
0.0
 30
0.0
  9
$UCSORGFRONT
 10
0.0
 20
0.0
 30
0.0
  9
$UCSORGBACK
 10
0.0
 20
0.0
 30
0.0
  9
$PUCSBASE
  2

  9
$PUCSNAME
  2

  9
$PUCSORG
 10
0.0
 20
0.0
 30
0.0
  9
$PUCSXDIR
 10
1.0
 20
0.0
 30
0.0
  9
$PUCSYDIR
 10
0.0
 20
1.0
 30
0.0
  9
$PUCSORTHOREF
  2

  9
$PUCSORTHOVIEW
 70
     0
  9
$PUCSORGTOP
 10
0.0
 20
0.0
 30
0.0
  9
$PUCSORGBOTTOM
 10
0.0
 20
0.0
 30
0.0
  9
$PUCSORGLEFT
 10
0.0
 20
0.0
 30
0.0
  9
$PUCSORGRIGHT
 10
0.0
 20
0.0
 30
0.0
  9
$PUCSORGFRONT
 10
0.0
 20
0.0
 30
0.0
  9
$PUCSORGBACK
 10
0.0
 20
0.0
 30
0.0
  9
$USERI1
 70
     0
  9
$USERI2
 70
     0
  9
$USERI3
 70
     0
  9
$USERI4
 70
     0
  9
$USERI5
 70
     0
  9
$USERR1
 40
0.0
  9
$USERR2
 40
0.0
  9
$USERR3
 40
0.0
  9
$USERR4
 40
0.0
  9
$USERR5
 40
0.0
  9
$WORLDVIEW
 70
     1
  9
$SHADEDGE
 70
     3
  9
$SHADEDIF
 70
    70
  9
$TILEMODE
 70
     1
  9
$MAXACTVP
 70
    64
  9
$PINSBASE
 10
0.0
 20
0.0
 30
0.0
  9
$PLIMCHECK
 70
     0
  9
$PEXTMIN
 10
0.0
 20
0.0
 30
0.0
  9
$PEXTMAX
 10
0.0
 20
0.0
 30
0.0
  9
$PLIMMIN
 10
0.0
 20
0.0
  9
$PLIMMAX
 10
0.0
 20
0.0
  9
$UNITMODE
 70
     0
  9
$VISRETAIN
 70
     1
  9
$PLINEGEN
 70
     0
  9
$PSLTSCALE
 70
     1
  9
$TREEDEPTH
 70
  3020
  9
$CMLSTYLE
  2
Standard
  9
$CMLJUST
 70
     0
  9
$CMLSCALE
 40
1.0
  9
$PROXYGRAPHICS
 70
     0
  9
$MEASUREMENT
 70
     0
  9
$CELWEIGHT
370
     0
  9
$ENDCAPS
280
     0
  9
$JOINSTYLE
280
     0
  9
$LWDISPLAY
290
     0
  9
$INSUNITS
 70
     0
  9
$HYPERLINKBASE
  1

  9
$STYLESHEET
  1

  9
$XEDIT
290
     1
  9
$CEPSNTYPE
380
     0
  9
$PSTYLEMODE
290
     1
  9
$FINGERPRINTGUID
  2

  9
$VERSIONGUID
  2

  9
$EXTNAMES
290
     1
  9
$PSVPSCALE
 40
0.0
  0
ENDSEC
  0
SECTION
  2
CLASSES
  0
CLASS
  1
LWPOLYLINE
  2
AcDbPolyline
  3
AutoCAD 2000
 90
        0
280
     0
281
     1
  0
CLASS
  1
IMAGE
  2
AcDbRasterImage
  3
ISM
 90
      127
280
     0
281
     1
  0
CLASS
  1
OLE2FRAME
  2
AcDbOle2Frame
  3
AutoCAD 2000
 90
        0
280
     0
281
     1
  0
CLASS
  1
HATCH
  2
AcDbHatch
  3
AutoCAD 2000
 90
        0
280
     0
281
     1
  0
CLASS
  1
DICTIONARYVAR
  2
AcDbDictionaryVar
  3
AutoCAD 2000
 90
        0
280
     0
281
     0
  0
CLASS
  1
RASTERVARIABLES
  2
AcDbRasterVariables
  3
ISM
 90
        0
280
     0
281
     0
  0
CLASS
  1
IMAGEDEF
  2
AcDbRasterImageDef
  3
ISM
 90
        0
280
     0
281
     0
  0
CLASS
  1
IMAGEDEF_REACTOR
  2
AcDbRasterImageDefReactor
  3
ISM
 90
        1
280
     0
281
     0
  0
CLASS
  1
IDBUFFER
  2
AcDbIdBuffer
  3
AutoCAD 2000
 90
        0
280
     0
281
     0
  0
CLASS
  1
SPATIAL_FILTER
  2
AcDbSpatialFilter
  3
AutoCAD 2000
 90
        0
280
     0
281
     0
  0
CLASS
  1
XRECORD
  2
AcDbXrecord
  3
AutoCAD 2000
 90
        0
280
     0
281
     0
  0
CLASS
  1
SORTENTSTABLE
  2
AcDbSortentsTable
  3
AutoCAD 2000
 90
        0
280
     0
281
     0
  0
CLASS
  1
LAYER_INDEX
  2
AcDbLayerIndex
  3
AutoCAD 2000
 90
        0
280
     0
281
     0
  0
CLASS
  1
SPATIAL_INDEX
  2
AcDbSpatialIndex
  3
AutoCAD 2000
 90
        0
280
     0
281
     0
  0
CLASS
  1
OBJECT_PTR
  2
CAseDLPNTableRecord
  3
"ASE-LPNTableRecord"
 90
        1
280
     0
281
     0
  0
CLASS
  1
LAYOUT
  2
AcDbLayout
  3
AutoCAD 2000
 90
        0
280
     0
281
     0
  0
CLASS
  1
PLOTSETTINGS
  2
AcDbPlotSettings
  3
AutoCAD 2000
 90
        0
280
     0
281
     0
  0
CLASS
  1
ACDBDICTIONARYWDFLT
  2
AcDbDictionaryWithDefault
  3
AutoCAD 2000
 90
        0
280
     0
281
     0
  0
CLASS
  1
ACDBPLACEHOLDER
  2
AcDbPlaceHolder
  3
AutoCAD 2000
 90
        0
280
     0
281
     0
  0
CLASS
  1
VBA_PROJECT
  2
AcDbVbaProject
  3
acadvba
 90
        0
280
     0
281
     0
  0
CLASS
  1
WIPEOUT
  2
AcDbWipeout
  3
WipeOut|AutoCAD Express Tool|expresstools@autodesk.com
 90
      127
280
     0
281
     1
  0
CLASS
  1
WIPEOUTVARIABLES
  2
AcDbWipeoutVariables
  3
WipeOut|AutoCAD Express Tool|expresstools@autodesk.com
 90
        0
280
     0
281
     0
  0
CLASS
  1
RTEXT
  2
RText
  3
RText|AutoCAD Express Tool|expresstools@autodesk.com
 90
        0
280
     0
281
     1
  0
CLASS
  1
ARCALIGNEDTEXT
  2
AcDbArcAlignedText
  3
ATEXT|AutoCAD Express Tool|expresstools@autodesk.com
 90
        0
280
     0
281
     1
  0
ENDSEC
  0
SECTION
  2
TABLES
  0
TABLE
  2
VPORT
  5
1094
100
AcDbSymbolTable
 70
     1
  0
VPORT
  5
10BB
100
AcDbSymbolTableRecord
100
AcDbViewportTableRecord
  2
*ACTIVE
 70
     0
 10
0.0
 20
0.0
 11
1.0
 21
1.0
 12
450.328833
 22
266.374849
 13
0.0
 23
0.0
 14
0.5
 24
0.5
 15
0.5
 25
0.5
 16
0.0
 26
0.0
 36
1.0
 17
0.0
 27
0.0
 37
0.0
 40
620.078606
 41
1.701534
 42
50.0
 43
0.0
 44
0.0
 50
0.0
 51
0.0
 71
    16
 72
  1000
 73
     1
 74
     3
 75
     0
 76
     0
 77
     0
 78
     0
281
     0
 65
     0
110
0.0
120
0.0
130
0.0
111
1.0
121
0.0
131
0.0
112
0.0
122
1.0
132
0.0
345
0
346
0
 79
     0
146
0.0
  0
ENDTAB
  0
TABLE
  2
LTYPE
  5
1091
100
AcDbSymbolTable
 70
     6
  0
LTYPE
  5
109A
100
AcDbSymbolTableRecord
100
AcDbLinetypeTableRecord
  2
ByBlock
 70
    64
  3

 72
    65
 73
     0
 40
0.0
  0
LTYPE
  5
109B
100
AcDbSymbolTableRecord
100
AcDbLinetypeTableRecord
  2
ByLayer
 70
    64
  3

 72
    65
 73
     0
 40
0.0
  0
LTYPE
  5
109C
100
AcDbSymbolTableRecord
100
AcDbLinetypeTableRecord
  2
CONTINUOUS
 70
     0
  3
Solid line
 72
    65
 73
     0
 40
0.0
  0
LTYPE
  5
109D
100
AcDbSymbolTableRecord
100
AcDbLinetypeTableRecord
  2
CENTER
 70
     0
  3
____ _ ____ _ ____ _ ____ _ ____ _ ____ _ ____
 72
    65
 73
     4
 40
0.6
 49
0.375
 74
     0
 49
-0.075
 74
     0
 49
0.075
 74
     0
 49
-0.075
 74
     0
  0
LTYPE
  5
109E
100
AcDbSymbolTableRecord
100
AcDbLinetypeTableRecord
  2
ACAD_ISO02W100
 70
     0
  3
ISO Strichlinie __ __ __ __ __ __ __ __ __ __ _
 72
    65
 73
     2
 40
15.0
 49
12.0
 74
     0
 49
-3.0
 74
     0
  0
LTYPE
  5
109F
100
AcDbSymbolTableRecord
100
AcDbLinetypeTableRecord
  2
DASHED
 70
     0
  3
_ _ _ _ _ _ _ _ _ _ _ _ _ _ _ _ _ _ _ _ _ _ _ _
 72
    65
 73
     2
 40
0.375
 49
0.25
 74
     0
 49
-0.125
 74
     0
  0
ENDTAB
  0
TABLE
  2
LAYER
  5
108F
100
AcDbSymbolTable
 70
     9
  0
LAYER
  5
10A0
100
AcDbSymbolTableRecord
100
AcDbLayerTableRecord
  2
0
 70
     0
 62
     7
  6
CONTINUOUS
290
     1
370
    -3
390
0
  0
LAYER
  5
10A1
100
AcDbSymbolTableRecord
100
AcDbLayerTableRecord
  2
90000_FRAME
 70
     0
 62
     7
  6
CONTINUOUS
290
     1
370
    -3
390
0
  0
LAYER
  5
10A2
100
AcDbSymbolTableRecord
100
AcDbLayerTableRecord
  2
91000_TIP
 70
     0
 62
     7
  6
CONTINUOUS
290
     1
370
    -3
390
0
  0
LAYER
  5
10A3
100
AcDbSymbolTableRecord
100
AcDbLayerTableRecord
  2
10000_FRONT
 70
     0
 62
     7
  6
CONTINUOUS
290
     1
370
    -3
390
0
  0
LAYER
  5
10A4
100
AcDbSymbolTableRecord
100
AcDbLayerTableRecord
  2
11000_LEFT
 70
     0
 62
     7
  6
CONTINUOUS
290
     1
370
    -3
390
0
  0
LAYER
  5
10A7
100
AcDbSymbolTableRecord
100
AcDbLayerTableRecord
  2
DEFPOINTS
 70
     0
 62
     7
  6
CONTINUOUS
290
     0
370
    -3
390
0
  0
LAYER
  5
10A8
100
AcDbSymbolTableRecord
100
AcDbLayerTableRecord
  2
10100_FRONT_DIM
 70
     0
 62
     7
  6
CONTINUOUS
290
     1
370
    -3
390
0
  0
LAYER
  5
10A9
100
AcDbSymbolTableRecord
100
AcDbLayerTableRecord
  2
11100_LEFT_DIM
 70
     0
 62
     7
  6
CONTINUOUS
290
     1
370
    -3
390
0
  0
LAYER
  5
10B1
100
AcDbSymbolTableRecord
100
AcDbLayerTableRecord
  2
15000_BACK
 70
     0
 62
     7
  6
CONTINUOUS
290
     1
370
    -3
390
0
  0
ENDTAB
  0
TABLE
  2
STYLE
  5
1090
100
AcDbSymbolTable
 70
     1
  0
STYLE
  5
10C0
100
AcDbSymbolTableRecord
100
AcDbTextStyleTableRecord
  2
STANDARD
 70
     0
 40
0.0
 41
1.0
 50
0.0
 71
     0
 42
0.2
  3
txt.shx
  4

  0
ENDTAB
  0
TABLE
  2
VIEW
  5
1092
100
AcDbSymbolTable
 70
     0
  0
ENDTAB
  0
TABLE
  2
UCS
  5
1093
100
AcDbSymbolTable
 70
     0
  0
ENDTAB
  0
TABLE
  2
APPID
  5
1095
100
AcDbSymbolTable
 70
     4
  0
APPID
  5
10BC
100
AcDbSymbolTableRecord
100
AcDbRegAppTableRecord
  2
ACAD
 70
     0
  0
APPID
  5
10BD
100
AcDbSymbolTableRecord
100
AcDbRegAppTableRecord
  2
AUSTER_ANSICHT
 70
     0
  0
APPID
  5
10BE
100
AcDbSymbolTableRecord
100
AcDbRegAppTableRecord
  2
AUSTER_FOLIE
 70
     0
  0
APPID
  5
10BF
100
AcDbSymbolTableRecord
100
AcDbRegAppTableRecord
  2
ACAECLAYERSTANDARD
 70
     0
  0
ENDTAB
  0
TABLE
  2
DIMSTYLE
  5
1096
100
AcDbSymbolTable
 70
     3
100
AcDbDimStyleTable
 71
     0
  0
DIMSTYLE
105
10CA
100
AcDbSymbolTableRecord
100
AcDbDimStyleTableRecord
  2
STANDARD
 70
     0
  3

  4

 40
1.0
 41
0.18
 42
0.0625
 43
0.38
 44
0.18
 45
0.0
 46
0.0
 47
0.0
 48
0.0
 71
     0
 72
     0
 73
     1
 74
     1
 75
     0
 76
     0
 77
     0
 78
     0
 79
     0
140
0.18
141
0.09
142
0.0
143
25.4
144
1.0
145
0.0
146
1.0
147
0.09
148
0.0
170
     0
171
     2
172
     0
173
     0
174
     0
175
     0
176
     0
177
     0
178
     0
179
     0
271
     4
272
     4
273
     2
274
     2
275
     0
276
     0
277
     2
278
    46
279
     0
280
     0
281
     0
282
     0
283
     1
284
     0
285
     0
286
     0
288
     0
289
     3
340
10C0
341
0
342
0
343
0
344
0
371
    -2
372
    -2
  0
DIMSTYLE
105
10CB
100
AcDbSymbolTableRecord
100
AcDbDimStyleTableRecord
  2
DSTYLE1
 70
     0
  3

  4

 40
1.0
 41
3.0
 42
0.0
 43
0.38
 44
1.0
 45
0.0
 46
0.0
 47
0.0
 48
0.0
 71
     0
 72
     0
 73
     0
 74
     0
 75
     0
 76
     0
 77
     1
 78
     3
 79
     0
140
2.5
141
0.09
142
0.0
143
0.03937
144
1.0
145
0.0
146
1.0
147
1.0
148
0.0
170
     0
171
     2
172
     0
173
     0
174
     0
175
     0
176
     0
177
     0
178
     0
179
     0
271
     4
272
     4
273
     2
274
     2
275
     0
276
     0
277
     2
278
    46
279
     0
280
     0
281
     0
282
     0
283
     1
284
     0
285
     0
286
     0
288
     0
289
     3
340
10C0
341
0
342
0
343
0
344
0
371
    -2
372
    -2
  0
DIMSTYLE
105
10CC
100
AcDbSymbolTableRecord
100
AcDbDimStyleTableRecord
  2
H035
 70
     0
  3

  4

 40
0.0
 41
3.5
 42
0.0
 43
3.75
 44
2.0
 45
0.0
 46
0.0
 47
0.0
 48
0.0
 71
     0
 72
     0
 73
     0
 74
     0
 75
     0
 76
     0
 77
     1
 78
     8
 79
     0
140
3.5
141
2.5
142
0.0
143
0.039
144
1.0
145
0.0
146
1.0
147
0.5
148
0.0
170
     0
171
     4
172
     1
173
     0
174
     0
175
     0
176
   256
177
     7
178
     7
179
     0
271
     4
272
     4
273
     2
274
     2
275
     0
276
     0
277
     2
278
    46
279
     0
280
     0
281
     0
282
     0
283
     1
284
     0
285
     0
286
     0
288
     0
289
     3
340
10C0
341
0
342
0
343
0
344
0
371
    -2
372
    -2
  0
ENDTAB
  0
TABLE
  2
BLOCK_RECORD
  5
10C5
100
AcDbSymbolTable
 70
     2
  0
BLOCK_RECORD
  5
10C3
100
AcDbSymbolTableRecord
100
AcDbBlockTableRecord
  2
*Model_Space
340
0
  0
BLOCK_RECORD
  5
10C4
100
AcDbSymbolTableRecord
100
AcDbBlockTableRecord
  2
*Paper_Space
340
0
  0
BLOCK_RECORD
  5
10C1
100
AcDbSymbolTableRecord
100
AcDbBlockTableRecord
  2
$MODEL_SPACE
340
0
  0
BLOCK_RECORD
  5
10C2
100
AcDbSymbolTableRecord
100
AcDbBlockTableRecord
  2
$PAPER_SPACE
340
0
  0
ENDTAB
  0
ENDSEC
  0
SECTION
  2
BLOCKS
  0
BLOCK
  5
10C6
100
AcDbEntity
  8
0
390
0
100
AcDbBlockBegin
  2
*Model_Space
 70
     0
 10
0.0
 20
0.0
 30
0.0
  3
*Model_Space
  1

  0
ENDBLK
  5
10C7
100
AcDbEntity
  8
0
390
0
100
AcDbBlockEnd
  0
BLOCK
  5
10C8
100
AcDbEntity
 67
     1
  8
0
390
0
100
AcDbBlockBegin
  2
*Paper_Space
 70
     0
 10
0.0
 20
0.0
 30
0.0
  3
*Paper_Space
  1

  0
ENDBLK
  5
10C9
100
AcDbEntity
 67
     1
  8
0
390
0
100
AcDbBlockEnd
  0
BLOCK
  5
10CD
100
AcDbEntity
  8
0
100
AcDbBlockBegin
  2
$MODEL_SPACE
 70
     0
 10
0.0
 20
0.0
 30
0.0
  3
$MODEL_SPACE
  1

  0
ENDBLK
  5
21
100
AcDbEntity
  8
0
100
AcDbBlockEnd
  0
BLOCK
  5
10CE
100
AcDbEntity
  8
0
100
AcDbBlockBegin
  2
$PAPER_SPACE
 70
     0
 10
0.0
 20
0.0
 30
0.0
  3
$PAPER_SPACE
  1

  0
ENDBLK
  5
76
100
AcDbEntity
  8
0
100
AcDbBlockEnd
  0
ENDSEC
  0
SECTION
  2
ENTITIES
  0
LINE
  5
10D4
100
AcDbEntity
  8
10000_FRONT
370
    25
390
0
  6
CONTINUOUS
 62
     7
100
AcDbLine
 10
86.556403
 20
90.32321
 30
0.0
 11
86.330775
 21
90.80707
 31
0.0
  0
LINE
  5
10D5
100
AcDbEntity
  8
10000_FRONT
370
    25
390
0
  6
CONTINUOUS
 62
     7
100
AcDbLine
 10
81.381597
 20
90.292788
 30
0.0
 11
80.390636
 21
91.903411
 31
0.0
  0
LINE
  5
10D6
100
AcDbEntity
  8
10000_FRONT
370
    25
390
0
  6
CONTINUOUS
 62
     7
100
AcDbLine
 10
89.000004
 20
89.899995
 30
0.0
 11
89.600004
 21
89.899995
 31
0.0
  0
LINE
  5
10D7
100
AcDbEntity
  8
10000_FRONT
370
    25
390
0
  6
CONTINUOUS
 62
     7
100
AcDbLine
 10
81.400004
 20
89.899995
 30
0.0
 11
82.000004
 21
89.899995
 31
0.0
  0
LINE
  5
10D8
100
AcDbEntity
  8
10000_FRONT
370
    25
390
0
  6
CONTINUOUS
 62
     7
100
AcDbLine
 10
82.000004
 20
90.038324
 30
0.0
 11
89.000004
 21
90.038324
 31
0.0
  0
LINE
  5
10D9
100
AcDbEntity
  8
10000_FRONT
370
    25
390
0
  6
CONTINUOUS
 62
     7
100
AcDbLine
 10
81.637108
 20
90.149995
 30
0.0
 11
84.171712
 21
90.149995
 31
0.0
  0
LINE
  5
10DA
100
AcDbEntity
  8
10000_FRONT
370
    25
390
0
  6
CONTINUOUS
 62
     7
100
AcDbLine
 10
86.828296
 20
90.149995
 30
0.0
 11
89.3629
 21
90.149995
 31
0.0
  0
LINE
  5
10DB
100
AcDbEntity
  8
10000_FRONT
370
    25
390
0
  6
CONTINUOUS
 62
     7
100
AcDbLine
 10
89.528727
 20
90.199995
 30
0.0
 11
100.500004
 21
90.199995
 31
0.0
  0
LINE
  5
10DC
100
AcDbEntity
  8
10000_FRONT
370
    25
390
0
  6
CONTINUOUS
 62
     7
100
AcDbLine
 10
84.337543
 20
90.199995
 30
0.0
 11
86.662467
 21
90.199995
 31
0.0
  0
LINE
  5
10DD
100
AcDbEntity
  8
10000_FRONT
370
    25
390
0
  6
CONTINUOUS
 62
     7
100
AcDbLine
 10
80.000004
 20
90.199995
 30
0.0
 11
81.471279
 21
90.199995
 31
0.0
  0
LINE
  5
10DE
100
AcDbEntity
  8
10000_FRONT
370
    25
390
0
  6
CONTINUOUS
 62
     7
100
AcDbLine
 10
84.337539
 20
90.199995
 30
0.0
 11
86.662486
 21
90.199995
 31
0.0
  0
LINE
  5
10DF
100
AcDbEntity
  8
10000_FRONT
370
    25
390
0
  6
CONTINUOUS
 62
     7
100
AcDbLine
 10
71.750004
 20
90.199995
 30
0.0
 11
81.471298
 21
90.199995
 31
0.0
  0
LINE
  5
10E0
100
AcDbEntity
  8
10000_FRONT
370
    25
390
0
  6
CONTINUOUS
 62
     7
100
AcDbLine
 10
70.500004
 20
90.199995
 30
0.0
 11
71.750004
 21
90.199995
 31
0.0
  0
LINE
  5
10E1
100
AcDbEntity
  8
10000_FRONT
370
    25
390
0
  6
CONTINUOUS
 62
     7
100
AcDbLine
 10
71.850004
 20
90.199995
 30
0.0
 11
80.000004
 21
90.199995
 31
0.0
  0
LINE
  5
10E2
100
AcDbEntity
  8
10000_FRONT
370
    25
390
0
  6
CONTINUOUS
 62
     7
100
AcDbLine
 10
84.941125
 20
90.980285
 30
0.0
 11
86.058883
 21
90.980285
 31
0.0
  0
LINE
  5
10E3
100
AcDbEntity
  8
10000_FRONT
370
    25
390
0
  6
CONTINUOUS
 62
     7
100
AcDbLine
 10
98.600004
 20
93.249995
 30
0.0
 11
99.150004
 21
93.249995
 31
0.0
  0
LINE
  5
10E4
100
AcDbEntity
  8
10000_FRONT
370
    25
390
0
  6
CONTINUOUS
 62
     7
100
AcDbLine
 10
71.850004
 20
93.249995
 30
0.0
 11
72.400004
 21
93.249995
 31
0.0
  0
LINE
  5
10E5
100
AcDbEntity
  8
10000_FRONT
370
    25
390
0
  6
CONTINUOUS
 62
     7
100
AcDbLine
 10
71.750004
 20
94.521447
 30
0.0
 11
72.100004
 21
94.521447
 31
0.0
  0
LINE
  5
10E6
100
AcDbEntity
  8
10000_FRONT
370
    25
390
0
  6
CONTINUOUS
 62
     7
100
AcDbLine
 10
98.900004
 20
94.521447
 30
0.0
 11
99.250004
 21
94.521447
 31
0.0
  0
LINE
  5
10E7
100
AcDbEntity
  8
10000_FRONT
370
    25
390
0
  6
CONTINUOUS
 62
     7
100
AcDbLine
 10
98.600004
 20
94.649995
 30
0.0
 11
99.250004
 21
94.649995
 31
0.0
  0
LINE
  5
10E8
100
AcDbEntity
  8
10000_FRONT
370
    25
390
0
  6
CONTINUOUS
 62
     7
100
AcDbLine
 10
71.750004
 20
94.649995
 30
0.0
 11
71.850004
 21
94.649995
 31
0.0
  0
LINE
  5
10E9
100
AcDbEntity
  8
10000_FRONT
370
    25
390
0
  6
CONTINUOUS
 62
     7
100
AcDbLine
 10
71.850004
 20
94.649995
 30
0.0
 11
72.400004
 21
94.649995
 31
0.0
  0
LINE
  5
10EA
100
AcDbEntity
  8
10000_FRONT
370
    25
390
0
  6
CONTINUOUS
 62
     7
100
AcDbLine
 10
96.680344
 20
95.899995
 30
0.0
 11
99.150004
 21
95.899995
 31
0.0
  0
LINE
  5
10EB
100
AcDbEntity
  8
10000_FRONT
370
    25
390
0
  6
CONTINUOUS
 62
     7
100
AcDbLine
 10
71.850004
 20
95.899995
 30
0.0
 11
74.319664
 21
95.899995
 31
0.0
  0
LINE
  5
10EC
100
AcDbEntity
  8
10000_FRONT
370
    25
390
0
  6
CONTINUOUS
 62
     7
100
AcDbLine
 10
99.150004
 20
98.649995
 30
0.0
 11
99.250004
 21
98.649995
 31
0.0
  0
LINE
  5
10ED
100
AcDbEntity
  8
10000_FRONT
370
    25
390
0
  6
CONTINUOUS
 62
     7
100
AcDbLine
 10
71.750004
 20
98.649995
 30
0.0
 11
71.850004
 21
98.649995
 31
0.0
  0
LINE
  5
10EE
100
AcDbEntity
  8
10000_FRONT
370
    25
390
0
  6
CONTINUOUS
 62
     7
100
AcDbLine
 10
99.972631
 20
120.422644
 30
0.0
 11
100.500004
 21
120.422644
 31
0.0
  0
LINE
  5
10EF
100
AcDbEntity
  8
10000_FRONT
370
    25
390
0
  6
CONTINUOUS
 62
     7
100
AcDbLine
 10
70.500004
 20
120.422644
 30
0.0
 11
71.027381
 21
120.422644
 31
0.0
  0
LINE
  5
10F0
100
AcDbEntity
  8
10000_FRONT
370
    25
390
0
  6
CONTINUOUS
 62
     7
100
AcDbLine
 10
99.67084
 20
120.999994
 30
0.0
 11
100.500004
 21
120.999994
 31
0.0
  0
LINE
  5
10F1
100
AcDbEntity
  8
10000_FRONT
370
    25
390
0
  6
CONTINUOUS
 62
     7
100
AcDbLine
 10
70.500004
 20
120.999994
 30
0.0
 11
71.329173
 21
120.999994
 31
0.0
  0
LINE
  5
10F2
100
AcDbEntity
  8
10000_FRONT
370
    25
390
0
  6
CONTINUOUS
 62
     7
100
AcDbLine
 10
99.54247
 20
121.199995
 30
0.0
 11
100.500004
 21
121.199995
 31
0.0
  0
LINE
  5
10F3
100
AcDbEntity
  8
10000_FRONT
370
    25
390
0
  6
CONTINUOUS
 62
     7
100
AcDbLine
 10
70.500004
 20
121.199995
 30
0.0
 11
71.457542
 21
121.199995
 31
0.0
  0
LINE
  5
10F4
100
AcDbEntity
  8
10000_FRONT
370
    25
390
0
  6
CONTINUOUS
 62
     7
100
AcDbLine
 10
94.500004
 20
122.699994
 30
0.0
 11
95.400004
 21
122.699994
 31
0.0
  0
LINE
  5
10F5
100
AcDbEntity
  8
10000_FRONT
370
    25
390
0
  6
CONTINUOUS
 62
     7
100
AcDbLine
 10
75.600004
 20
122.699994
 30
0.0
 11
76.500004
 21
122.699994
 31
0.0
  0
LINE
  5
10F6
100
AcDbEntity
  8
10000_FRONT
370
    25
390
0
  6
CONTINUOUS
 62
     7
100
AcDbLine
 10
93.200004
 20
123.399995
 30
0.0
 11
95.400004
 21
123.399995
 31
0.0
  0
LINE
  5
10F7
100
AcDbEntity
  8
10000_FRONT
370
    25
390
0
  6
CONTINUOUS
 62
     7
100
AcDbLine
 10
76.500004
 20
123.399995
 30
0.0
 11
77.800004
 21
123.399995
 31
0.0
  0
LINE
  5
10F8
100
AcDbEntity
  8
10000_FRONT
370
    25
390
0
  6
CONTINUOUS
 62
     7
100
AcDbLine
 10
75.600004
 20
123.399995
 30
0.0
 11
76.500004
 21
123.399995
 31
0.0
  0
LINE
  5
10F9
100
AcDbEntity
  8
10000_FRONT
370
    25
390
0
  6
CONTINUOUS
 62
     7
100
AcDbLine
 10
70.500004
 20
123.599996
 30
0.0
 11
80.530346
 21
123.599996
 31
0.0
  0
LINE
  5
10FA
100
AcDbEntity
  8
10000_FRONT
370
    25
390
0
  6
CONTINUOUS
 62
     7
100
AcDbLine
 10
90.469662
 20
123.599996
 30
0.0
 11
100.500004
 21
123.599996
 31
0.0
  0
LINE
  5
10FB
100
AcDbEntity
  8
10000_FRONT
370
    25
390
0
  6
CONTINUOUS
 62
     7
100
AcDbLine
 10
70.500004
 20
130.099996
 30
0.0
 11
100.500004
 21
130.099996
 31
0.0
  0
LINE
  5
10FC
100
AcDbEntity
  8
10000_FRONT
370
    25
390
0
  6
CONTINUOUS
 62
     7
100
AcDbLine
 10
89.618411
 20
90.292788
 30
0.0
 11
90.609372
 21
91.903411
 31
0.0
  0
LINE
  5
10FD
100
AcDbEntity
  8
10000_FRONT
370
    25
390
0
  6
CONTINUOUS
 62
     7
100
AcDbLine
 10
84.443605
 20
90.32321
 30
0.0
 11
84.669233
 21
90.80707
 31
0.0
  0
LINE
  5
10FE
100
AcDbEntity
  8
10000_FRONT
370
    25
390
0
  6
CONTINUOUS
 62
     7
100
AcDbLine
 10
70.500004
 20
90.199995
 30
0.0
 11
70.500004
 21
130.099996
 31
0.0
  0
LINE
  5
10FF
100
AcDbEntity
  8
10000_FRONT
370
    25
390
0
  6
CONTINUOUS
 62
     7
100
AcDbLine
 10
70.600004
 20
105.899995
 30
0.0
 11
70.600004
 21
118.399995
 31
0.0
  0
LINE
  5
1100
100
AcDbEntity
  8
10000_FRONT
370
    25
390
0
  6
CONTINUOUS
 62
     7
100
AcDbLine
 10
71.300004
 20
109.89027
 30
0.0
 11
71.300004
 21
118.399995
 31
0.0
  0
LINE
  5
1101
100
AcDbEntity
  8
10000_FRONT
370
    25
390
0
  6
CONTINUOUS
 62
     7
100
AcDbLine
 10
71.750004
 20
90.199995
 30
0.0
 11
71.750004
 21
100.16001
 31
0.0
  0
LINE
  5
1102
100
AcDbEntity
  8
10000_FRONT
370
    25
390
0
  6
CONTINUOUS
 62
     7
100
AcDbLine
 10
71.850004
 20
94.649995
 30
0.0
 11
71.850004
 21
99.9261
 31
0.0
  0
LINE
  5
1103
100
AcDbEntity
  8
10000_FRONT
370
    25
390
0
  6
CONTINUOUS
 62
     7
100
AcDbLine
 10
71.850004
 20
90.199995
 30
0.0
 11
71.850004
 21
93.249995
 31
0.0
  0
LINE
  5
1104
100
AcDbEntity
  8
10000_FRONT
370
    25
390
0
  6
CONTINUOUS
 62
     7
100
AcDbLine
 10
72.100004
 20
94.521447
 30
0.0
 11
72.100004
 21
94.650005
 31
0.0
  0
LINE
  5
1105
100
AcDbEntity
  8
10000_FRONT
370
    25
390
0
  6
CONTINUOUS
 62
     7
100
AcDbLine
 10
72.400004
 20
93.249995
 30
0.0
 11
72.400004
 21
94.649995
 31
0.0
  0
LINE
  5
1106
100
AcDbEntity
  8
10000_FRONT
370
    25
390
0
  6
CONTINUOUS
 62
     7
100
AcDbLine
 10
76.500004
 20
122.699994
 30
0.0
 11
76.500004
 21
123.399995
 31
0.0
  0
LINE
  5
1107
100
AcDbEntity
  8
10000_FRONT
370
    25
390
0
  6
CONTINUOUS
 62
     7
100
AcDbLine
 10
80.000004
 20
90.199995
 30
0.0
 11
80.000004
 21
91.944709
 31
0.0
  0
LINE
  5
1108
100
AcDbEntity
  8
10000_FRONT
370
    25
390
0
  6
CONTINUOUS
 62
     7
100
AcDbLine
 10
80.250004
 20
91.955551
 30
0.0
 11
80.250004
 21
92.115951
 31
0.0
  0
LINE
  5
1109
100
AcDbEntity
  8
10000_FRONT
370
    25
390
0
  6
CONTINUOUS
 62
     7
100
AcDbLine
 10
80.800004
 20
123.399995
 30
0.0
 11
80.800004
 21
124.149995
 31
0.0
  0
LINE
  5
110A
100
AcDbEntity
  8
10000_FRONT
370
    25
390
0
  6
CONTINUOUS
 62
     7
100
AcDbLine
 10
81.400004
 20
89.899995
 30
0.0
 11
81.400004
 21
90.200009
 31
0.0
  0
LINE
  5
110B
100
AcDbEntity
  8
10000_FRONT
370
    25
390
0
  6
CONTINUOUS
 62
     7
100
AcDbLine
 10
82.000004
 20
89.899995
 30
0.0
 11
82.000004
 21
90.038324
 31
0.0
  0
LINE
  5
110C
100
AcDbEntity
  8
10000_FRONT
370
    25
390
0
  6
CONTINUOUS
 62
     7
100
AcDbLine
 10
89.000004
 20
89.899995
 30
0.0
 11
89.000004
 21
90.038324
 31
0.0
  0
LINE
  5
110D
100
AcDbEntity
  8
10000_FRONT
370
    25
390
0
  6
CONTINUOUS
 62
     7
100
AcDbLine
 10
89.600004
 20
89.899995
 30
0.0
 11
89.600004
 21
90.200016
 31
0.0
  0
LINE
  5
110E
100
AcDbEntity
  8
10000_FRONT
370
    25
390
0
  6
CONTINUOUS
 62
     7
100
AcDbLine
 10
90.200004
 20
123.399995
 30
0.0
 11
90.200004
 21
124.149995
 31
0.0
  0
LINE
  5
110F
100
AcDbEntity
  8
10000_FRONT
370
    25
390
0
  6
CONTINUOUS
 62
     7
100
AcDbLine
 10
90.750004
 20
91.955551
 30
0.0
 11
90.750004
 21
92.115942
 31
0.0
  0
LINE
  5
1110
100
AcDbEntity
  8
10000_FRONT
370
    25
390
0
  6
CONTINUOUS
 62
     7
100
AcDbLine
 10
91.000004
 20
90.199995
 30
0.0
 11
91.000004
 21
91.944709
 31
0.0
  0
LINE
  5
1111
100
AcDbEntity
  8
10000_FRONT
370
    25
390
0
  6
CONTINUOUS
 62
     7
100
AcDbLine
 10
94.500004
 20
122.699994
 30
0.0
 11
94.500004
 21
123.399995
 31
0.0
  0
LINE
  5
1112
100
AcDbEntity
  8
10000_FRONT
370
    25
390
0
  6
CONTINUOUS
 62
     7
100
AcDbLine
 10
98.600004
 20
93.249995
 30
0.0
 11
98.600004
 21
94.649995
 31
0.0
  0
LINE
  5
1113
100
AcDbEntity
  8
10000_FRONT
370
    25
390
0
  6
CONTINUOUS
 62
     7
100
AcDbLine
 10
98.900004
 20
94.521447
 30
0.0
 11
98.900004
 21
94.650005
 31
0.0
  0
LINE
  5
1114
100
AcDbEntity
  8
10000_FRONT
370
    25
390
0
  6
CONTINUOUS
 62
     7
100
AcDbLine
 10
99.150004
 20
94.649995
 30
0.0
 11
99.150004
 21
99.926091
 31
0.0
  0
LINE
  5
1115
100
AcDbEntity
  8
10000_FRONT
370
    25
390
0
  6
CONTINUOUS
 62
     7
100
AcDbLine
 10
99.150004
 20
90.199995
 30
0.0
 11
99.150004
 21
93.249995
 31
0.0
  0
LINE
  5
1116
100
AcDbEntity
  8
10000_FRONT
370
    25
390
0
  6
CONTINUOUS
 62
     7
100
AcDbLine
 10
99.250004
 20
90.199995
 30
0.0
 11
99.250004
 21
100.160001
 31
0.0
  0
LINE
  5
1117
100
AcDbEntity
  8
10000_FRONT
370
    25
390
0
  6
CONTINUOUS
 62
     7
100
AcDbLine
 10
99.700004
 20
109.890334
 30
0.0
 11
99.700004
 21
118.399995
 31
0.0
  0
LINE
  5
1118
100
AcDbEntity
  8
10000_FRONT
370
    25
390
0
  6
CONTINUOUS
 62
     7
100
AcDbLine
 10
100.400004
 20
105.899995
 30
0.0
 11
100.400004
 21
118.399995
 31
0.0
  0
LINE
  5
1119
100
AcDbEntity
  8
10000_FRONT
370
    25
390
0
  6
CONTINUOUS
 62
     7
100
AcDbLine
 10
100.500004
 20
90.199995
 30
0.0
 11
100.500004
 21
130.099996
 31
0.0
  0
ARC
  5
111A
100
AcDbEntity
  8
10000_FRONT
370
    25
390
0
  6
CONTINUOUS
 62
     7
100
AcDbCircle
 10
75.600004
 20
118.399995
 30
0.0
 40
4.3
100
AcDbArc
 50
89.999995
 51
180.0
  0
ARC
  5
111B
100
AcDbEntity
  8
10000_FRONT
370
    25
390
0
  6
CONTINUOUS
 62
     7
100
AcDbCircle
 10
75.600004
 20
118.399995
 30
0.0
 40
5.0
100
AcDbArc
 50
89.999995
 51
180.0
  0
CIRCLE
  5
111C
100
AcDbEntity
  8
10000_FRONT
370
    25
390
0
  6
CONTINUOUS
 62
     7
100
AcDbCircle
 10
77.500004
 20
127.299995
 30
0.0
 40
1.5
  0
ARC
  5
111D
100
AcDbEntity
  8
10000_FRONT
370
    25
390
0
  6
CONTINUOUS
 62
     7
100
AcDbCircle
 10
79.300004
 20
123.399995
 30
0.0
 40
1.5
100
AcDbArc
 50
180.0
 51
0.0
  0
ARC
  5
111E
100
AcDbEntity
  8
10000_FRONT
370
    25
390
0
  6
CONTINUOUS
 62
     7
100
AcDbCircle
 10
81.637108
 20
90.449995
 30
0.0
 40
0.3
100
AcDbArc
 50
211.602591
 51
270.00002
  0
ARC
  5
111F
100
AcDbEntity
  8
10000_FRONT
370
    25
390
0
  6
CONTINUOUS
 62
     7
100
AcDbCircle
 10
84.171712
 20
90.449995
 30
0.0
 40
0.3
100
AcDbArc
 50
269.999995
 51
335.000067
  0
ARC
  5
1120
100
AcDbEntity
  8
10000_FRONT
370
    25
390
0
  6
CONTINUOUS
 62
     7
100
AcDbCircle
 10
84.941125
 20
90.680285
 30
0.0
 40
0.3
100
AcDbArc
 50
89.999991
 51
155.000034
  0
CIRCLE
  5
1121
100
AcDbEntity
  8
10000_FRONT
370
    25
390
0
  6
CONTINUOUS
 62
     7
100
AcDbCircle
 10
85.500004
 20
105.899995
 30
0.0
 40
11.502307
  0
CIRCLE
  5
1122
100
AcDbEntity
  8
10000_FRONT
370
    25
390
0
  6
CONTINUOUS
 62
     7
100
AcDbCircle
 10
85.500004
 20
105.899995
 30
0.0
 40
12.800851
  0
CIRCLE
  5
1123
100
AcDbEntity
  8
10000_FRONT
370
    25
390
0
  6
CONTINUOUS
 62
     7
100
AcDbCircle
 10
85.500004
 20
105.899995
 30
0.0
 40
14.75
  0
ARC
  5
1124
100
AcDbEntity
  8
10000_FRONT
370
    25
390
0
  6
CONTINUOUS
 62
     7
100
AcDbCircle
 10
85.500004
 20
105.899995
 30
0.0
 40
14.9
100
AcDbArc
 50
180.0
 51
249.945697
  0
ARC
  5
1125
100
AcDbEntity
  8
10000_FRONT
370
    25
390
0
  6
CONTINUOUS
 62
     7
100
AcDbCircle
 10
85.500004
 20
105.899995
 30
0.0
 40
14.9
100
AcDbArc
 50
290.054303
 51
290.631057
  0
ARC
  5
1126
100
AcDbEntity
  8
10000_FRONT
370
    25
390
0
  6
CONTINUOUS
 62
     7
100
AcDbCircle
 10
85.500004
 20
105.899995
 30
0.0
 40
14.9
100
AcDbArc
 50
290.631057
 51
0.0
  0
ARC
  5
1127
100
AcDbEntity
  8
10000_FRONT
370
    25
390
0
  6
CONTINUOUS
 62
     7
100
AcDbCircle
 10
85.500004
 20
105.899995
 30
0.0
 40
15.0
100
AcDbArc
 50
291.510188
 51
318.189685
  0
ARC
  5
1128
100
AcDbEntity
  8
10000_FRONT
370
    25
390
0
  6
CONTINUOUS
 62
     7
100
AcDbCircle
 10
85.500004
 20
105.899995
 30
0.0
 40
15.0
100
AcDbArc
 50
221.810315
 51
248.489812
  0
ARC
  5
1129
100
AcDbEntity
  8
10000_FRONT
370
    25
390
0
  6
CONTINUOUS
 62
     7
100
AcDbCircle
 10
85.500004
 20
124.049995
 30
0.0
 40
4.0
100
AcDbArc
 50
298.287866
 51
0.716227
  0
ARC
  5
112A
100
AcDbEntity
  8
10000_FRONT
370
    25
390
0
  6
CONTINUOUS
 62
     7
100
AcDbCircle
 10
85.500004
 20
124.049995
 30
0.0
 40
4.0
100
AcDbArc
 50
179.283773
 51
180.0
  0
ARC
  5
112B
100
AcDbEntity
  8
10000_FRONT
370
    25
390
0
  6
CONTINUOUS
 62
     7
100
AcDbCircle
 10
85.500004
 20
124.049995
 30
0.0
 40
4.0
100
AcDbArc
 50
180.0
 51
241.711984
  0
CIRCLE
  5
112C
100
AcDbEntity
  8
10000_FRONT
370
    25
390
0
  6
CONTINUOUS
 62
     7
100
AcDbCircle
 10
85.500004
 20
124.149995
 30
0.0
 40
0.096593
  0
CIRCLE
  5
112D
100
AcDbEntity
  8
10000_FRONT
370
    25
390
0
  6
CONTINUOUS
 62
     7
100
AcDbCircle
 10
85.500004
 20
124.149995
 30
0.0
 40
0.291092
  0
CIRCLE
  5
112E
100
AcDbEntity
  8
10000_FRONT
370
    25
390
0
  6
CONTINUOUS
 62
     7
100
AcDbCircle
 10
85.500004
 20
124.149995
 30
0.0
 40
0.75
  0
CIRCLE
  5
112F
100
AcDbEntity
  8
10000_FRONT
370
    25
390
0
  6
CONTINUOUS
 62
     7
100
AcDbCircle
 10
85.500004
 20
124.149995
 30
0.0
 40
0.847474
  0
CIRCLE
  5
1130
100
AcDbEntity
  8
10000_FRONT
370
    25
390
0
  6
CONTINUOUS
 62
     7
100
AcDbCircle
 10
85.500004
 20
124.149995
 30
0.0
 40
1.353553
  0
CIRCLE
  5
1131
100
AcDbEntity
  8
10000_FRONT
370
    25
390
0
  6
CONTINUOUS
 62
     7
100
AcDbCircle
 10
85.500004
 20
124.149995
 30
0.0
 40
1.5
  0
CIRCLE
  5
1132
100
AcDbEntity
  8
10000_FRONT
370
    25
390
0
  6
CONTINUOUS
 62
     7
100
AcDbCircle
 10
85.500004
 20
124.149995
 30
0.0
 40
2.0
  0
ARC
  5
1133
100
AcDbEntity
  8
10000_FRONT
370
    25
390
0
  6
CONTINUOUS
 62
     7
100
AcDbCircle
 10
85.500004
 20
124.149995
 30
0.0
 40
3.8
100
AcDbArc
 50
290.472376
 51
249.527479
  0
ARC
  5
1134
100
AcDbEntity
  8
10000_FRONT
370
    25
390
0
  6
CONTINUOUS
 62
     7
100
AcDbCircle
 10
85.500004
 20
124.149995
 30
0.0
 40
4.0
100
AcDbArc
 50
295.751865
 51
244.247991
  0
ARC
  5
1135
100
AcDbEntity
  8
10000_FRONT
370
    25
390
0
  6
CONTINUOUS
 62
     7
100
AcDbCircle
 10
85.500004
 20
124.149995
 30
0.0
 40
4.7
100
AcDbArc
 50
0.0
 51
180.0
  0
ARC
  5
1136
100
AcDbEntity
  8
10000_FRONT
370
    25
390
0
  6
CONTINUOUS
 62
     7
100
AcDbCircle
 10
85.500004
 20
124.149995
 30
0.0
 40
5.0
100
AcDbArc
 50
353.684693
 51
186.315307
  0
ARC
  5
1137
100
AcDbEntity
  8
10000_FRONT
370
    25
390
0
  6
CONTINUOUS
 62
     7
100
AcDbCircle
 10
86.058883
 20
90.680285
 30
0.0
 40
0.3
100
AcDbArc
 50
24.999975
 51
90.0
  0
ARC
  5
1138
100
AcDbEntity
  8
10000_FRONT
370
    25
390
0
  6
CONTINUOUS
 62
     7
100
AcDbCircle
 10
86.828295
 20
90.449995
 30
0.0
 40
0.299999
100
AcDbArc
 50
204.999924
 51
270.000014
  0
ARC
  5
1139
100
AcDbEntity
  8
10000_FRONT
370
    25
390
0
  6
CONTINUOUS
 62
     7
100
AcDbCircle
 10
89.3629
 20
90.449995
 30
0.0
 40
0.3
100
AcDbArc
 50
269.999976
 51
328.397412
  0
ARC
  5
113A
100
AcDbEntity
  8
10000_FRONT
370
    25
390
0
  6
CONTINUOUS
 62
     7
100
AcDbCircle
 10
91.700004
 20
123.399995
 30
0.0
 40
1.5
100
AcDbArc
 50
180.0
 51
0.0
  0
CIRCLE
  5
113B
100
AcDbEntity
  8
10000_FRONT
370
    25
390
0
  6
CONTINUOUS
 62
     7
100
AcDbCircle
 10
93.500004
 20
127.299995
 30
0.0
 40
1.5
  0
ARC
  5
113C
100
AcDbEntity
  8
10000_FRONT
370
    25
390
0
  6
CONTINUOUS
 62
     7
100
AcDbCircle
 10
95.400004
 20
118.399995
 30
0.0
 40
4.3
100
AcDbArc
 50
0.0
 51
90.000005
  0
ARC
  5
113D
100
AcDbEntity
  8
10000_FRONT
370
    25
390
0
  6
CONTINUOUS
 62
     7
100
AcDbCircle
 10
95.400004
 20
118.399995
 30
0.0
 40
5.0
100
AcDbArc
 50
0.0
 51
90.000005
  0
LINE
  5
113E
100
AcDbEntity
  8
10100_FRONT_DIM
370
    13
390
0
  6
CONTINUOUS
 62
     7
100
AcDbLine
 10
70.500004
 20
130.099995
 30
0.0
 11
70.500004
 21
141.099995
 31
0.0
  0
LINE
  5
113F
100
AcDbEntity
  8
10100_FRONT_DIM
370
    13
390
0
  6
CONTINUOUS
 62
     7
100
AcDbLine
 10
100.500004
 20
141.099995
 30
0.0
 11
100.500004
 21
130.099995
 31
0.0
  0
LINE
  5
1140
100
AcDbEntity
  8
10100_FRONT_DIM
370
    13
390
0
  6
CONTINUOUS
 62
     7
100
AcDbLine
 10
70.500004
 20
140.099995
 30
0.0
 11
100.500004
 21
140.099995
 31
0.0
  0
TEXT
  5
1141
100
AcDbEntity
  8
10100_FRONT_DIM
370
    13
390
0
  6
CONTINUOUS
 62
     7
100
AcDbText
 10
84.000004
 20
141.099995
 30
0.0
 40
2.0
  1
30
 72
     1
 11
85.500004
 21
141.099995
 31
0.0
100
AcDbText
  0
LINE
  5
1142
100
AcDbEntity
  8
10100_FRONT_DIM
370
    13
390
0
  6
CONTINUOUS
 62
     7
100
AcDbLine
 10
70.500004
 20
90.199995
 30
0.0
 11
59.499994
 21
90.199995
 31
0.0
  0
LINE
  5
1143
100
AcDbEntity
  8
10100_FRONT_DIM
370
    13
390
0
  6
CONTINUOUS
 62
     7
100
AcDbLine
 10
59.499994
 20
130.099995
 30
0.0
 11
70.500004
 21
130.099995
 31
0.0
  0
LINE
  5
1144
100
AcDbEntity
  8
10100_FRONT_DIM
370
    13
390
0
  6
CONTINUOUS
 62
     7
100
AcDbLine
 10
60.499994
 20
90.199995
 30
0.0
 11
60.499994
 21
130.099995
 31
0.0
  0
TEXT
  5
1145
100
AcDbEntity
  8
10100_FRONT_DIM
370
    13
390
0
  6
CONTINUOUS
 62
     7
100
AcDbText
 10
59.499994
 20
108.649995
 30
0.0
 40
2.0
  1
40
 50
90.0
 72
     1
 11
59.499994
 21
110.149995
 31
0.0
100
AcDbText
  0
SOLID
  5
1146
100
AcDbEntity
  8
10100_FRONT_DIM
370
    13
390
0
  6
CONTINUOUS
 62
     7
100
AcDbTrace
 10
75.500004
 20
140.758257
 30
0.0
 11
70.500004
 21
140.099995
 31
0.0
 12
75.500004
 22
139.441733
 32
0.0
 13
70.500004
 23
140.099995
 33
0.0
  0
SOLID
  5
1147
100
AcDbEntity
  8
10100_FRONT_DIM
370
    13
390
0
  6
CONTINUOUS
 62
     7
100
AcDbTrace
 10
95.500004
 20
139.441733
 30
0.0
 11
100.500004
 21
140.099995
 31
0.0
 12
95.500004
 22
140.758257
 32
0.0
 13
100.500004
 23
140.099995
 33
0.0
  0
SOLID
  5
1148
100
AcDbEntity
  8
10100_FRONT_DIM
370
    13
390
0
  6
CONTINUOUS
 62
     7
100
AcDbTrace
 10
59.841732
 20
95.199995
 30
0.0
 11
60.499994
 21
90.199995
 31
0.0
 12
61.158256
 22
95.199995
 32
0.0
 13
60.499994
 23
90.199995
 33
0.0
  0
SOLID
  5
1149
100
AcDbEntity
  8
10100_FRONT_DIM
370
    13
390
0
  6
CONTINUOUS
 62
     7
100
AcDbTrace
 10
61.158256
 20
125.099995
 30
0.0
 11
60.499994
 21
130.099995
 31
0.0
 12
59.841732
 22
125.099995
 32
0.0
 13
60.499994
 23
130.099995
 33
0.0
  0
LINE
  5
114A
100
AcDbEntity
  8
11000_LEFT
370
    25
390
0
  6
CONTINUOUS
 62
     7
100
AcDbLine
 10
168.026467
 20
105.596316
 30
0.0
 11
168.021763
 21
105.798783
 31
0.0
  0
LINE
  5
114B
100
AcDbEntity
  8
11000_LEFT
370
    25
390
0
  6
CONTINUOUS
 62
     7
100
AcDbLine
 10
168.050007
 20
106.609086
 30
0.0
 11
168.047435
 21
106.671669
 31
0.0
  0
LINE
  5
114C
100
AcDbEntity
  8
11000_LEFT
370
    25
390
0
  6
CONTINUOUS
 62
     7
100
AcDbLine
 10
168.035879
 20
105.393719
 30
0.0
 11
168.026467
 21
105.596316
 31
0.0
  0
LINE
  5
114D
100
AcDbEntity
  8
11000_LEFT
370
    25
390
0
  6
CONTINUOUS
 62
     7
100
AcDbLine
 10
168.050007
 20
105.190904
 30
0.0
 11
168.035879
 21
105.393719
 31
0.0
  0
LINE
  5
114E
100
AcDbEntity
  8
11000_LEFT
370
    25
390
0
  6
CONTINUOUS
 62
     7
100
AcDbLine
 10
168.047435
 20
106.671669
 30
0.0
 11
168.039697
 21
106.735452
 31
0.0
  0
LINE
  5
114F
100
AcDbEntity
  8
11000_LEFT
370
    25
390
0
  6
CONTINUOUS
 62
     7
100
AcDbLine
 10
141.441806
 20
94.895806
 30
0.0
 11
141.300006
 21
95.699995
 31
0.0
  0
LINE
  5
1150
100
AcDbEntity
  8
11000_LEFT
370
    25
390
0
  6
CONTINUOUS
 62
     7
100
AcDbLine
 10
168.039697
 20
106.735452
 30
0.0
 11
168.02676
 21
106.798765
 31
0.0
  0
LINE
  5
1151
100
AcDbEntity
  8
11000_LEFT
370
    25
390
0
  6
CONTINUOUS
 62
     7
100
AcDbLine
 10
168.02676
 20
106.798765
 30
0.0
 11
168.008785
 21
106.860027
 31
0.0
  0
LINE
  5
1152
100
AcDbEntity
  8
11000_LEFT
370
    25
390
0
  6
CONTINUOUS
 62
     7
100
AcDbLine
 10
130.700005
 20
90.273612
 30
0.0
 11
129.926064
 21
92.399995
 31
0.0
  0
LINE
  5
1153
100
AcDbEntity
  8
11000_LEFT
370
    25
390
0
  6
CONTINUOUS
 62
     7
100
AcDbLine
 10
168.008785
 20
106.860027
 30
0.0
 11
167.986715
 21
106.918013
 31
0.0
  0
LINE
  5
1154
100
AcDbEntity
  8
11000_LEFT
370
    25
390
0
  6
CONTINUOUS
 62
     7
100
AcDbLine
 10
168.050007
 20
93.920963
 30
0.0
 11
168.047435
 21
93.926712
 31
0.0
  0
LINE
  5
1155
100
AcDbEntity
  8
11000_LEFT
370
    25
390
0
  6
CONTINUOUS
 62
     7
100
AcDbLine
 10
167.986715
 20
106.918013
 30
0.0
 11
167.961683
 21
106.971584
 31
0.0
  0
LINE
  5
1156
100
AcDbEntity
  8
11000_LEFT
370
    25
390
0
  6
CONTINUOUS
 62
     7
100
AcDbLine
 10
136.420659
 20
116.099996
 30
0.0
 11
133.670621
 21
121.061193
 31
0.0
  0
LINE
  5
1157
100
AcDbEntity
  8
11000_LEFT
370
    25
390
0
  6
CONTINUOUS
 62
     7
100
AcDbLine
 10
167.961683
 20
106.971584
 30
0.0
 11
167.933836
 21
107.021464
 31
0.0
  0
LINE
  5
1158
100
AcDbEntity
  8
11000_LEFT
370
    25
390
0
  6
CONTINUOUS
 62
     7
100
AcDbLine
 10
167.933836
 20
107.021464
 30
0.0
 11
167.902293
 21
107.069925
 31
0.0
  0
LINE
  5
1159
100
AcDbEntity
  8
11000_LEFT
370
    25
390
0
  6
CONTINUOUS
 62
     7
100
AcDbLine
 10
167.902293
 20
107.069925
 30
0.0
 11
167.867485
 21
107.11652
 31
0.0
  0
LINE
  5
115A
100
AcDbEntity
  8
11000_LEFT
370
    25
390
0
  6
CONTINUOUS
 62
     7
100
AcDbLine
 10
168.047435
 20
93.926712
 30
0.0
 11
168.039697
 21
93.936636
 31
0.0
  0
LINE
  5
115B
100
AcDbEntity
  8
11000_LEFT
370
    25
390
0
  6
CONTINUOUS
 62
     7
100
AcDbLine
 10
167.867485
 20
107.11652
 30
0.0
 11
167.829863
 21
107.16076
 31
0.0
  0
LINE
  5
115C
100
AcDbEntity
  8
11000_LEFT
370
    25
390
0
  6
CONTINUOUS
 62
     7
100
AcDbLine
 10
168.039697
 20
93.936636
 30
0.0
 11
168.02676
 21
93.950654
 31
0.0
  0
LINE
  5
115D
100
AcDbEntity
  8
11000_LEFT
370
    25
390
0
  6
CONTINUOUS
 62
     7
100
AcDbLine
 10
167.829863
 20
107.16076
 30
0.0
 11
167.789892
 21
107.20218
 31
0.0
  0
LINE
  5
115E
100
AcDbEntity
  8
11000_LEFT
370
    25
390
0
  6
CONTINUOUS
 62
     7
100
AcDbLine
 10
138.012555
 20
93.749995
 30
0.0
 11
136.292948
 21
95.469602
 31
0.0
  0
LINE
  5
115F
100
AcDbEntity
  8
11000_LEFT
370
    25
390
0
  6
CONTINUOUS
 62
     7
100
AcDbLine
 10
120.700005
 20
108.699995
 30
0.0
 11
120.500004
 21
108.899996
 31
0.0
  0
LINE
  5
1160
100
AcDbEntity
  8
11000_LEFT
370
    25
390
0
  6
CONTINUOUS
 62
     7
100
AcDbLine
 10
140.351962
 20
92.910589
 30
0.0
 11
139.512555
 21
93.749995
 31
0.0
  0
LINE
  5
1161
100
AcDbEntity
  8
11000_LEFT
370
    25
390
0
  6
CONTINUOUS
 62
     7
100
AcDbLine
 10
168.02676
 20
93.950654
 30
0.0
 11
168.008785
 21
93.968538
 31
0.0
  0
LINE
  5
1162
100
AcDbEntity
  8
11000_LEFT
370
    25
390
0
  6
CONTINUOUS
 62
     7
100
AcDbLine
 10
168.008785
 20
93.968538
 30
0.0
 11
167.986715
 21
93.989456
 31
0.0
  0
LINE
  5
1163
100
AcDbEntity
  8
11000_LEFT
370
    25
390
0
  6
CONTINUOUS
 62
     7
100
AcDbLine
 10
167.789892
 20
107.20218
 30
0.0
 11
167.748204
 21
107.240559
 31
0.0
  0
LINE
  5
1164
100
AcDbEntity
  8
11000_LEFT
370
    25
390
0
  6
CONTINUOUS
 62
     7
100
AcDbLine
 10
167.986715
 20
93.989456
 30
0.0
 11
167.961683
 21
94.012431
 31
0.0
  0
LINE
  5
1165
100
AcDbEntity
  8
11000_LEFT
370
    25
390
0
  6
CONTINUOUS
 62
     7
100
AcDbLine
 10
167.961683
 20
94.012431
 30
0.0
 11
167.933836
 21
94.037378
 31
0.0
  0
LINE
  5
1166
100
AcDbEntity
  8
11000_LEFT
370
    25
390
0
  6
CONTINUOUS
 62
     7
100
AcDbLine
 10
167.933836
 20
94.037378
 30
0.0
 11
167.902293
 21
94.065115
 31
0.0
  0
LINE
  5
1167
100
AcDbEntity
  8
11000_LEFT
370
    25
390
0
  6
CONTINUOUS
 62
     7
100
AcDbLine
 10
167.902293
 20
94.065115
 30
0.0
 11
167.867485
 21
94.095261
 31
0.0
  0
LINE
  5
1168
100
AcDbEntity
  8
11000_LEFT
370
    25
390
0
  6
CONTINUOUS
 62
     7
100
AcDbLine
 10
167.867485
 20
94.095261
 30
0.0
 11
167.829863
 21
94.127418
 31
0.0
  0
LINE
  5
1169
100
AcDbEntity
  8
11000_LEFT
370
    25
390
0
  6
CONTINUOUS
 62
     7
100
AcDbLine
 10
167.829863
 20
94.127418
 30
0.0
 11
167.789892
 21
94.161173
 31
0.0
  0
LINE
  5
116A
100
AcDbEntity
  8
11000_LEFT
370
    25
390
0
  6
CONTINUOUS
 62
     7
100
AcDbLine
 10
167.789892
 20
94.161173
 30
0.0
 11
167.748204
 21
94.196011
 31
0.0
  0
LINE
  5
116B
100
AcDbEntity
  8
11000_LEFT
370
    25
390
0
  6
CONTINUOUS
 62
     7
100
AcDbLine
 10
167.748204
 20
94.196011
 30
0.0
 11
167.705505
 21
94.231367
 31
0.0
  0
LINE
  5
116C
100
AcDbEntity
  8
11000_LEFT
370
    25
390
0
  6
CONTINUOUS
 62
     7
100
AcDbLine
 10
167.748204
 20
107.240559
 30
0.0
 11
167.705505
 21
107.275782
 31
0.0
  0
LINE
  5
116D
100
AcDbEntity
  8
11000_LEFT
370
    25
390
0
  6
CONTINUOUS
 62
     7
100
AcDbLine
 10
167.705505
 20
94.231367
 30
0.0
 11
167.662501
 21
94.266682
 31
0.0
  0
LINE
  5
116E
100
AcDbEntity
  8
11000_LEFT
370
    25
390
0
  6
CONTINUOUS
 62
     7
100
AcDbLine
 10
137.858351
 20
119.824733
 30
0.0
 11
137.371339
 21
120.223827
 31
0.0
  0
LINE
  5
116F
100
AcDbEntity
  8
11000_LEFT
370
    25
390
0
  6
CONTINUOUS
 62
     7
100
AcDbLine
 10
167.662501
 20
94.266682
 30
0.0
 11
167.619761
 21
94.301507
 31
0.0
  0
LINE
  5
1170
100
AcDbEntity
  8
11000_LEFT
370
    25
390
0
  6
CONTINUOUS
 62
     7
100
AcDbLine
 10
167.619761
 20
94.301507
 30
0.0
 11
167.576034
 21
94.336873
 31
0.0
  0
LINE
  5
1171
100
AcDbEntity
  8
11000_LEFT
370
    25
390
0
  6
CONTINUOUS
 62
     7
100
AcDbLine
 10
167.576034
 20
94.336873
 30
0.0
 11
167.530931
 21
94.373098
 31
0.0
  0
LINE
  5
1172
100
AcDbEntity
  8
11000_LEFT
370
    25
390
0
  6
CONTINUOUS
 62
     7
100
AcDbLine
 10
167.530931
 20
94.373098
 30
0.0
 11
167.484565
 21
94.410089
 31
0.0
  0
LINE
  5
1173
100
AcDbEntity
  8
11000_LEFT
370
    25
390
0
  6
CONTINUOUS
 62
     7
100
AcDbLine
 10
167.484565
 20
94.410089
 30
0.0
 11
167.437047
 21
94.447755
 31
0.0
  0
LINE
  5
1174
100
AcDbEntity
  8
11000_LEFT
370
    25
390
0
  6
CONTINUOUS
 62
     7
100
AcDbLine
 10
167.437047
 20
94.447755
 30
0.0
 11
167.388489
 21
94.486005
 31
0.0
  0
LINE
  5
1175
100
AcDbEntity
  8
11000_LEFT
370
    25
390
0
  6
CONTINUOUS
 62
     7
100
AcDbLine
 10
167.388489
 20
94.486005
 30
0.0
 11
167.339002
 21
94.524746
 31
0.0
  0
LINE
  5
1176
100
AcDbEntity
  8
11000_LEFT
370
    25
390
0
  6
CONTINUOUS
 62
     7
100
AcDbLine
 10
167.339002
 20
94.524746
 30
0.0
 11
167.288698
 21
94.563888
 31
0.0
  0
LINE
  5
1177
100
AcDbEntity
  8
11000_LEFT
370
    25
390
0
  6
CONTINUOUS
 62
     7
100
AcDbLine
 10
167.288698
 20
94.563888
 30
0.0
 11
167.237689
 21
94.603336
 31
0.0
  0
LINE
  5
1178
100
AcDbEntity
  8
11000_LEFT
370
    25
390
0
  6
CONTINUOUS
 62
     7
100
AcDbLine
 10
167.237689
 20
94.603336
 30
0.0
 11
167.186086
 21
94.643003
 31
0.0
  0
LINE
  5
1179
100
AcDbEntity
  8
11000_LEFT
370
    25
390
0
  6
CONTINUOUS
 62
     7
100
AcDbLine
 10
167.186086
 20
94.643003
 30
0.0
 11
167.134001
 21
94.682794
 31
0.0
  0
LINE
  5
117A
100
AcDbEntity
  8
11000_LEFT
370
    25
390
0
  6
CONTINUOUS
 62
     7
100
AcDbLine
 10
167.134001
 20
94.682794
 30
0.0
 11
167.081546
 21
94.722618
 31
0.0
  0
LINE
  5
117B
100
AcDbEntity
  8
11000_LEFT
370
    25
390
0
  6
CONTINUOUS
 62
     7
100
AcDbLine
 10
167.081546
 20
94.722618
 30
0.0
 11
167.028845
 21
94.762389
 31
0.0
  0
LINE
  5
117C
100
AcDbEntity
  8
11000_LEFT
370
    25
390
0
  6
CONTINUOUS
 62
     7
100
AcDbLine
 10
167.028845
 20
94.762389
 30
0.0
 11
166.976021
 21
94.802018
 31
0.0
  0
LINE
  5
117D
100
AcDbEntity
  8
11000_LEFT
370
    25
390
0
  6
CONTINUOUS
 62
     7
100
AcDbLine
 10
166.976021
 20
94.802018
 30
0.0
 11
166.9232
 21
94.84142
 31
0.0
  0
LINE
  5
117E
100
AcDbEntity
  8
11000_LEFT
370
    25
390
0
  6
CONTINUOUS
 62
     7
100
AcDbLine
 10
167.705505
 20
107.275782
 30
0.0
 11
167.662501
 21
107.307735
 31
0.0
  0
LINE
  5
117F
100
AcDbEntity
  8
11000_LEFT
370
    25
390
0
  6
CONTINUOUS
 62
     7
100
AcDbLine
 10
166.9232
 20
94.84142
 30
0.0
 11
166.870505
 21
94.880506
 31
0.0
  0
LINE
  5
1180
100
AcDbEntity
  8
11000_LEFT
370
    25
390
0
  6
CONTINUOUS
 62
     7
100
AcDbLine
 10
166.870505
 20
94.880506
 30
0.0
 11
166.818079
 21
94.919216
 31
0.0
  0
LINE
  5
1181
100
AcDbEntity
  8
11000_LEFT
370
    25
390
0
  6
CONTINUOUS
 62
     7
100
AcDbLine
 10
166.459024
 20
95.183351
 30
0.0
 11
166.400006
 21
95.226781
 31
0.0
  0
LINE
  5
1182
100
AcDbEntity
  8
11000_LEFT
370
    25
390
0
  6
CONTINUOUS
 62
     7
100
AcDbLine
 10
166.518275
 20
95.139753
 30
0.0
 11
166.459024
 21
95.183351
 31
0.0
  0
LINE
  5
1183
100
AcDbEntity
  8
11000_LEFT
370
    25
390
0
  6
CONTINUOUS
 62
     7
100
AcDbLine
 10
166.577761
 20
95.095987
 30
0.0
 11
166.518275
 21
95.139753
 31
0.0
  0
LINE
  5
1184
100
AcDbEntity
  8
11000_LEFT
370
    25
390
0
  6
CONTINUOUS
 62
     7
100
AcDbLine
 10
166.637484
 20
95.052051
 30
0.0
 11
166.577761
 21
95.095987
 31
0.0
  0
LINE
  5
1185
100
AcDbEntity
  8
11000_LEFT
370
    25
390
0
  6
CONTINUOUS
 62
     7
100
AcDbLine
 10
166.697443
 20
95.007944
 30
0.0
 11
166.637484
 21
95.052051
 31
0.0
  0
LINE
  5
1186
100
AcDbEntity
  8
11000_LEFT
370
    25
390
0
  6
CONTINUOUS
 62
     7
100
AcDbLine
 10
166.757641
 20
94.963667
 30
0.0
 11
166.697443
 21
95.007944
 31
0.0
  0
LINE
  5
1187
100
AcDbEntity
  8
11000_LEFT
370
    25
390
0
  6
CONTINUOUS
 62
     7
100
AcDbLine
 10
166.818079
 20
94.919216
 30
0.0
 11
166.757641
 21
94.963667
 31
0.0
  0
LINE
  5
1188
100
AcDbEntity
  8
11000_LEFT
370
    25
390
0
  6
CONTINUOUS
 62
     7
100
AcDbLine
 10
168.021175
 20
93.920963
 30
0.0
 11
166.399021
 21
95.100711
 31
0.0
  0
LINE
  5
1189
100
AcDbEntity
  8
11000_LEFT
370
    25
390
0
  6
CONTINUOUS
 62
     7
100
AcDbLine
 10
167.662501
 20
107.307735
 30
0.0
 11
167.619761
 21
107.3364
 31
0.0
  0
LINE
  5
118A
100
AcDbEntity
  8
11000_LEFT
370
    25
390
0
  6
CONTINUOUS
 62
     7
100
AcDbLine
 10
167.619761
 20
107.3364
 30
0.0
 11
167.576034
 21
107.362916
 31
0.0
  0
LINE
  5
118B
100
AcDbEntity
  8
11000_LEFT
370
    25
390
0
  6
CONTINUOUS
 62
     7
100
AcDbLine
 10
160.549006
 20
120.422644
 30
0.0
 11
159.549006
 21
120.999994
 31
0.0
  0
LINE
  5
118C
100
AcDbEntity
  8
11000_LEFT
370
    25
390
0
  6
CONTINUOUS
 62
     7
100
AcDbLine
 10
166.399021
 20
95.100711
 30
0.0
 11
165.600006
 21
95.557614
 31
0.0
  0
LINE
  5
118D
100
AcDbEntity
  8
11000_LEFT
370
    25
390
0
  6
CONTINUOUS
 62
     7
100
AcDbLine
 10
167.576034
 20
107.362916
 30
0.0
 11
167.530931
 21
107.38765
 31
0.0
  0
LINE
  5
118E
100
AcDbEntity
  8
11000_LEFT
370
    25
390
0
  6
CONTINUOUS
 62
     7
100
AcDbLine
 10
138.427247
 20
118.576614
 30
0.0
 11
133.697585
 21
121.012548
 31
0.0
  0
LINE
  5
118F
100
AcDbEntity
  8
11000_LEFT
370
    25
390
0
  6
CONTINUOUS
 62
     7
100
AcDbLine
 10
167.530931
 20
107.38765
 30
0.0
 11
167.484565
 21
107.410603
 31
0.0
  0
LINE
  5
1190
100
AcDbEntity
  8
11000_LEFT
370
    25
390
0
  6
CONTINUOUS
 62
     7
100
AcDbLine
 10
138.444724
 20
119.540844
 30
0.0
 11
137.858351
 21
119.824733
 31
0.0
  0
LINE
  5
1191
100
AcDbEntity
  8
11000_LEFT
370
    25
390
0
  6
CONTINUOUS
 62
     7
100
AcDbLine
 10
167.484565
 20
107.410603
 30
0.0
 11
167.437047
 21
107.431778
 31
0.0
  0
LINE
  5
1192
100
AcDbEntity
  8
11000_LEFT
370
    25
390
0
  6
CONTINUOUS
 62
     7
100
AcDbLine
 10
167.437047
 20
107.431778
 30
0.0
 11
167.388489
 21
107.451179
 31
0.0
  0
LINE
  5
1193
100
AcDbEntity
  8
11000_LEFT
370
    25
390
0
  6
CONTINUOUS
 62
     7
100
AcDbLine
 10
137.226094
 20
118.267567
 30
0.0
 11
134.688189
 21
119.225453
 31
0.0
  0
LINE
  5
1194
100
AcDbEntity
  8
11000_LEFT
370
    25
390
0
  6
CONTINUOUS
 62
     7
100
AcDbLine
 10
167.388489
 20
107.451179
 30
0.0
 11
167.339002
 21
107.468806
 31
0.0
  0
LINE
  5
1195
100
AcDbEntity
  8
11000_LEFT
370
    25
390
0
  6
CONTINUOUS
 62
     7
100
AcDbLine
 10
167.339002
 20
107.468806
 30
0.0
 11
167.288698
 21
107.484664
 31
0.0
  0
LINE
  5
1196
100
AcDbEntity
  8
11000_LEFT
370
    25
390
0
  6
CONTINUOUS
 62
     7
100
AcDbLine
 10
167.288698
 20
107.484664
 30
0.0
 11
167.237689
 21
107.498755
 31
0.0
  0
LINE
  5
1197
100
AcDbEntity
  8
11000_LEFT
370
    25
390
0
  6
CONTINUOUS
 62
     7
100
AcDbLine
 10
164.125888
 20
124.246587
 30
0.0
 11
163.400006
 21
124.441087
 31
0.0
  0
LINE
  5
1198
100
AcDbEntity
  8
11000_LEFT
370
    25
390
0
  6
CONTINUOUS
 62
     7
100
AcDbLine
 10
139.299014
 20
121.896805
 30
0.0
 11
137.890769
 21
122.256644
 31
0.0
  0
LINE
  5
1199
100
AcDbEntity
  8
11000_LEFT
370
    25
390
0
  6
CONTINUOUS
 62
     7
100
AcDbLine
 10
139.25371
 20
122.720725
 30
0.0
 11
137.894604
 21
123.049157
 31
0.0
  0
LINE
  5
119A
100
AcDbEntity
  8
11000_LEFT
370
    25
390
0
  6
CONTINUOUS
 62
     7
100
AcDbLine
 10
167.237689
 20
107.498755
 30
0.0
 11
167.186086
 21
107.511081
 31
0.0
  0
LINE
  5
119B
100
AcDbEntity
  8
11000_LEFT
370
    25
390
0
  6
CONTINUOUS
 62
     7
100
AcDbLine
 10
167.186086
 20
107.511081
 30
0.0
 11
167.134001
 21
107.521645
 31
0.0
  0
LINE
  5
119C
100
AcDbEntity
  8
11000_LEFT
370
    25
390
0
  6
CONTINUOUS
 62
     7
100
AcDbLine
 10
178.591844
 20
91.149995
 30
0.0
 11
175.200006
 21
91.749995
 31
0.0
  0
LINE
  5
119D
100
AcDbEntity
  8
11000_LEFT
370
    25
390
0
  6
CONTINUOUS
 62
     7
100
AcDbLine
 10
167.134001
 20
107.521645
 30
0.0
 11
167.081546
 21
107.530455
 31
0.0
  0
LINE
  5
119E
100
AcDbEntity
  8
11000_LEFT
370
    25
390
0
  6
CONTINUOUS
 62
     7
100
AcDbLine
 10
148.299006
 20
107.899987
 30
0.0
 11
142.299006
 21
108.899995
 31
0.0
  0
LINE
  5
119F
100
AcDbEntity
  8
11000_LEFT
370
    25
390
0
  6
CONTINUOUS
 62
     7
100
AcDbLine
 10
133.670621
 20
121.061193
 30
0.0
 11
128.314141
 21
121.899995
 31
0.0
  0
LINE
  5
11A0
100
AcDbEntity
  8
11000_LEFT
370
    25
390
0
  6
CONTINUOUS
 62
     7
100
AcDbLine
 10
141.733126
 20
117.32888
 30
0.0
 11
140.794463
 21
117.473173
 31
0.0
  0
LINE
  5
11A1
100
AcDbEntity
  8
11000_LEFT
370
    25
390
0
  6
CONTINUOUS
 62
     7
100
AcDbLine
 10
167.081546
 20
107.530455
 30
0.0
 11
167.028845
 21
107.537552
 31
0.0
  0
LINE
  5
11A2
100
AcDbEntity
  8
11000_LEFT
370
    25
390
0
  6
CONTINUOUS
 62
     7
100
AcDbLine
 10
120.700005
 20
90.8744
 30
0.0
 11
120.674618
 21
90.877649
 31
0.0
  0
LINE
  5
11A3
100
AcDbEntity
  8
11000_LEFT
370
    25
390
0
  6
CONTINUOUS
 62
     7
100
AcDbLine
 10
128.314141
 20
89.899995
 30
0.0
 11
120.700005
 21
90.8744
 31
0.0
  0
LINE
  5
11A4
100
AcDbEntity
  8
11000_LEFT
370
    25
390
0
  6
CONTINUOUS
 62
     7
100
AcDbLine
 10
167.028845
 20
107.537552
 30
0.0
 11
166.976021
 21
107.542989
 31
0.0
  0
LINE
  5
11A5
100
AcDbEntity
  8
11000_LEFT
370
    25
390
0
  6
CONTINUOUS
 62
     7
100
AcDbLine
 10
166.976021
 20
107.542989
 30
0.0
 11
166.9232
 21
107.546817
 31
0.0
  0
LINE
  5
11A6
100
AcDbEntity
  8
11000_LEFT
370
    25
390
0
  6
CONTINUOUS
 62
     7
100
AcDbLine
 10
171.480006
 20
92.277444
 30
0.0
 11
171.300013
 21
92.286884
 31
0.0
  0
LINE
  5
11A7
100
AcDbEntity
  8
11000_LEFT
370
    25
390
0
  6
CONTINUOUS
 62
     7
100
AcDbLine
 10
171.300006
 20
91.807395
 30
0.0
 11
170.400006
 21
91.854562
 31
0.0
  0
LINE
  5
11A8
100
AcDbEntity
  8
11000_LEFT
370
    25
390
0
  6
CONTINUOUS
 62
     7
100
AcDbLine
 10
166.9232
 20
107.546817
 30
0.0
 11
166.870505
 21
107.549085
 31
0.0
  0
LINE
  5
11A9
100
AcDbEntity
  8
11000_LEFT
370
    25
390
0
  6
CONTINUOUS
 62
     7
100
AcDbLine
 10
154.249006
 20
101.900868
 30
0.0
 11
148.299006
 21
102.004725
 31
0.0
  0
LINE
  5
11AA
100
AcDbEntity
  8
11000_LEFT
370
    25
390
0
  6
CONTINUOUS
 62
     7
100
AcDbLine
 10
154.249006
 20
116.600867
 30
0.0
 11
142.299006
 21
116.809456
 31
0.0
  0
LINE
  5
11AB
100
AcDbEntity
  8
11000_LEFT
370
    25
390
0
  6
CONTINUOUS
 62
     7
100
AcDbLine
 10
166.870505
 20
107.549085
 30
0.0
 11
166.818079
 21
107.549995
 31
0.0
  0
LINE
  5
11AC
100
AcDbEntity
  8
11000_LEFT
370
    25
390
0
  6
CONTINUOUS
 62
     7
100
AcDbLine
 10
161.599006
 20
90.149995
 30
0.0
 11
162.299006
 21
90.149995
 31
0.0
  0
LINE
  5
11AD
100
AcDbEntity
  8
11000_LEFT
370
    25
390
0
  6
CONTINUOUS
 62
     7
100
AcDbLine
 10
139.299006
 20
90.199995
 30
0.0
 11
163.050006
 21
90.199995
 31
0.0
  0
LINE
  5
11AE
100
AcDbEntity
  8
11000_LEFT
370
    25
390
0
  6
CONTINUOUS
 62
     7
100
AcDbLine
 10
133.710078
 20
90.811192
 30
0.0
 11
139.29901
 21
90.811192
 31
0.0
  0
LINE
  5
11AF
100
AcDbEntity
  8
11000_LEFT
370
    25
390
0
  6
CONTINUOUS
 62
     7
100
AcDbLine
 10
172.200006
 20
91.749995
 30
0.0
 11
175.200006
 21
91.749995
 31
0.0
  0
LINE
  5
11B0
100
AcDbEntity
  8
11000_LEFT
370
    25
390
0
  6
CONTINUOUS
 62
     7
100
AcDbLine
 10
171.480006
 20
91.799995
 30
0.0
 11
172.200006
 21
91.799995
 31
0.0
  0
LINE
  5
11B1
100
AcDbEntity
  8
11000_LEFT
370
    25
390
0
  6
CONTINUOUS
 62
     7
100
AcDbLine
 10
163.050012
 20
91.955551
 30
0.0
 11
163.399006
 21
91.955551
 31
0.0
  0
LINE
  5
11B2
100
AcDbEntity
  8
11000_LEFT
370
    25
390
0
  6
CONTINUOUS
 62
     7
100
AcDbLine
 10
170.200006
 20
92.299995
 30
0.0
 11
170.400008
 21
92.299995
 31
0.0
  0
LINE
  5
11B3
100
AcDbEntity
  8
11000_LEFT
370
    25
390
0
  6
CONTINUOUS
 62
     7
100
AcDbLine
 10
134.542214
 20
92.311193
 30
0.0
 11
139.299016
 21
92.311193
 31
0.0
  0
LINE
  5
11B4
100
AcDbEntity
  8
11000_LEFT
370
    25
390
0
  6
CONTINUOUS
 62
     7
100
AcDbLine
 10
124.000004
 20
92.399995
 30
0.0
 11
129.926064
 21
92.399995
 31
0.0
  0
LINE
  5
11B5
100
AcDbEntity
  8
11000_LEFT
370
    25
390
0
  6
CONTINUOUS
 62
     7
100
AcDbLine
 10
160.549007
 20
93.249995
 30
0.0
 11
163.050006
 21
93.249995
 31
0.0
  0
LINE
  5
11B6
100
AcDbEntity
  8
11000_LEFT
370
    25
390
0
  6
CONTINUOUS
 62
     7
100
AcDbLine
 10
138.012555
 20
93.749995
 30
0.0
 11
139.512555
 21
93.749995
 31
0.0
  0
LINE
  5
11B7
100
AcDbEntity
  8
11000_LEFT
370
    25
390
0
  6
CONTINUOUS
 62
     7
100
AcDbLine
 10
168.021175
 20
93.920963
 30
0.0
 11
170.200006
 21
93.920963
 31
0.0
  0
LINE
  5
11B8
100
AcDbEntity
  8
11000_LEFT
370
    25
390
0
  6
CONTINUOUS
 62
     7
100
AcDbLine
 10
142.032691
 20
94.399995
 30
0.0
 11
142.29901
 21
94.399995
 31
0.0
  0
LINE
  5
11B9
100
AcDbEntity
  8
11000_LEFT
370
    25
390
0
  6
CONTINUOUS
 62
     7
100
AcDbLine
 10
150.050006
 20
94.649995
 30
0.0
 11
154.249006
 21
94.649995
 31
0.0
  0
LINE
  5
11BA
100
AcDbEntity
  8
11000_LEFT
370
    25
390
0
  6
CONTINUOUS
 62
     7
100
AcDbLine
 10
160.549007
 20
94.649995
 30
0.0
 11
163.050006
 21
94.649995
 31
0.0
  0
LINE
  5
11BB
100
AcDbEntity
  8
11000_LEFT
370
    25
390
0
  6
CONTINUOUS
 62
     7
100
AcDbLine
 10
164.400006
 20
94.899995
 30
0.0
 11
165.400006
 21
94.899995
 31
0.0
  0
LINE
  5
11BC
100
AcDbEntity
  8
11000_LEFT
370
    25
390
0
  6
CONTINUOUS
 62
     7
100
AcDbLine
 10
166.818079
 20
94.919216
 30
0.0
 11
170.200006
 21
94.919216
 31
0.0
  0
LINE
  5
11BD
100
AcDbEntity
  8
11000_LEFT
370
    25
390
0
  6
CONTINUOUS
 62
     7
100
AcDbLine
 10
166.400006
 20
95.226781
 30
0.0
 11
170.200006
 21
95.226781
 31
0.0
  0
LINE
  5
11BE
100
AcDbEntity
  8
11000_LEFT
370
    25
390
0
  6
CONTINUOUS
 62
     7
100
AcDbLine
 10
163.399006
 20
95.670319
 30
0.0
 11
164.400006
 21
95.670319
 31
0.0
  0
LINE
  5
11BF
100
AcDbEntity
  8
11000_LEFT
370
    25
390
0
  6
CONTINUOUS
 62
     7
100
AcDbLine
 10
149.799012
 20
95.670319
 30
0.0
 11
150.050019
 21
95.670319
 31
0.0
  0
LINE
  5
11C0
100
AcDbEntity
  8
11000_LEFT
370
    25
390
0
  6
CONTINUOUS
 62
     7
100
AcDbLine
 10
136.420657
 20
95.699995
 30
0.0
 11
140.117163
 21
95.699995
 31
0.0
  0
LINE
  5
11C1
100
AcDbEntity
  8
11000_LEFT
370
    25
390
0
  6
CONTINUOUS
 62
     7
100
AcDbLine
 10
165.400006
 20
95.899995
 30
0.0
 11
165.600006
 21
95.899995
 31
0.0
  0
LINE
  5
11C2
100
AcDbEntity
  8
11000_LEFT
370
    25
390
0
  6
CONTINUOUS
 62
     7
100
AcDbLine
 10
160.550006
 20
95.899995
 30
0.0
 11
163.050006
 21
95.899995
 31
0.0
  0
LINE
  5
11C3
100
AcDbEntity
  8
11000_LEFT
370
    25
390
0
  6
CONTINUOUS
 62
     7
100
AcDbLine
 10
163.399014
 20
96.099995
 30
0.0
 11
164.400006
 21
96.099995
 31
0.0
  0
LINE
  5
11C4
100
AcDbEntity
  8
11000_LEFT
370
    25
390
0
  6
CONTINUOUS
 62
     7
100
AcDbLine
 10
149.799008
 20
96.099995
 30
0.0
 11
150.050006
 21
96.099995
 31
0.0
  0
LINE
  5
11C5
100
AcDbEntity
  8
11000_LEFT
370
    25
390
0
  6
CONTINUOUS
 62
     7
100
AcDbLine
 10
149.799012
 20
96.107962
 30
0.0
 11
150.050013
 21
96.107962
 31
0.0
  0
LINE
  5
11C6
100
AcDbEntity
  8
11000_LEFT
370
    25
390
0
  6
CONTINUOUS
 62
     7
100
AcDbLine
 10
163.39901
 20
96.107962
 30
0.0
 11
164.400006
 21
96.107962
 31
0.0
  0
LINE
  5
11C7
100
AcDbEntity
  8
11000_LEFT
370
    25
390
0
  6
CONTINUOUS
 62
     7
100
AcDbLine
 10
148.999006
 20
97.399995
 30
0.0
 11
149.799006
 21
97.399995
 31
0.0
  0
LINE
  5
11C8
100
AcDbEntity
  8
11000_LEFT
370
    25
390
0
  6
CONTINUOUS
 62
     7
100
AcDbLine
 10
149.200006
 20
97.549995
 30
0.0
 11
150.050006
 21
97.549995
 31
0.0
  0
LINE
  5
11C9
100
AcDbEntity
  8
11000_LEFT
370
    25
390
0
  6
CONTINUOUS
 62
     7
100
AcDbLine
 10
149.200006
 20
98.649995
 30
0.0
 11
154.249006
 21
98.649995
 31
0.0
  0
LINE
  5
11CA
100
AcDbEntity
  8
11000_LEFT
370
    25
390
0
  6
CONTINUOUS
 62
     7
100
AcDbLine
 10
163.399009
 20
98.681269
 30
0.0
 11
164.400006
 21
98.681269
 31
0.0
  0
LINE
  5
11CB
100
AcDbEntity
  8
11000_LEFT
370
    25
390
0
  6
CONTINUOUS
 62
     7
100
AcDbLine
 10
148.99901
 20
98.681269
 30
0.0
 11
149.20001
 21
98.681269
 31
0.0
  0
LINE
  5
11CC
100
AcDbEntity
  8
11000_LEFT
370
    25
390
0
  6
CONTINUOUS
 62
     7
100
AcDbLine
 10
148.99901
 20
100.48943
 30
0.0
 11
149.20001
 21
100.48943
 31
0.0
  0
LINE
  5
11CD
100
AcDbEntity
  8
11000_LEFT
370
    25
390
0
  6
CONTINUOUS
 62
     7
100
AcDbLine
 10
163.39901
 20
100.48943
 30
0.0
 11
164.400006
 21
100.48943
 31
0.0
  0
LINE
  5
11CE
100
AcDbEntity
  8
11000_LEFT
370
    25
390
0
  6
CONTINUOUS
 62
     7
100
AcDbLine
 10
154.200006
 20
101.63766
 30
0.0
 11
154.249007
 21
101.63766
 31
0.0
  0
LINE
  5
11CF
100
AcDbEntity
  8
11000_LEFT
370
    25
390
0
  6
CONTINUOUS
 62
     7
100
AcDbLine
 10
160.549007
 20
103.554787
 30
0.0
 11
160.550006
 21
103.554787
 31
0.0
  0
LINE
  5
11D0
100
AcDbEntity
  8
11000_LEFT
370
    25
390
0
  6
CONTINUOUS
 62
     7
100
AcDbLine
 10
166.400006
 20
104.249995
 30
0.0
 11
170.200006
 21
104.249995
 31
0.0
  0
LINE
  5
11D1
100
AcDbEntity
  8
11000_LEFT
370
    25
390
0
  6
CONTINUOUS
 62
     7
100
AcDbLine
 10
168.050007
 20
105.190904
 30
0.0
 11
170.200006
 21
105.190904
 31
0.0
  0
LINE
  5
11D2
100
AcDbEntity
  8
11000_LEFT
370
    25
390
0
  6
CONTINUOUS
 62
     7
100
AcDbLine
 10
161.599006
 20
105.899995
 30
0.0
 11
163.399006
 21
105.899995
 31
0.0
  0
LINE
  5
11D3
100
AcDbEntity
  8
11000_LEFT
370
    25
390
0
  6
CONTINUOUS
 62
     7
100
AcDbLine
 10
168.050007
 20
106.609086
 30
0.0
 11
170.200006
 21
106.609086
 31
0.0
  0
LINE
  5
11D4
100
AcDbEntity
  8
11000_LEFT
370
    25
390
0
  6
CONTINUOUS
 62
     7
100
AcDbLine
 10
166.400006
 20
107.549995
 30
0.0
 11
170.200006
 21
107.549995
 31
0.0
  0
LINE
  5
11D5
100
AcDbEntity
  8
11000_LEFT
370
    25
390
0
  6
CONTINUOUS
 62
     7
100
AcDbLine
 10
160.549007
 20
108.245203
 30
0.0
 11
160.550006
 21
108.245203
 31
0.0
  0
LINE
  5
11D6
100
AcDbEntity
  8
11000_LEFT
370
    25
390
0
  6
CONTINUOUS
 62
     7
100
AcDbLine
 10
154.200006
 20
110.16233
 30
0.0
 11
154.249007
 21
110.16233
 31
0.0
  0
LINE
  5
11D7
100
AcDbEntity
  8
11000_LEFT
370
    25
390
0
  6
CONTINUOUS
 62
     7
100
AcDbLine
 10
148.99901
 20
110.910561
 30
0.0
 11
149.20001
 21
110.910561
 31
0.0
  0
LINE
  5
11D8
100
AcDbEntity
  8
11000_LEFT
370
    25
390
0
  6
CONTINUOUS
 62
     7
100
AcDbLine
 10
163.399011
 20
110.910561
 30
0.0
 11
164.400006
 21
110.910561
 31
0.0
  0
LINE
  5
11D9
100
AcDbEntity
  8
11000_LEFT
370
    25
390
0
  6
CONTINUOUS
 62
     7
100
AcDbLine
 10
149.200006
 20
112.549995
 30
0.0
 11
154.249006
 21
112.549995
 31
0.0
  0
LINE
  5
11DA
100
AcDbEntity
  8
11000_LEFT
370
    25
390
0
  6
CONTINUOUS
 62
     7
100
AcDbLine
 10
148.99901
 20
113.118721
 30
0.0
 11
149.200011
 21
113.118721
 31
0.0
  0
LINE
  5
11DB
100
AcDbEntity
  8
11000_LEFT
370
    25
390
0
  6
CONTINUOUS
 62
     7
100
AcDbLine
 10
163.399011
 20
113.118721
 30
0.0
 11
164.400006
 21
113.118721
 31
0.0
  0
LINE
  5
11DC
100
AcDbEntity
  8
11000_LEFT
370
    25
390
0
  6
CONTINUOUS
 62
     7
100
AcDbLine
 10
149.200006
 20
113.649995
 30
0.0
 11
150.050006
 21
113.649995
 31
0.0
  0
LINE
  5
11DD
100
AcDbEntity
  8
11000_LEFT
370
    25
390
0
  6
CONTINUOUS
 62
     7
100
AcDbLine
 10
148.999006
 20
113.799995
 30
0.0
 11
149.799006
 21
113.799995
 31
0.0
  0
LINE
  5
11DE
100
AcDbEntity
  8
11000_LEFT
370
    25
390
0
  6
CONTINUOUS
 62
     7
100
AcDbLine
 10
165.400006
 20
115.899995
 30
0.0
 11
165.600006
 21
115.899995
 31
0.0
  0
LINE
  5
11DF
100
AcDbEntity
  8
11000_LEFT
370
    25
390
0
  6
CONTINUOUS
 62
     7
100
AcDbLine
 10
163.399014
 20
116.013055
 30
0.0
 11
164.400006
 21
116.013055
 31
0.0
  0
LINE
  5
11E0
100
AcDbEntity
  8
11000_LEFT
370
    25
390
0
  6
CONTINUOUS
 62
     7
100
AcDbLine
 10
149.799013
 20
116.013055
 30
0.0
 11
150.050013
 21
116.013055
 31
0.0
  0
LINE
  5
11E1
100
AcDbEntity
  8
11000_LEFT
370
    25
390
0
  6
CONTINUOUS
 62
     7
100
AcDbLine
 10
136.420659
 20
116.099996
 30
0.0
 11
142.299012
 21
116.099996
 31
0.0
  0
LINE
  5
11E2
100
AcDbEntity
  8
11000_LEFT
370
    25
390
0
  6
CONTINUOUS
 62
     7
100
AcDbLine
 10
150.050006
 20
116.549995
 30
0.0
 11
154.249006
 21
116.549995
 31
0.0
  0
LINE
  5
11E3
100
AcDbEntity
  8
11000_LEFT
370
    25
390
0
  6
CONTINUOUS
 62
     7
100
AcDbLine
 10
160.549007
 20
116.549995
 30
0.0
 11
160.550006
 21
116.549995
 31
0.0
  0
LINE
  5
11E4
100
AcDbEntity
  8
11000_LEFT
370
    25
390
0
  6
CONTINUOUS
 62
     7
100
AcDbLine
 10
166.400006
 20
116.573209
 30
0.0
 11
170.200006
 21
116.573209
 31
0.0
  0
LINE
  5
11E5
100
AcDbEntity
  8
11000_LEFT
370
    25
390
0
  6
CONTINUOUS
 62
     7
100
AcDbLine
 10
166.818079
 20
116.880774
 30
0.0
 11
170.200006
 21
116.880774
 31
0.0
  0
LINE
  5
11E6
100
AcDbEntity
  8
11000_LEFT
370
    25
390
0
  6
CONTINUOUS
 62
     7
100
AcDbLine
 10
164.400006
 20
116.899995
 30
0.0
 11
165.400006
 21
116.899995
 31
0.0
  0
LINE
  5
11E7
100
AcDbEntity
  8
11000_LEFT
370
    25
390
0
  6
CONTINUOUS
 62
     7
100
AcDbLine
 10
139.299006
 20
117.649994
 30
0.0
 11
142.299006
 21
117.649994
 31
0.0
  0
LINE
  5
11E8
100
AcDbEntity
  8
11000_LEFT
370
    25
390
0
  6
CONTINUOUS
 62
     7
100
AcDbLine
 10
160.549007
 20
117.749995
 30
0.0
 11
160.550006
 21
117.749995
 31
0.0
  0
LINE
  5
11E9
100
AcDbEntity
  8
11000_LEFT
370
    25
390
0
  6
CONTINUOUS
 62
     7
100
AcDbLine
 10
168.021175
 20
117.879027
 30
0.0
 11
170.200006
 21
117.879027
 31
0.0
  0
LINE
  5
11EA
100
AcDbEntity
  8
11000_LEFT
370
    25
390
0
  6
CONTINUOUS
 62
     7
100
AcDbLine
 10
161.599006
 20
118.399995
 30
0.0
 11
163.399006
 21
118.399995
 31
0.0
  0
LINE
  5
11EB
100
AcDbEntity
  8
11000_LEFT
370
    25
390
0
  6
CONTINUOUS
 62
     7
100
AcDbLine
 10
124.000004
 20
119.399995
 30
0.0
 11
129.926064
 21
119.399995
 31
0.0
  0
LINE
  5
11EC
100
AcDbEntity
  8
11000_LEFT
370
    25
390
0
  6
CONTINUOUS
 62
     7
100
AcDbLine
 10
170.200006
 20
119.499995
 30
0.0
 11
170.400008
 21
119.499995
 31
0.0
  0
LINE
  5
11ED
100
AcDbEntity
  8
11000_LEFT
370
    25
390
0
  6
CONTINUOUS
 62
     7
100
AcDbLine
 10
160.550006
 20
119.749995
 30
0.0
 11
161.599006
 21
119.749995
 31
0.0
  0
LINE
  5
11EE
100
AcDbEntity
  8
11000_LEFT
370
    25
390
0
  6
CONTINUOUS
 62
     7
100
AcDbLine
 10
171.480006
 20
119.999995
 30
0.0
 11
172.200006
 21
119.999995
 31
0.0
  0
LINE
  5
11EF
100
AcDbEntity
  8
11000_LEFT
370
    25
390
0
  6
CONTINUOUS
 62
     7
100
AcDbLine
 10
172.200006
 20
120.049995
 30
0.0
 11
175.200006
 21
120.049995
 31
0.0
  0
LINE
  5
11F0
100
AcDbEntity
  8
11000_LEFT
370
    25
390
0
  6
CONTINUOUS
 62
     7
100
AcDbLine
 10
160.550006
 20
120.149995
 30
0.0
 11
161.599006
 21
120.149995
 31
0.0
  0
LINE
  5
11F1
100
AcDbEntity
  8
11000_LEFT
370
    25
390
0
  6
CONTINUOUS
 62
     7
100
AcDbLine
 10
150.199006
 20
120.999994
 30
0.0
 11
159.549006
 21
120.999994
 31
0.0
  0
LINE
  5
11F2
100
AcDbEntity
  8
11000_LEFT
370
    25
390
0
  6
CONTINUOUS
 62
     7
100
AcDbLine
 10
152.300006
 20
121.199995
 30
0.0
 11
160.550006
 21
121.199995
 31
0.0
  0
LINE
  5
11F3
100
AcDbEntity
  8
11000_LEFT
370
    25
390
0
  6
CONTINUOUS
 62
     7
100
AcDbLine
 10
150.700006
 20
121.250347
 30
0.0
 11
152.300006
 21
121.250347
 31
0.0
  0
LINE
  5
11F4
100
AcDbEntity
  8
11000_LEFT
370
    25
390
0
  6
CONTINUOUS
 62
     7
100
AcDbLine
 10
150.700006
 20
121.255704
 30
0.0
 11
152.300006
 21
121.255704
 31
0.0
  0
LINE
  5
11F5
100
AcDbEntity
  8
11000_LEFT
370
    25
390
0
  6
CONTINUOUS
 62
     7
100
AcDbLine
 10
150.199006
 20
121.699995
 30
0.0
 11
150.650006
 21
121.699995
 31
0.0
  0
LINE
  5
11F6
100
AcDbEntity
  8
11000_LEFT
370
    25
390
0
  6
CONTINUOUS
 62
     7
100
AcDbLine
 10
150.700006
 20
121.889795
 30
0.0
 11
152.300006
 21
121.889795
 31
0.0
  0
LINE
  5
11F7
100
AcDbEntity
  8
11000_LEFT
370
    25
390
0
  6
CONTINUOUS
 62
     7
100
AcDbLine
 10
128.344807
 20
121.901599
 30
0.0
 11
133.144808
 21
121.901599
 31
0.0
  0
LINE
  5
11F8
100
AcDbEntity
  8
11000_LEFT
370
    25
390
0
  6
CONTINUOUS
 62
     7
100
AcDbLine
 10
161.599006
 20
123.399995
 30
0.0
 11
163.399006
 21
123.399995
 31
0.0
  0
LINE
  5
11F9
100
AcDbEntity
  8
11000_LEFT
370
    25
390
0
  6
CONTINUOUS
 62
     7
100
AcDbLine
 10
146.299006
 20
123.399995
 30
0.0
 11
150.199006
 21
123.399995
 31
0.0
  0
LINE
  5
11FA
100
AcDbEntity
  8
11000_LEFT
370
    25
390
0
  6
CONTINUOUS
 62
     7
100
AcDbLine
 10
149.799006
 20
123.414495
 30
0.0
 11
150.199006
 21
123.414495
 31
0.0
  0
LINE
  5
11FB
100
AcDbEntity
  8
11000_LEFT
370
    25
390
0
  6
CONTINUOUS
 62
     7
100
AcDbLine
 10
160.550006
 20
123.599996
 30
0.0
 11
163.050006
 21
123.599996
 31
0.0
  0
LINE
  5
11FC
100
AcDbEntity
  8
11000_LEFT
370
    25
390
0
  6
CONTINUOUS
 62
     7
100
AcDbLine
 10
149.799006
 20
125.899995
 30
0.0
 11
150.199006
 21
125.899995
 31
0.0
  0
LINE
  5
11FD
100
AcDbEntity
  8
11000_LEFT
370
    25
390
0
  6
CONTINUOUS
 62
     7
100
AcDbLine
 10
148.049006
 20
126.300002
 30
0.0
 11
150.199006
 21
126.300002
 31
0.0
  0
LINE
  5
11FE
100
AcDbEntity
  8
11000_LEFT
370
    25
390
0
  6
CONTINUOUS
 62
     7
100
AcDbLine
 10
142.550006
 20
126.599996
 30
0.0
 11
144.849005
 21
126.599996
 31
0.0
  0
LINE
  5
11FF
100
AcDbEntity
  8
11000_LEFT
370
    25
390
0
  6
CONTINUOUS
 62
     7
100
AcDbLine
 10
150.199006
 20
126.599996
 30
0.0
 11
150.650006
 21
126.599996
 31
0.0
  0
LINE
  5
1200
100
AcDbEntity
  8
11000_LEFT
370
    25
390
0
  6
CONTINUOUS
 62
     7
100
AcDbLine
 10
144.849005
 20
126.749995
 30
0.0
 11
148.049006
 21
126.749995
 31
0.0
  0
LINE
  5
1201
100
AcDbEntity
  8
11000_LEFT
370
    25
390
0
  6
CONTINUOUS
 62
     7
100
AcDbLine
 10
144.849005
 20
127.093208
 30
0.0
 11
148.049006
 21
127.093208
 31
0.0
  0
LINE
  5
1202
100
AcDbEntity
  8
11000_LEFT
370
    25
390
0
  6
CONTINUOUS
 62
     7
100
AcDbLine
 10
144.849005
 20
127.49402
 30
0.0
 11
148.049006
 21
127.49402
 31
0.0
  0
LINE
  5
1203
100
AcDbEntity
  8
11000_LEFT
370
    25
390
0
  6
CONTINUOUS
 62
     7
100
AcDbLine
 10
150.700006
 20
127.649484
 30
0.0
 11
152.300006
 21
127.649484
 31
0.0
  0
LINE
  5
1204
100
AcDbEntity
  8
11000_LEFT
370
    25
390
0
  6
CONTINUOUS
 62
     7
100
AcDbLine
 10
144.849005
 20
127.894019
 30
0.0
 11
148.049006
 21
127.894019
 31
0.0
  0
LINE
  5
1205
100
AcDbEntity
  8
11000_LEFT
370
    25
390
0
  6
CONTINUOUS
 62
     7
100
AcDbLine
 10
150.650006
 20
128.149995
 30
0.0
 11
150.700013
 21
128.149995
 31
0.0
  0
LINE
  5
1206
100
AcDbEntity
  8
11000_LEFT
370
    25
390
0
  6
CONTINUOUS
 62
     7
100
AcDbLine
 10
163.050006
 20
128.149995
 30
0.0
 11
163.200006
 21
128.149995
 31
0.0
  0
LINE
  5
1207
100
AcDbEntity
  8
11000_LEFT
370
    25
390
0
  6
CONTINUOUS
 62
     7
100
AcDbLine
 10
150.700006
 20
128.727744
 30
0.0
 11
152.300006
 21
128.727744
 31
0.0
  0
LINE
  5
1208
100
AcDbEntity
  8
11000_LEFT
370
    25
390
0
  6
CONTINUOUS
 62
     7
100
AcDbLine
 10
150.199006
 20
128.899995
 30
0.0
 11
150.700006
 21
128.899995
 31
0.0
  0
LINE
  5
1209
100
AcDbEntity
  8
11000_LEFT
370
    25
390
0
  6
CONTINUOUS
 62
     7
100
AcDbLine
 10
150.700006
 20
129.003554
 30
0.0
 11
152.300006
 21
129.003554
 31
0.0
  0
LINE
  5
120A
100
AcDbEntity
  8
11000_LEFT
370
    25
390
0
  6
CONTINUOUS
 62
     7
100
AcDbLine
 10
150.700006
 20
129.003558
 30
0.0
 11
152.300006
 21
129.003558
 31
0.0
  0
LINE
  5
120B
100
AcDbEntity
  8
11000_LEFT
370
    25
390
0
  6
CONTINUOUS
 62
     7
100
AcDbLine
 10
152.299015
 20
130.099996
 30
0.0
 11
163.050006
 21
130.099996
 31
0.0
  0
LINE
  5
120C
100
AcDbEntity
  8
11000_LEFT
370
    25
390
0
  6
CONTINUOUS
 62
     7
100
AcDbLine
 10
148.049006
 20
130.099996
 30
0.0
 11
152.299006
 21
130.099996
 31
0.0
  0
LINE
  5
120D
100
AcDbEntity
  8
11000_LEFT
370
    25
390
0
  6
CONTINUOUS
 62
     7
100
AcDbLine
 10
166.81806
 20
104.250143
 30
0.0
 11
166.870505
 21
104.250905
 31
0.0
  0
LINE
  5
120E
100
AcDbEntity
  8
11000_LEFT
370
    25
390
0
  6
CONTINUOUS
 62
     7
100
AcDbLine
 10
142.299006
 20
94.390535
 30
0.0
 11
154.249006
 21
94.599122
 31
0.0
  0
LINE
  5
120F
100
AcDbEntity
  8
11000_LEFT
370
    25
390
0
  6
CONTINUOUS
 62
     7
100
AcDbLine
 10
148.299006
 20
109.795265
 30
0.0
 11
154.249006
 21
109.899122
 31
0.0
  0
LINE
  5
1210
100
AcDbEntity
  8
11000_LEFT
370
    25
390
0
  6
CONTINUOUS
 62
     7
100
AcDbLine
 10
166.870505
 20
104.250905
 30
0.0
 11
166.9232
 21
104.253174
 31
0.0
  0
LINE
  5
1211
100
AcDbEntity
  8
11000_LEFT
370
    25
390
0
  6
CONTINUOUS
 62
     7
100
AcDbLine
 10
170.400006
 20
119.945428
 30
0.0
 11
171.300006
 21
119.992595
 31
0.0
  0
LINE
  5
1212
100
AcDbEntity
  8
11000_LEFT
370
    25
390
0
  6
CONTINUOUS
 62
     7
100
AcDbLine
 10
171.300013
 20
119.513106
 30
0.0
 11
171.480006
 21
119.522546
 31
0.0
  0
LINE
  5
1213
100
AcDbEntity
  8
11000_LEFT
370
    25
390
0
  6
CONTINUOUS
 62
     7
100
AcDbLine
 10
166.9232
 20
104.253174
 30
0.0
 11
166.976021
 21
104.257001
 31
0.0
  0
LINE
  5
1214
100
AcDbEntity
  8
11000_LEFT
370
    25
390
0
  6
CONTINUOUS
 62
     7
100
AcDbLine
 10
166.976021
 20
104.257001
 30
0.0
 11
167.028845
 21
104.262438
 31
0.0
  0
LINE
  5
1215
100
AcDbEntity
  8
11000_LEFT
370
    25
390
0
  6
CONTINUOUS
 62
     7
100
AcDbLine
 10
120.700005
 20
120.925591
 30
0.0
 11
128.314141
 21
121.899995
 31
0.0
  0
LINE
  5
1216
100
AcDbEntity
  8
11000_LEFT
370
    25
390
0
  6
CONTINUOUS
 62
     7
100
AcDbLine
 10
120.674618
 20
120.922341
 30
0.0
 11
120.700005
 21
120.925591
 31
0.0
  0
LINE
  5
1217
100
AcDbEntity
  8
11000_LEFT
370
    25
390
0
  6
CONTINUOUS
 62
     7
100
AcDbLine
 10
167.028845
 20
104.262438
 30
0.0
 11
167.081546
 21
104.269535
 31
0.0
  0
LINE
  5
1218
100
AcDbEntity
  8
11000_LEFT
370
    25
390
0
  6
CONTINUOUS
 62
     7
100
AcDbLine
 10
139.299006
 20
122.399995
 30
0.0
 11
146.299006
 21
123.399995
 31
0.0
  0
LINE
  5
1219
100
AcDbEntity
  8
11000_LEFT
370
    25
390
0
  6
CONTINUOUS
 62
     7
100
AcDbLine
 10
128.314141
 20
89.899995
 30
0.0
 11
133.574036
 21
90.723673
 31
0.0
  0
LINE
  5
121A
100
AcDbEntity
  8
11000_LEFT
370
    25
390
0
  6
CONTINUOUS
 62
     7
100
AcDbLine
 10
142.299006
 20
102.899994
 30
0.0
 11
148.299006
 21
103.900003
 31
0.0
  0
LINE
  5
121B
100
AcDbEntity
  8
11000_LEFT
370
    25
390
0
  6
CONTINUOUS
 62
     7
100
AcDbLine
 10
167.081546
 20
104.269535
 30
0.0
 11
167.134001
 21
104.278345
 31
0.0
  0
LINE
  5
121C
100
AcDbEntity
  8
11000_LEFT
370
    25
390
0
  6
CONTINUOUS
 62
     7
100
AcDbLine
 10
175.200006
 20
120.049995
 30
0.0
 11
178.591844
 21
120.649995
 31
0.0
  0
LINE
  5
121D
100
AcDbEntity
  8
11000_LEFT
370
    25
390
0
  6
CONTINUOUS
 62
     7
100
AcDbLine
 10
139.299006
 20
92.699994
 30
0.0
 11
142.299006
 21
93.299995
 31
0.0
  0
LINE
  5
121E
100
AcDbEntity
  8
11000_LEFT
370
    25
390
0
  6
CONTINUOUS
 62
     7
100
AcDbLine
 10
167.134001
 20
104.278345
 30
0.0
 11
167.186086
 21
104.288909
 31
0.0
  0
LINE
  5
121F
100
AcDbEntity
  8
11000_LEFT
370
    25
390
0
  6
CONTINUOUS
 62
     7
100
AcDbLine
 10
167.186086
 20
104.288909
 30
0.0
 11
167.237689
 21
104.301235
 31
0.0
  0
LINE
  5
1220
100
AcDbEntity
  8
11000_LEFT
370
    25
390
0
  6
CONTINUOUS
 62
     7
100
AcDbLine
 10
133.144808
 20
121.901599
 30
0.0
 11
137.799763
 21
123.048942
 31
0.0
  0
LINE
  5
1221
100
AcDbEntity
  8
11000_LEFT
370
    25
390
0
  6
CONTINUOUS
 62
     7
100
AcDbLine
 10
163.400006
 20
123.858903
 30
0.0
 11
164.125888
 21
124.053403
 31
0.0
  0
LINE
  5
1222
100
AcDbEntity
  8
11000_LEFT
370
    25
390
0
  6
CONTINUOUS
 62
     7
100
AcDbLine
 10
167.237689
 20
104.301235
 30
0.0
 11
167.288698
 21
104.315326
 31
0.0
  0
LINE
  5
1223
100
AcDbEntity
  8
11000_LEFT
370
    25
390
0
  6
CONTINUOUS
 62
     7
100
AcDbLine
 10
167.288698
 20
104.315326
 30
0.0
 11
167.339002
 21
104.331184
 31
0.0
  0
LINE
  5
1224
100
AcDbEntity
  8
11000_LEFT
370
    25
390
0
  6
CONTINUOUS
 62
     7
100
AcDbLine
 10
139.967272
 20
117.209771
 30
0.0
 11
140.833626
 21
117.485644
 31
0.0
  0
LINE
  5
1225
100
AcDbEntity
  8
11000_LEFT
370
    25
390
0
  6
CONTINUOUS
 62
     7
100
AcDbLine
 10
167.339002
 20
104.331184
 30
0.0
 11
167.388489
 21
104.348812
 31
0.0
  0
LINE
  5
1226
100
AcDbEntity
  8
11000_LEFT
370
    25
390
0
  6
CONTINUOUS
 62
     7
100
AcDbLine
 10
167.388489
 20
104.348812
 30
0.0
 11
167.437047
 21
104.368212
 31
0.0
  0
LINE
  5
1227
100
AcDbEntity
  8
11000_LEFT
370
    25
390
0
  6
CONTINUOUS
 62
     7
100
AcDbLine
 10
167.437047
 20
104.368212
 30
0.0
 11
167.484565
 21
104.389387
 31
0.0
  0
LINE
  5
1228
100
AcDbEntity
  8
11000_LEFT
370
    25
390
0
  6
CONTINUOUS
 62
     7
100
AcDbLine
 10
167.484565
 20
104.389387
 30
0.0
 11
167.530931
 21
104.41234
 31
0.0
  0
LINE
  5
1229
100
AcDbEntity
  8
11000_LEFT
370
    25
390
0
  6
CONTINUOUS
 62
     7
100
AcDbLine
 10
167.530931
 20
104.41234
 30
0.0
 11
167.576034
 21
104.437074
 31
0.0
  0
LINE
  5
122A
100
AcDbEntity
  8
11000_LEFT
370
    25
390
0
  6
CONTINUOUS
 62
     7
100
AcDbLine
 10
165.600006
 20
116.242376
 30
0.0
 11
166.399021
 21
116.699279
 31
0.0
  0
LINE
  5
122B
100
AcDbEntity
  8
11000_LEFT
370
    25
390
0
  6
CONTINUOUS
 62
     7
100
AcDbLine
 10
167.576034
 20
104.437074
 30
0.0
 11
167.619761
 21
104.46359
 31
0.0
  0
LINE
  5
122C
100
AcDbEntity
  8
11000_LEFT
370
    25
390
0
  6
CONTINUOUS
 62
     7
100
AcDbLine
 10
167.619761
 20
104.46359
 30
0.0
 11
167.662501
 21
104.492255
 31
0.0
  0
LINE
  5
122D
100
AcDbEntity
  8
11000_LEFT
370
    25
390
0
  6
CONTINUOUS
 62
     7
100
AcDbLine
 10
166.399021
 20
116.699279
 30
0.0
 11
168.021175
 21
117.879027
 31
0.0
  0
LINE
  5
122E
100
AcDbEntity
  8
11000_LEFT
370
    25
390
0
  6
CONTINUOUS
 62
     7
100
AcDbLine
 10
166.757641
 20
116.836323
 30
0.0
 11
166.818079
 21
116.880774
 31
0.0
  0
LINE
  5
122F
100
AcDbEntity
  8
11000_LEFT
370
    25
390
0
  6
CONTINUOUS
 62
     7
100
AcDbLine
 10
166.697443
 20
116.792046
 30
0.0
 11
166.757641
 21
116.836323
 31
0.0
  0
LINE
  5
1230
100
AcDbEntity
  8
11000_LEFT
370
    25
390
0
  6
CONTINUOUS
 62
     7
100
AcDbLine
 10
166.637484
 20
116.747939
 30
0.0
 11
166.697443
 21
116.792046
 31
0.0
  0
LINE
  5
1231
100
AcDbEntity
  8
11000_LEFT
370
    25
390
0
  6
CONTINUOUS
 62
     7
100
AcDbLine
 10
166.577761
 20
116.704003
 30
0.0
 11
166.637484
 21
116.747939
 31
0.0
  0
LINE
  5
1232
100
AcDbEntity
  8
11000_LEFT
370
    25
390
0
  6
CONTINUOUS
 62
     7
100
AcDbLine
 10
166.518275
 20
116.660237
 30
0.0
 11
166.577761
 21
116.704003
 31
0.0
  0
LINE
  5
1233
100
AcDbEntity
  8
11000_LEFT
370
    25
390
0
  6
CONTINUOUS
 62
     7
100
AcDbLine
 10
166.459024
 20
116.616639
 30
0.0
 11
166.518275
 21
116.660237
 31
0.0
  0
LINE
  5
1234
100
AcDbEntity
  8
11000_LEFT
370
    25
390
0
  6
CONTINUOUS
 62
     7
100
AcDbLine
 10
166.400006
 20
116.573209
 30
0.0
 11
166.459024
 21
116.616639
 31
0.0
  0
LINE
  5
1235
100
AcDbEntity
  8
11000_LEFT
370
    25
390
0
  6
CONTINUOUS
 62
     7
100
AcDbLine
 10
166.81806
 20
116.8808
 30
0.0
 11
166.870505
 21
116.919484
 31
0.0
  0
LINE
  5
1236
100
AcDbEntity
  8
11000_LEFT
370
    25
390
0
  6
CONTINUOUS
 62
     7
100
AcDbLine
 10
166.870505
 20
116.919484
 30
0.0
 11
166.9232
 21
116.95857
 31
0.0
  0
LINE
  5
1237
100
AcDbEntity
  8
11000_LEFT
370
    25
390
0
  6
CONTINUOUS
 62
     7
100
AcDbLine
 10
167.662501
 20
104.492255
 30
0.0
 11
167.705505
 21
104.524209
 31
0.0
  0
LINE
  5
1238
100
AcDbEntity
  8
11000_LEFT
370
    25
390
0
  6
CONTINUOUS
 62
     7
100
AcDbLine
 10
166.9232
 20
116.95857
 30
0.0
 11
166.976021
 21
116.997972
 31
0.0
  0
LINE
  5
1239
100
AcDbEntity
  8
11000_LEFT
370
    25
390
0
  6
CONTINUOUS
 62
     7
100
AcDbLine
 10
166.976021
 20
116.997972
 30
0.0
 11
167.028845
 21
117.037601
 31
0.0
  0
LINE
  5
123A
100
AcDbEntity
  8
11000_LEFT
370
    25
390
0
  6
CONTINUOUS
 62
     7
100
AcDbLine
 10
167.028845
 20
117.037601
 30
0.0
 11
167.081546
 21
117.077372
 31
0.0
  0
LINE
  5
123B
100
AcDbEntity
  8
11000_LEFT
370
    25
390
0
  6
CONTINUOUS
 62
     7
100
AcDbLine
 10
167.081546
 20
117.077372
 30
0.0
 11
167.134001
 21
117.117196
 31
0.0
  0
LINE
  5
123C
100
AcDbEntity
  8
11000_LEFT
370
    25
390
0
  6
CONTINUOUS
 62
     7
100
AcDbLine
 10
167.134001
 20
117.117196
 30
0.0
 11
167.186086
 21
117.156987
 31
0.0
  0
LINE
  5
123D
100
AcDbEntity
  8
11000_LEFT
370
    25
390
0
  6
CONTINUOUS
 62
     7
100
AcDbLine
 10
167.186086
 20
117.156987
 30
0.0
 11
167.237689
 21
117.196654
 31
0.0
  0
LINE
  5
123E
100
AcDbEntity
  8
11000_LEFT
370
    25
390
0
  6
CONTINUOUS
 62
     7
100
AcDbLine
 10
167.237689
 20
117.196654
 30
0.0
 11
167.288698
 21
117.236102
 31
0.0
  0
LINE
  5
123F
100
AcDbEntity
  8
11000_LEFT
370
    25
390
0
  6
CONTINUOUS
 62
     7
100
AcDbLine
 10
167.288698
 20
117.236102
 30
0.0
 11
167.339002
 21
117.275244
 31
0.0
  0
LINE
  5
1240
100
AcDbEntity
  8
11000_LEFT
370
    25
390
0
  6
CONTINUOUS
 62
     7
100
AcDbLine
 10
167.339002
 20
117.275244
 30
0.0
 11
167.388489
 21
117.313985
 31
0.0
  0
LINE
  5
1241
100
AcDbEntity
  8
11000_LEFT
370
    25
390
0
  6
CONTINUOUS
 62
     7
100
AcDbLine
 10
167.388489
 20
117.313985
 30
0.0
 11
167.437047
 21
117.352235
 31
0.0
  0
LINE
  5
1242
100
AcDbEntity
  8
11000_LEFT
370
    25
390
0
  6
CONTINUOUS
 62
     7
100
AcDbLine
 10
167.437047
 20
117.352235
 30
0.0
 11
167.484565
 21
117.389901
 31
0.0
  0
LINE
  5
1243
100
AcDbEntity
  8
11000_LEFT
370
    25
390
0
  6
CONTINUOUS
 62
     7
100
AcDbLine
 10
167.484565
 20
117.389901
 30
0.0
 11
167.530931
 21
117.426892
 31
0.0
  0
LINE
  5
1244
100
AcDbEntity
  8
11000_LEFT
370
    25
390
0
  6
CONTINUOUS
 62
     7
100
AcDbLine
 10
167.530931
 20
117.426892
 30
0.0
 11
167.576034
 21
117.463117
 31
0.0
  0
LINE
  5
1245
100
AcDbEntity
  8
11000_LEFT
370
    25
390
0
  6
CONTINUOUS
 62
     7
100
AcDbLine
 10
167.576034
 20
117.463117
 30
0.0
 11
167.619761
 21
117.498483
 31
0.0
  0
LINE
  5
1246
100
AcDbEntity
  8
11000_LEFT
370
    25
390
0
  6
CONTINUOUS
 62
     7
100
AcDbLine
 10
167.619761
 20
117.498483
 30
0.0
 11
167.662501
 21
117.533308
 31
0.0
  0
LINE
  5
1247
100
AcDbEntity
  8
11000_LEFT
370
    25
390
0
  6
CONTINUOUS
 62
     7
100
AcDbLine
 10
167.662501
 20
117.533308
 30
0.0
 11
167.705505
 21
117.568623
 31
0.0
  0
LINE
  5
1248
100
AcDbEntity
  8
11000_LEFT
370
    25
390
0
  6
CONTINUOUS
 62
     7
100
AcDbLine
 10
167.705505
 20
104.524209
 30
0.0
 11
167.748204
 21
104.559432
 31
0.0
  0
LINE
  5
1249
100
AcDbEntity
  8
11000_LEFT
370
    25
390
0
  6
CONTINUOUS
 62
     7
100
AcDbLine
 10
167.705505
 20
117.568623
 30
0.0
 11
167.748204
 21
117.603979
 31
0.0
  0
LINE
  5
124A
100
AcDbEntity
  8
11000_LEFT
370
    25
390
0
  6
CONTINUOUS
 62
     7
100
AcDbLine
 10
167.748204
 20
117.603979
 30
0.0
 11
167.789892
 21
117.638817
 31
0.0
  0
LINE
  5
124B
100
AcDbEntity
  8
11000_LEFT
370
    25
390
0
  6
CONTINUOUS
 62
     7
100
AcDbLine
 10
167.789892
 20
117.638817
 30
0.0
 11
167.829863
 21
117.672572
 31
0.0
  0
LINE
  5
124C
100
AcDbEntity
  8
11000_LEFT
370
    25
390
0
  6
CONTINUOUS
 62
     7
100
AcDbLine
 10
167.829863
 20
117.672572
 30
0.0
 11
167.867485
 21
117.704729
 31
0.0
  0
LINE
  5
124D
100
AcDbEntity
  8
11000_LEFT
370
    25
390
0
  6
CONTINUOUS
 62
     7
100
AcDbLine
 10
167.867485
 20
117.704729
 30
0.0
 11
167.902293
 21
117.734875
 31
0.0
  0
LINE
  5
124E
100
AcDbEntity
  8
11000_LEFT
370
    25
390
0
  6
CONTINUOUS
 62
     7
100
AcDbLine
 10
167.902293
 20
117.734875
 30
0.0
 11
167.933836
 21
117.762612
 31
0.0
  0
LINE
  5
124F
100
AcDbEntity
  8
11000_LEFT
370
    25
390
0
  6
CONTINUOUS
 62
     7
100
AcDbLine
 10
167.933836
 20
117.762612
 30
0.0
 11
167.961683
 21
117.787559
 31
0.0
  0
LINE
  5
1250
100
AcDbEntity
  8
11000_LEFT
370
    25
390
0
  6
CONTINUOUS
 62
     7
100
AcDbLine
 10
167.961683
 20
117.787559
 30
0.0
 11
167.986715
 21
117.810534
 31
0.0
  0
LINE
  5
1251
100
AcDbEntity
  8
11000_LEFT
370
    25
390
0
  6
CONTINUOUS
 62
     7
100
AcDbLine
 10
167.748204
 20
104.559432
 30
0.0
 11
167.789892
 21
104.59781
 31
0.0
  0
LINE
  5
1252
100
AcDbEntity
  8
11000_LEFT
370
    25
390
0
  6
CONTINUOUS
 62
     7
100
AcDbLine
 10
167.986715
 20
117.810534
 30
0.0
 11
168.008785
 21
117.831452
 31
0.0
  0
LINE
  5
1253
100
AcDbEntity
  8
11000_LEFT
370
    25
390
0
  6
CONTINUOUS
 62
     7
100
AcDbLine
 10
168.008785
 20
117.831452
 30
0.0
 11
168.02676
 21
117.849336
 31
0.0
  0
LINE
  5
1254
100
AcDbEntity
  8
11000_LEFT
370
    25
390
0
  6
CONTINUOUS
 62
     7
100
AcDbLine
 10
140.258586
 20
95.758574
 30
0.0
 11
142.299012
 21
97.799001
 31
0.0
  0
LINE
  5
1255
100
AcDbEntity
  8
11000_LEFT
370
    25
390
0
  6
CONTINUOUS
 62
     7
100
AcDbLine
 10
120.500004
 20
102.899995
 30
0.0
 11
120.700005
 21
103.099996
 31
0.0
  0
LINE
  5
1256
100
AcDbEntity
  8
11000_LEFT
370
    25
390
0
  6
CONTINUOUS
 62
     7
100
AcDbLine
 10
167.789892
 20
104.59781
 30
0.0
 11
167.829863
 21
104.63923
 31
0.0
  0
LINE
  5
1257
100
AcDbEntity
  8
11000_LEFT
370
    25
390
0
  6
CONTINUOUS
 62
     7
100
AcDbLine
 10
168.02676
 20
117.849336
 30
0.0
 11
168.039697
 21
117.863354
 31
0.0
  0
LINE
  5
1258
100
AcDbEntity
  8
11000_LEFT
370
    25
390
0
  6
CONTINUOUS
 62
     7
100
AcDbLine
 10
167.829863
 20
104.63923
 30
0.0
 11
167.867485
 21
104.68347
 31
0.0
  0
LINE
  5
1259
100
AcDbEntity
  8
11000_LEFT
370
    25
390
0
  6
CONTINUOUS
 62
     7
100
AcDbLine
 10
168.039697
 20
117.863354
 30
0.0
 11
168.047435
 21
117.873278
 31
0.0
  0
LINE
  5
125A
100
AcDbEntity
  8
11000_LEFT
370
    25
390
0
  6
CONTINUOUS
 62
     7
100
AcDbLine
 10
167.867485
 20
104.68347
 30
0.0
 11
167.902293
 21
104.730065
 31
0.0
  0
LINE
  5
125B
100
AcDbEntity
  8
11000_LEFT
370
    25
390
0
  6
CONTINUOUS
 62
     7
100
AcDbLine
 10
167.902293
 20
104.730065
 30
0.0
 11
167.933836
 21
104.778526
 31
0.0
  0
LINE
  5
125C
100
AcDbEntity
  8
11000_LEFT
370
    25
390
0
  6
CONTINUOUS
 62
     7
100
AcDbLine
 10
167.933836
 20
104.778526
 30
0.0
 11
167.961683
 21
104.828406
 31
0.0
  0
LINE
  5
125D
100
AcDbEntity
  8
11000_LEFT
370
    25
390
0
  6
CONTINUOUS
 62
     7
100
AcDbLine
 10
133.718018
 20
90.824304
 30
0.0
 11
136.420657
 21
95.699995
 31
0.0
  0
LINE
  5
125E
100
AcDbEntity
  8
11000_LEFT
370
    25
390
0
  6
CONTINUOUS
 62
     7
100
AcDbLine
 10
167.961683
 20
104.828406
 30
0.0
 11
167.986715
 21
104.881977
 31
0.0
  0
LINE
  5
125F
100
AcDbEntity
  8
11000_LEFT
370
    25
390
0
  6
CONTINUOUS
 62
     7
100
AcDbLine
 10
168.047435
 20
117.873278
 30
0.0
 11
168.050007
 21
117.879027
 31
0.0
  0
LINE
  5
1260
100
AcDbEntity
  8
11000_LEFT
370
    25
390
0
  6
CONTINUOUS
 62
     7
100
AcDbLine
 10
167.986715
 20
104.881977
 30
0.0
 11
168.008785
 21
104.939963
 31
0.0
  0
LINE
  5
1261
100
AcDbEntity
  8
11000_LEFT
370
    25
390
0
  6
CONTINUOUS
 62
     7
100
AcDbLine
 10
129.926064
 20
119.399995
 30
0.0
 11
130.700005
 21
121.526379
 31
0.0
  0
LINE
  5
1262
100
AcDbEntity
  8
11000_LEFT
370
    25
390
0
  6
CONTINUOUS
 62
     7
100
AcDbLine
 10
168.008785
 20
104.939963
 30
0.0
 11
168.02676
 21
105.001225
 31
0.0
  0
LINE
  5
1263
100
AcDbEntity
  8
11000_LEFT
370
    25
390
0
  6
CONTINUOUS
 62
     7
100
AcDbLine
 10
137.371339
 20
120.223827
 30
0.0
 11
137.890769
 21
122.256644
 31
0.0
  0
LINE
  5
1264
100
AcDbEntity
  8
11000_LEFT
370
    25
390
0
  6
CONTINUOUS
 62
     7
100
AcDbLine
 10
168.02676
 20
105.001225
 30
0.0
 11
168.039697
 21
105.064539
 31
0.0
  0
LINE
  5
1265
100
AcDbEntity
  8
11000_LEFT
370
    25
390
0
  6
CONTINUOUS
 62
     7
100
AcDbLine
 10
141.30745
 20
116.099996
 30
0.0
 11
141.441806
 21
116.861964
 31
0.0
  0
LINE
  5
1266
100
AcDbEntity
  8
11000_LEFT
370
    25
390
0
  6
CONTINUOUS
 62
     7
100
AcDbLine
 10
168.039697
 20
105.064539
 30
0.0
 11
168.047435
 21
105.128321
 31
0.0
  0
LINE
  5
1267
100
AcDbEntity
  8
11000_LEFT
370
    25
390
0
  6
CONTINUOUS
 62
     7
100
AcDbLine
 10
168.035879
 20
106.406272
 30
0.0
 11
168.050007
 21
106.609086
 31
0.0
  0
LINE
  5
1268
100
AcDbEntity
  8
11000_LEFT
370
    25
390
0
  6
CONTINUOUS
 62
     7
100
AcDbLine
 10
168.026467
 20
106.203674
 30
0.0
 11
168.035879
 21
106.406272
 31
0.0
  0
LINE
  5
1269
100
AcDbEntity
  8
11000_LEFT
370
    25
390
0
  6
CONTINUOUS
 62
     7
100
AcDbLine
 10
168.047435
 20
105.128321
 30
0.0
 11
168.050007
 21
105.190904
 31
0.0
  0
LINE
  5
126A
100
AcDbEntity
  8
11000_LEFT
370
    25
390
0
  6
CONTINUOUS
 62
     7
100
AcDbLine
 10
168.021763
 20
106.001207
 30
0.0
 11
168.026467
 21
106.203674
 31
0.0
  0
LINE
  5
126B
100
AcDbEntity
  8
11000_LEFT
370
    25
390
0
  6
CONTINUOUS
 62
     7
100
AcDbLine
 10
138.427247
 20
118.576614
 30
0.0
 11
138.444724
 21
119.540844
 31
0.0
  0
LINE
  5
126C
100
AcDbEntity
  8
11000_LEFT
370
    25
390
0
  6
CONTINUOUS
 62
     7
100
AcDbLine
 10
120.500008
 20
108.899995
 30
0.0
 11
120.500008
 21
120.723959
 31
0.0
  0
LINE
  5
126D
100
AcDbEntity
  8
11000_LEFT
370
    25
390
0
  6
CONTINUOUS
 62
     7
100
AcDbLine
 10
120.500008
 20
91.076032
 30
0.0
 11
120.500008
 21
102.899995
 31
0.0
  0
LINE
  5
126E
100
AcDbEntity
  8
11000_LEFT
370
    25
390
0
  6
CONTINUOUS
 62
     7
100
AcDbLine
 10
120.700005
 20
90.8744
 30
0.0
 11
120.700005
 21
120.925591
 31
0.0
  0
LINE
  5
126F
100
AcDbEntity
  8
11000_LEFT
370
    25
390
0
  6
CONTINUOUS
 62
     7
100
AcDbLine
 10
124.000004
 20
90.452089
 30
0.0
 11
124.000004
 21
92.399995
 31
0.0
  0
LINE
  5
1270
100
AcDbEntity
  8
11000_LEFT
370
    25
390
0
  6
CONTINUOUS
 62
     7
100
AcDbLine
 10
124.000004
 20
119.399995
 30
0.0
 11
124.000004
 21
121.347901
 31
0.0
  0
LINE
  5
1271
100
AcDbEntity
  8
11000_LEFT
370
    25
390
0
  6
CONTINUOUS
 62
     7
100
AcDbLine
 10
128.344807
 20
121.895193
 30
0.0
 11
128.344807
 21
121.901599
 31
0.0
  0
LINE
  5
1272
100
AcDbEntity
  8
11000_LEFT
370
    25
390
0
  6
CONTINUOUS
 62
     7
100
AcDbLine
 10
139.299006
 20
90.199995
 30
0.0
 11
139.299006
 21
92.699994
 31
0.0
  0
LINE
  5
1273
100
AcDbEntity
  8
11000_LEFT
370
    25
390
0
  6
CONTINUOUS
 62
     7
100
AcDbLine
 10
139.299006
 20
117.649994
 30
0.0
 11
139.299006
 21
122.399995
 31
0.0
  0
LINE
  5
1274
100
AcDbEntity
  8
11000_LEFT
370
    25
390
0
  6
CONTINUOUS
 62
     7
100
AcDbLine
 10
139.406731
 20
122.415383
 30
0.0
 11
139.406731
 21
122.526321
 31
0.0
  0
LINE
  5
1275
100
AcDbEntity
  8
11000_LEFT
370
    25
390
0
  6
CONTINUOUS
 62
     7
100
AcDbLine
 10
141.300006
 20
95.699995
 30
0.0
 11
141.300006
 21
96.799995
 31
0.0
  0
LINE
  5
1276
100
AcDbEntity
  8
11000_LEFT
370
    25
390
0
  6
CONTINUOUS
 62
     7
100
AcDbLine
 10
141.450005
 20
122.707278
 30
0.0
 11
141.450005
 21
126.482375
 31
0.0
  0
LINE
  5
1277
100
AcDbEntity
  8
11000_LEFT
370
    25
390
0
  6
CONTINUOUS
 62
     7
100
AcDbLine
 10
142.299006
 20
93.299995
 30
0.0
 11
142.299006
 21
102.899994
 31
0.0
  0
LINE
  5
1278
100
AcDbEntity
  8
11000_LEFT
370
    25
390
0
  6
CONTINUOUS
 62
     7
100
AcDbLine
 10
142.299006
 20
108.899995
 30
0.0
 11
142.299006
 21
116.809456
 31
0.0
  0
LINE
  5
1279
100
AcDbEntity
  8
11000_LEFT
370
    25
390
0
  6
CONTINUOUS
 62
     7
100
AcDbLine
 10
142.299006
 20
116.809456
 30
0.0
 11
142.299006
 21
117.649994
 31
0.0
  0
LINE
  5
127A
100
AcDbEntity
  8
11000_LEFT
370
    25
390
0
  6
CONTINUOUS
 62
     7
100
AcDbLine
 10
142.300006
 20
102.900166
 30
0.0
 11
142.300006
 21
108.899835
 31
0.0
  0
LINE
  5
127B
100
AcDbEntity
  8
11000_LEFT
370
    25
390
0
  6
CONTINUOUS
 62
     7
100
AcDbLine
 10
142.550006
 20
126.57492
 30
0.0
 11
142.550006
 21
126.599996
 31
0.0
  0
LINE
  5
127C
100
AcDbEntity
  8
11000_LEFT
370
    25
390
0
  6
CONTINUOUS
 62
     7
100
AcDbLine
 10
144.849005
 20
126.749999
 30
0.0
 11
144.849005
 21
127.894019
 31
0.0
  0
LINE
  5
127D
100
AcDbEntity
  8
11000_LEFT
370
    25
390
0
  6
CONTINUOUS
 62
     7
100
AcDbLine
 10
144.849005
 20
123.192859
 30
0.0
 11
144.849005
 21
126.749995
 31
0.0
  0
LINE
  5
127E
100
AcDbEntity
  8
11000_LEFT
370
    25
390
0
  6
CONTINUOUS
 62
     7
100
AcDbLine
 10
145.800006
 20
103.483499
 30
0.0
 11
145.800006
 21
108.31649
 31
0.0
  0
LINE
  5
127F
100
AcDbEntity
  8
11000_LEFT
370
    25
390
0
  6
CONTINUOUS
 62
     7
100
AcDbLine
 10
148.049006
 20
126.749995
 30
0.0
 11
148.049006
 21
130.099996
 31
0.0
  0
LINE
  5
1280
100
AcDbEntity
  8
11000_LEFT
370
    25
390
0
  6
CONTINUOUS
 62
     7
100
AcDbLine
 10
148.049006
 20
123.399995
 30
0.0
 11
148.049006
 21
126.300002
 31
0.0
  0
LINE
  5
1281
100
AcDbEntity
  8
11000_LEFT
370
    25
390
0
  6
CONTINUOUS
 62
     7
100
AcDbLine
 10
148.299006
 20
102.004725
 30
0.0
 11
148.299006
 21
109.795265
 31
0.0
  0
LINE
  5
1282
100
AcDbEntity
  8
11000_LEFT
370
    25
390
0
  6
CONTINUOUS
 62
     7
100
AcDbLine
 10
148.999006
 20
109.807483
 30
0.0
 11
148.999006
 21
113.799995
 31
0.0
  0
LINE
  5
1283
100
AcDbEntity
  8
11000_LEFT
370
    25
390
0
  6
CONTINUOUS
 62
     7
100
AcDbLine
 10
148.999006
 20
97.399995
 30
0.0
 11
148.999006
 21
101.992507
 31
0.0
  0
LINE
  5
1284
100
AcDbEntity
  8
11000_LEFT
370
    25
390
0
  6
CONTINUOUS
 62
     7
100
AcDbLine
 10
149.200006
 20
97.549995
 30
0.0
 11
149.200006
 21
101.988999
 31
0.0
  0
LINE
  5
1285
100
AcDbEntity
  8
11000_LEFT
370
    25
390
0
  6
CONTINUOUS
 62
     7
100
AcDbLine
 10
149.200006
 20
109.810993
 30
0.0
 11
149.200006
 21
112.549995
 31
0.0
  0
LINE
  5
1286
100
AcDbEntity
  8
11000_LEFT
370
    25
390
0
  6
CONTINUOUS
 62
     7
100
AcDbLine
 10
149.200006
 20
112.549995
 30
0.0
 11
149.200006
 21
113.649995
 31
0.0
  0
LINE
  5
1287
100
AcDbEntity
  8
11000_LEFT
370
    25
390
0
  6
CONTINUOUS
 62
     7
100
AcDbLine
 10
149.799006
 20
123.414495
 30
0.0
 11
149.799006
 21
125.899995
 31
0.0
  0
LINE
  5
1288
100
AcDbEntity
  8
11000_LEFT
370
    25
390
0
  6
CONTINUOUS
 62
     7
100
AcDbLine
 10
149.799006
 20
113.799995
 30
0.0
 11
149.799006
 21
116.678543
 31
0.0
  0
LINE
  5
1289
100
AcDbEntity
  8
11000_LEFT
370
    25
390
0
  6
CONTINUOUS
 62
     7
100
AcDbLine
 10
149.799006
 20
94.521447
 30
0.0
 11
149.799006
 21
97.399995
 31
0.0
  0
LINE
  5
128A
100
AcDbEntity
  8
11000_LEFT
370
    25
390
0
  6
CONTINUOUS
 62
     7
100
AcDbLine
 10
150.050006
 20
113.649995
 30
0.0
 11
150.050006
 21
116.674163
 31
0.0
  0
LINE
  5
128B
100
AcDbEntity
  8
11000_LEFT
370
    25
390
0
  6
CONTINUOUS
 62
     7
100
AcDbLine
 10
150.050006
 20
94.649995
 30
0.0
 11
150.050006
 21
97.549995
 31
0.0
  0
LINE
  5
128C
100
AcDbEntity
  8
11000_LEFT
370
    25
390
0
  6
CONTINUOUS
 62
     7
100
AcDbLine
 10
150.050006
 20
90.199995
 30
0.0
 11
150.050006
 21
90.200007
 31
0.0
  0
LINE
  5
128D
100
AcDbEntity
  8
11000_LEFT
370
    25
390
0
  6
CONTINUOUS
 62
     7
100
AcDbLine
 10
150.050006
 20
94.525829
 30
0.0
 11
150.050006
 21
94.649995
 31
0.0
  0
LINE
  5
128E
100
AcDbEntity
  8
11000_LEFT
370
    25
390
0
  6
CONTINUOUS
 62
     7
100
AcDbLine
 10
150.199006
 20
123.414502
 30
0.0
 11
150.199006
 21
128.899995
 31
0.0
  0
LINE
  5
128F
100
AcDbEntity
  8
11000_LEFT
370
    25
390
0
  6
CONTINUOUS
 62
     7
100
AcDbLine
 10
150.199006
 20
123.399995
 30
0.0
 11
150.199006
 21
123.414495
 31
0.0
  0
LINE
  5
1290
100
AcDbEntity
  8
11000_LEFT
370
    25
390
0
  6
CONTINUOUS
 62
     7
100
AcDbLine
 10
150.199006
 20
120.999994
 30
0.0
 11
150.199006
 21
123.399995
 31
0.0
  0
LINE
  5
1291
100
AcDbEntity
  8
11000_LEFT
370
    25
390
0
  6
CONTINUOUS
 62
     7
100
AcDbLine
 10
150.650006
 20
120.999994
 30
0.0
 11
150.650006
 21
128.149995
 31
0.0
  0
LINE
  5
1292
100
AcDbEntity
  8
11000_LEFT
370
    25
390
0
  6
CONTINUOUS
 62
     7
100
AcDbLine
 10
150.700006
 20
120.999994
 30
0.0
 11
150.700006
 21
129.003558
 31
0.0
  0
LINE
  5
1293
100
AcDbEntity
  8
11000_LEFT
370
    25
390
0
  6
CONTINUOUS
 62
     7
100
AcDbLine
 10
152.299006
 20
129.003558
 30
0.0
 11
152.299006
 21
130.099996
 31
0.0
  0
LINE
  5
1294
100
AcDbEntity
  8
11000_LEFT
370
    25
390
0
  6
CONTINUOUS
 62
     7
100
AcDbLine
 10
152.300006
 20
120.999995
 30
0.0
 11
152.300006
 21
130.099996
 31
0.0
  0
LINE
  5
1295
100
AcDbEntity
  8
11000_LEFT
370
    25
390
0
  6
CONTINUOUS
 62
     7
100
AcDbLine
 10
154.200006
 20
101.63766
 30
0.0
 11
154.200006
 21
101.901723
 31
0.0
  0
LINE
  5
1296
100
AcDbEntity
  8
11000_LEFT
370
    25
390
0
  6
CONTINUOUS
 62
     7
100
AcDbLine
 10
154.200006
 20
109.898267
 30
0.0
 11
154.200006
 21
110.16233
 31
0.0
  0
LINE
  5
1297
100
AcDbEntity
  8
11000_LEFT
370
    25
390
0
  6
CONTINUOUS
 62
     7
100
AcDbLine
 10
154.249006
 20
94.599122
 30
0.0
 11
154.249006
 21
101.900868
 31
0.0
  0
LINE
  5
1298
100
AcDbEntity
  8
11000_LEFT
370
    25
390
0
  6
CONTINUOUS
 62
     7
100
AcDbLine
 10
154.249006
 20
109.899122
 30
0.0
 11
154.249006
 21
116.600867
 31
0.0
  0
LINE
  5
1299
100
AcDbEntity
  8
11000_LEFT
370
    25
390
0
  6
CONTINUOUS
 62
     7
100
AcDbLine
 10
160.549006
 20
90.199995
 30
0.0
 11
160.549006
 21
120.422644
 31
0.0
  0
LINE
  5
129A
100
AcDbEntity
  8
11000_LEFT
370
    25
390
0
  6
CONTINUOUS
 62
     7
100
AcDbLine
 10
160.550006
 20
95.899995
 30
0.0
 11
160.550006
 21
103.554787
 31
0.0
  0
LINE
  5
129B
100
AcDbEntity
  8
11000_LEFT
370
    25
390
0
  6
CONTINUOUS
 62
     7
100
AcDbLine
 10
160.550006
 20
108.245203
 30
0.0
 11
160.550006
 21
116.549995
 31
0.0
  0
LINE
  5
129C
100
AcDbEntity
  8
11000_LEFT
370
    25
390
0
  6
CONTINUOUS
 62
     7
100
AcDbLine
 10
160.550006
 20
121.199995
 30
0.0
 11
160.550006
 21
123.599996
 31
0.0
  0
LINE
  5
129D
100
AcDbEntity
  8
11000_LEFT
370
    25
390
0
  6
CONTINUOUS
 62
     7
100
AcDbLine
 10
160.550006
 20
117.749995
 30
0.0
 11
160.550006
 21
121.199995
 31
0.0
  0
LINE
  5
129E
100
AcDbEntity
  8
11000_LEFT
370
    25
390
0
  6
CONTINUOUS
 62
     7
100
AcDbLine
 10
160.550006
 20
116.549995
 30
0.0
 11
160.550006
 21
117.749995
 31
0.0
  0
LINE
  5
129F
100
AcDbEntity
  8
11000_LEFT
370
    25
390
0
  6
CONTINUOUS
 62
     7
100
AcDbLine
 10
161.599006
 20
90.149995
 30
0.0
 11
161.599006
 21
90.199995
 31
0.0
  0
LINE
  5
12A0
100
AcDbEntity
  8
11000_LEFT
370
    25
390
0
  6
CONTINUOUS
 62
     7
100
AcDbLine
 10
161.599006
 20
95.899995
 30
0.0
 11
161.599006
 21
105.899995
 31
0.0
  0
LINE
  5
12A1
100
AcDbEntity
  8
11000_LEFT
370
    25
390
0
  6
CONTINUOUS
 62
     7
100
AcDbLine
 10
161.599006
 20
105.899995
 30
0.0
 11
161.599006
 21
118.399995
 31
0.0
  0
LINE
  5
12A2
100
AcDbEntity
  8
11000_LEFT
370
    25
390
0
  6
CONTINUOUS
 62
     7
100
AcDbLine
 10
161.599006
 20
118.399995
 30
0.0
 11
161.599006
 21
123.399995
 31
0.0
  0
LINE
  5
12A3
100
AcDbEntity
  8
11000_LEFT
370
    25
390
0
  6
CONTINUOUS
 62
     7
100
AcDbLine
 10
161.599006
 20
123.399995
 30
0.0
 11
161.599006
 21
123.600001
 31
0.0
  0
LINE
  5
12A4
100
AcDbEntity
  8
11000_LEFT
370
    25
390
0
  6
CONTINUOUS
 62
     7
100
AcDbLine
 10
162.299006
 20
123.399995
 30
0.0
 11
162.299006
 21
123.600001
 31
0.0
  0
LINE
  5
12A5
100
AcDbEntity
  8
11000_LEFT
370
    25
390
0
  6
CONTINUOUS
 62
     7
100
AcDbLine
 10
162.299006
 20
90.149995
 30
0.0
 11
162.299006
 21
90.199995
 31
0.0
  0
LINE
  5
12A6
100
AcDbEntity
  8
11000_LEFT
370
    25
390
0
  6
CONTINUOUS
 62
     7
100
AcDbLine
 10
163.050006
 20
123.599996
 30
0.0
 11
163.050006
 21
130.099996
 31
0.0
  0
LINE
  5
12A7
100
AcDbEntity
  8
11000_LEFT
370
    25
390
0
  6
CONTINUOUS
 62
     7
100
AcDbLine
 10
163.050006
 20
94.649995
 30
0.0
 11
163.050006
 21
95.899995
 31
0.0
  0
LINE
  5
12A8
100
AcDbEntity
  8
11000_LEFT
370
    25
390
0
  6
CONTINUOUS
 62
     7
100
AcDbLine
 10
163.050006
 20
93.249995
 30
0.0
 11
163.050006
 21
94.649995
 31
0.0
  0
LINE
  5
12A9
100
AcDbEntity
  8
11000_LEFT
370
    25
390
0
  6
CONTINUOUS
 62
     7
100
AcDbLine
 10
163.050006
 20
90.199995
 30
0.0
 11
163.050006
 21
93.249995
 31
0.0
  0
LINE
  5
12AA
100
AcDbEntity
  8
11000_LEFT
370
    25
390
0
  6
CONTINUOUS
 62
     7
100
AcDbLine
 10
163.200006
 20
123.399995
 30
0.0
 11
163.200006
 21
128.149995
 31
0.0
  0
LINE
  5
12AB
100
AcDbEntity
  8
11000_LEFT
370
    25
390
0
  6
CONTINUOUS
 62
     7
100
AcDbLine
 10
163.399006
 20
91.955551
 30
0.0
 11
163.399006
 21
123.399995
 31
0.0
  0
LINE
  5
12AC
100
AcDbEntity
  8
11000_LEFT
370
    25
390
0
  6
CONTINUOUS
 62
     7
100
AcDbLine
 10
163.400006
 20
120.349995
 30
0.0
 11
163.400006
 21
127.949994
 31
0.0
  0
LINE
  5
12AD
100
AcDbEntity
  8
11000_LEFT
370
    25
390
0
  6
CONTINUOUS
 62
     7
100
AcDbLine
 10
164.125888
 20
124.053403
 30
0.0
 11
164.125888
 21
124.246587
 31
0.0
  0
LINE
  5
12AE
100
AcDbEntity
  8
11000_LEFT
370
    25
390
0
  6
CONTINUOUS
 62
     7
100
AcDbLine
 10
164.400006
 20
116.013055
 30
0.0
 11
164.400006
 21
116.899995
 31
0.0
  0
LINE
  5
12AF
100
AcDbEntity
  8
11000_LEFT
370
    25
390
0
  6
CONTINUOUS
 62
     7
100
AcDbLine
 10
164.400006
 20
98.681269
 30
0.0
 11
164.400006
 21
113.118721
 31
0.0
  0
LINE
  5
12B0
100
AcDbEntity
  8
11000_LEFT
370
    25
390
0
  6
CONTINUOUS
 62
     7
100
AcDbLine
 10
164.400006
 20
94.899995
 30
0.0
 11
164.400006
 21
96.107962
 31
0.0
  0
LINE
  5
12B1
100
AcDbEntity
  8
11000_LEFT
370
    25
390
0
  6
CONTINUOUS
 62
     7
100
AcDbLine
 10
165.400006
 20
94.899995
 30
0.0
 11
165.400006
 21
116.899995
 31
0.0
  0
LINE
  5
12B2
100
AcDbEntity
  8
11000_LEFT
370
    25
390
0
  6
CONTINUOUS
 62
     7
100
AcDbLine
 10
165.600006
 20
95.557614
 30
0.0
 11
165.600006
 21
116.242376
 31
0.0
  0
LINE
  5
12B3
100
AcDbEntity
  8
11000_LEFT
370
    25
390
0
  6
CONTINUOUS
 62
     7
100
AcDbLine
 10
166.399021
 20
95.100711
 30
0.0
 11
166.399021
 21
116.699279
 31
0.0
  0
LINE
  5
12B4
100
AcDbEntity
  8
11000_LEFT
370
    25
390
0
  6
CONTINUOUS
 62
     7
100
AcDbLine
 10
166.400006
 20
95.226781
 30
0.0
 11
166.400006
 21
104.249995
 31
0.0
  0
LINE
  5
12B5
100
AcDbEntity
  8
11000_LEFT
370
    25
390
0
  6
CONTINUOUS
 62
     7
100
AcDbLine
 10
166.400006
 20
107.549995
 30
0.0
 11
166.400006
 21
116.573209
 31
0.0
  0
LINE
  5
12B6
100
AcDbEntity
  8
11000_LEFT
370
    25
390
0
  6
CONTINUOUS
 62
     7
100
AcDbLine
 10
168.021763
 20
105.798783
 30
0.0
 11
168.021763
 21
106.001207
 31
0.0
  0
LINE
  5
12B7
100
AcDbEntity
  8
11000_LEFT
370
    25
390
0
  6
CONTINUOUS
 62
     7
100
AcDbLine
 10
170.200006
 20
92.299995
 30
0.0
 11
170.200006
 21
119.499995
 31
0.0
  0
LINE
  5
12B8
100
AcDbEntity
  8
11000_LEFT
370
    25
390
0
  6
CONTINUOUS
 62
     7
100
AcDbLine
 10
170.400006
 20
91.854562
 30
0.0
 11
170.400006
 21
119.945428
 31
0.0
  0
LINE
  5
12B9
100
AcDbEntity
  8
11000_LEFT
370
    25
390
0
  6
CONTINUOUS
 62
     7
100
AcDbLine
 10
171.300006
 20
91.807395
 30
0.0
 11
171.300006
 21
119.992595
 31
0.0
  0
LINE
  5
12BA
100
AcDbEntity
  8
11000_LEFT
370
    25
390
0
  6
CONTINUOUS
 62
     7
100
AcDbLine
 10
171.480006
 20
91.799995
 30
0.0
 11
171.480006
 21
119.999995
 31
0.0
  0
LINE
  5
12BB
100
AcDbEntity
  8
11000_LEFT
370
    25
390
0
  6
CONTINUOUS
 62
     7
100
AcDbLine
 10
172.200006
 20
91.749995
 30
0.0
 11
172.200006
 21
120.049995
 31
0.0
  0
LINE
  5
12BC
100
AcDbEntity
  8
11000_LEFT
370
    25
390
0
  6
CONTINUOUS
 62
     7
100
AcDbLine
 10
175.200006
 20
91.749995
 30
0.0
 11
175.200006
 21
120.049995
 31
0.0
  0
LINE
  5
12BD
100
AcDbEntity
  8
11000_LEFT
370
    25
390
0
  6
CONTINUOUS
 62
     7
100
AcDbLine
 10
178.591844
 20
91.149995
 30
0.0
 11
178.591844
 21
120.649995
 31
0.0
  0
LINE
  5
12BE
100
AcDbEntity
  8
11000_LEFT
370
    25
390
0
  6
CONTINUOUS
 62
     7
100
AcDbLine
 10
180.791056
 20
93.099144
 30
0.0
 11
180.791056
 21
118.700846
 31
0.0
  0
ARC
  5
12BF
100
AcDbEntity
  8
11000_LEFT
370
    25
390
0
  6
CONTINUOUS
 62
     7
100
AcDbCircle
 10
120.700006
 20
91.076031
 30
0.0
 40
0.2
100
AcDbArc
 50
179.999882
 51
262.707315
  0
ARC
  5
12C0
100
AcDbEntity
  8
11000_LEFT
370
    25
390
0
  6
CONTINUOUS
 62
     7
100
AcDbCircle
 10
120.700006
 20
120.723959
 30
0.0
 40
0.2
100
AcDbArc
 50
97.292681
 51
180.000086
  0
ARC
  5
12C1
100
AcDbEntity
  8
11000_LEFT
370
    25
390
0
  6
CONTINUOUS
 62
     7
100
AcDbCircle
 10
131.999972
 20
105.899989
 30
0.0
 40
50.000034
100
AcDbArc
 50
0.0
 51
12.624159
  0
ARC
  5
12C2
100
AcDbEntity
  8
11000_LEFT
370
    25
390
0
  6
CONTINUOUS
 62
     7
100
AcDbCircle
 10
131.999972
 20
105.900001
 30
0.0
 40
50.000034
100
AcDbArc
 50
347.35403
 51
0.0
  0
ARC
  5
12C3
100
AcDbEntity
  8
11000_LEFT
370
    25
390
0
  6
CONTINUOUS
 62
     7
100
AcDbCircle
 10
133.543094
 20
90.921265
 30
0.0
 40
0.2
100
AcDbArc
 50
278.900138
 51
331.000186
  0
ARC
  5
12C4
100
AcDbEntity
  8
11000_LEFT
370
    25
390
0
  6
CONTINUOUS
 62
     7
100
AcDbCircle
 10
137.700006
 20
118.949995
 30
0.0
 40
1.15
100
AcDbArc
 50
203.805577
 51
253.061754
  0
ARC
  5
12C5
100
AcDbEntity
  8
11000_LEFT
370
    25
390
0
  6
CONTINUOUS
 62
     7
100
AcDbCircle
 10
137.700006
 20
119.099995
 30
0.0
 40
0.75
100
AcDbArc
 50
78.874625
 51
162.910977
  0
ARC
  5
12C6
100
AcDbEntity
  8
11000_LEFT
370
    25
390
0
  6
CONTINUOUS
 62
     7
100
AcDbCircle
 10
137.700006
 20
119.099995
 30
0.0
 40
0.75
100
AcDbArc
 50
9.805877
 51
48.267487
  0
ARC
  5
12C7
100
AcDbEntity
  8
11000_LEFT
370
    25
390
0
  6
CONTINUOUS
 62
     7
100
AcDbCircle
 10
137.700006
 20
119.099995
 30
0.0
 40
0.75
100
AcDbArc
 50
322.589024
 51
348.117293
  0
ARC
  5
12C8
100
AcDbEntity
  8
11000_LEFT
370
    25
390
0
  6
CONTINUOUS
 62
     7
100
AcDbCircle
 10
137.700006
 20
119.249995
 30
0.0
 40
1.15
100
AcDbArc
 50
104.780062
 51
166.106644
  0
ARC
  5
12C9
100
AcDbEntity
  8
11000_LEFT
370
    25
390
0
  6
CONTINUOUS
 62
     7
100
AcDbCircle
 10
137.847626
 20
122.854754
 30
0.0
 40
0.2
100
AcDbArc
 50
76.414751
 51
103.846103
  0
ARC
  5
12CA
100
AcDbEntity
  8
11000_LEFT
370
    25
390
0
  6
CONTINUOUS
 62
     7
100
AcDbCircle
 10
137.990767
 20
118.289877
 30
0.0
 40
0.764999
100
AcDbArc
 50
181.671175
 51
248.434184
  0
ARC
  5
12CB
100
AcDbEntity
  8
11000_LEFT
370
    25
390
0
  6
CONTINUOUS
 62
     7
100
AcDbCircle
 10
139.206731
 20
122.52632
 30
0.0
 40
0.2
100
AcDbArc
 50
0.000163
 51
76.414528
  0
ARC
  5
12CC
100
AcDbEntity
  8
11000_LEFT
370
    25
390
0
  6
CONTINUOUS
 62
     7
100
AcDbCircle
 10
139.360437
 20
119.115487
 30
0.0
 40
2.0
100
AcDbArc
 50
252.714701
 51
287.663007
  0
ARC
  5
12CD
100
AcDbEntity
  8
11000_LEFT
370
    25
390
0
  6
CONTINUOUS
 62
     7
100
AcDbCircle
 10
140.117164
 20
95.899995
 30
0.0
 40
0.199999
100
AcDbArc
 50
269.999927
 51
315.000062
  0
ARC
  5
12CE
100
AcDbEntity
  8
11000_LEFT
370
    25
390
0
  6
CONTINUOUS
 62
     7
100
AcDbCircle
 10
140.226791
 20
119.39136
 30
0.0
 40
2.0
100
AcDbArc
 50
287.663007
 51
299.462035
  0
ARC
  5
12CF
100
AcDbEntity
  8
11000_LEFT
370
    25
390
0
  6
CONTINUOUS
 62
     7
100
AcDbCircle
 10
142.032691
 20
94.999995
 30
0.0
 40
0.6
100
AcDbArc
 50
189.999953
 51
269.999988
  0
ARC
  5
12D0
100
AcDbEntity
  8
11000_LEFT
370
    25
390
0
  6
CONTINUOUS
 62
     7
100
AcDbCircle
 10
142.541445
 20
116.500213
 30
0.0
 40
1.157614
100
AcDbArc
 50
102.089046
 51
161.790192
  0
ARC
  5
12D1
100
AcDbEntity
  8
11000_LEFT
370
    25
390
0
  6
CONTINUOUS
 62
     7
100
AcDbCircle
 10
143.223128
 20
131.52836
 30
0.0
 40
14.999993
100
AcDbArc
 50
248.43415
 51
252.714681
  0
LINE
  5
12D2
100
AcDbEntity
  8
11000_LEFT
370
    25
390
0
  6
CONTINUOUS
 62
     7
100
AcDbLine
 10
142.550006
 20
126.574919
 30
0.0
 11
141.450005
 21
126.482376
 31
0.0
  0
ARC
  5
12D3
100
AcDbEntity
  8
11000_LEFT
370
    25
390
0
  6
CONTINUOUS
 62
     7
100
AcDbCircle
 10
163.200006
 20
120.349995
 30
0.0
 40
0.2
100
AcDbArc
 50
354.563619
 51
0.0
  0
ARC
  5
12D4
100
AcDbEntity
  8
11000_LEFT
370
    25
390
0
  6
CONTINUOUS
 62
     7
100
AcDbCircle
 10
163.200006
 20
127.949995
 30
0.0
 40
0.2
100
AcDbArc
 50
359.999781
 51
90.000001
  0
ARC
  5
12D5
100
AcDbEntity
  8
11000_LEFT
370
    25
390
0
  6
CONTINUOUS
 62
     7
100
AcDbCircle
 10
164.100006
 20
124.149995
 30
0.0
 40
0.1
100
AcDbArc
 50
285.000116
 51
74.999884
  0
ARC
  5
12D6
100
AcDbEntity
  8
11000_LEFT
370
    25
390
0
  6
CONTINUOUS
 62
     7
100
AcDbCircle
 10
169.790118
 20
103.296173
 30
0.0
 40
15.0
100
AcDbArc
 50
305.92896
 51
317.171838
  0
ARC
  5
12D7
100
AcDbEntity
  8
11000_LEFT
370
    25
390
0
  6
CONTINUOUS
 62
     7
100
AcDbCircle
 10
169.790118
 20
108.503817
 30
0.0
 40
15.0
100
AcDbArc
 50
42.828162
 51
54.07104
  0
LINE
  5
12D8
100
AcDbEntity
  8
11100_LEFT_DIM
370
    13
390
0
  6
CONTINUOUS
 62
     7
100
AcDbLine
 10
170.200006
 20
119.499995
 30
0.0
 11
170.200006
 21
141.100005
 31
0.0
  0
LINE
  5
12D9
100
AcDbEntity
  8
11100_LEFT_DIM
370
    13
390
0
  6
CONTINUOUS
 62
     7
100
AcDbLine
 10
182.000006
 20
141.100005
 30
0.0
 11
182.000006
 21
105.899995
 31
0.0
  0
LINE
  5
12DA
100
AcDbEntity
  8
11100_LEFT_DIM
370
    13
390
0
  6
CONTINUOUS
 62
     7
100
AcDbLine
 10
189.500006
 20
140.100005
 30
0.0
 11
162.700006
 21
140.100005
 31
0.0
  0
TEXT
  5
12DB
100
AcDbEntity
  8
11100_LEFT_DIM
370
    13
390
0
  6
CONTINUOUS
 62
     7
100
AcDbText
 10
173.766673
 20
141.100005
 30
0.0
 40
2.0
  1
11.8
 72
     1
 11
176.100006
 21
141.100005
 31
0.0
100
AcDbText
  0
LINE
  5
12DC
100
AcDbEntity
  8
11100_LEFT_DIM
370
    13
390
0
  6
CONTINUOUS
 62
     7
100
AcDbLine
 10
120.500006
 20
120.899995
 30
0.0
 11
120.500006
 21
148.100005
 31
0.0
  0
LINE
  5
12DD
100
AcDbEntity
  8
11100_LEFT_DIM
370
    13
390
0
  6
CONTINUOUS
 62
     7
100
AcDbLine
 10
182.000006
 20
148.100005
 30
0.0
 11
182.000006
 21
105.899995
 31
0.0
  0
LINE
  5
12DE
100
AcDbEntity
  8
11100_LEFT_DIM
370
    13
390
0
  6
CONTINUOUS
 62
     7
100
AcDbLine
 10
120.500006
 20
147.100005
 30
0.0
 11
182.000006
 21
147.100005
 31
0.0
  0
TEXT
  5
12DF
100
AcDbEntity
  8
11100_LEFT_DIM
370
    13
390
0
  6
CONTINUOUS
 62
     7
100
AcDbText
 10
148.583339
 20
148.100005
 30
0.0
 40
2.0
  1
61.5
 72
     1
 11
151.250006
 21
148.100005
 31
0.0
100
AcDbText
  0
SOLID
  5
12E0
100
AcDbEntity
  8
11100_LEFT_DIM
370
    13
390
0
  6
CONTINUOUS
 62
     7
100
AcDbTrace
 10
165.200006
 20
139.441743
 30
0.0
 11
170.200006
 21
140.100005
 31
0.0
 12
165.200006
 22
140.758267
 32
0.0
 13
170.200006
 23
140.100005
 33
0.0
  0
SOLID
  5
12E1
100
AcDbEntity
  8
11100_LEFT_DIM
370
    13
390
0
  6
CONTINUOUS
 62
     7
100
AcDbTrace
 10
187.000006
 20
140.758267
 30
0.0
 11
182.000006
 21
140.100005
 31
0.0
 12
187.000006
 22
139.441743
 32
0.0
 13
182.000006
 23
140.100005
 33
0.0
  0
SOLID
  5
12E2
100
AcDbEntity
  8
11100_LEFT_DIM
370
    13
390
0
  6
CONTINUOUS
 62
     7
100
AcDbTrace
 10
125.500006
 20
147.758267
 30
0.0
 11
120.500006
 21
147.100005
 31
0.0
 12
125.500006
 22
146.441743
 32
0.0
 13
120.500006
 23
147.100005
 33
0.0
  0
SOLID
  5
12E3
100
AcDbEntity
  8
11100_LEFT_DIM
370
    13
390
0
  6
CONTINUOUS
 62
     7
100
AcDbTrace
 10
177.000006
 20
146.441743
 30
0.0
 11
182.000006
 21
147.100005
 31
0.0
 12
177.000006
 22
147.758267
 32
0.0
 13
182.000006
 23
147.100005
 33
0.0
  0
LINE
  5
12E4
100
AcDbEntity
  8
15000_BACK
370
    25
390
0
  6
CONTINUOUS
 62
     7
100
AcDbLine
 10
235.850448
 20
124.110372
 30
0.0
 11
234.835623
 21
127.649484
 31
0.0
  0
LINE
  5
12E5
100
AcDbEntity
  8
15000_BACK
370
    25
390
0
  6
CONTINUOUS
 62
     7
100
AcDbLine
 10
236.537153
 20
93.279527
 30
0.0
 11
236.439344
 21
93.576283
 31
0.0
  0
LINE
  5
12E6
100
AcDbEntity
  8
15000_BACK
370
    25
390
0
  6
CONTINUOUS
 62
     7
100
AcDbLine
 10
236.397808
 20
93.27432
 30
0.0
 11
236.334835
 21
93.459295
 31
0.0
  0
LINE
  5
12E7
100
AcDbEntity
  8
15000_BACK
370
    25
390
0
  6
CONTINUOUS
 62
     7
100
AcDbLine
 10
233.631459
 20
94.973745
 30
0.0
 11
233.489819
 21
95.260745
 31
0.0
  0
LINE
  5
12E8
100
AcDbEntity
  8
15000_BACK
370
    25
390
0
  6
CONTINUOUS
 62
     7
100
AcDbLine
 10
228.942482
 20
111.48687
 30
0.0
 11
228.871662
 21
111.63037
 31
0.0
  0
LINE
  5
12E9
100
AcDbEntity
  8
15000_BACK
370
    25
390
0
  6
CONTINUOUS
 62
     7
100
AcDbLine
 10
233.430483
 20
94.961495
 30
0.0
 11
233.30224
 21
95.220058
 31
0.0
  0
LINE
  5
12EA
100
AcDbEntity
  8
15000_BACK
370
    25
390
0
  6
CONTINUOUS
 62
     7
100
AcDbLine
 10
228.841995
 20
111.480745
 30
0.0
 11
228.777873
 21
111.610027
 31
0.0
  0
LINE
  5
12EB
100
AcDbEntity
  8
15000_BACK
370
    25
390
0
  6
CONTINUOUS
 62
     7
100
AcDbLine
 10
235.248222
 20
92.682951
 30
0.0
 11
235.135676
 21
92.909577
 31
0.0
  0
LINE
  5
12EC
100
AcDbEntity
  8
15000_BACK
370
    25
390
0
  6
CONTINUOUS
 62
     7
100
AcDbLine
 10
227.129905
 20
97.004356
 30
0.0
 11
227.127746
 21
97.008692
 31
0.0
  0
LINE
  5
12ED
100
AcDbEntity
  8
15000_BACK
370
    25
390
0
  6
CONTINUOUS
 62
     7
100
AcDbLine
 10
221.872266
 20
114.791298
 30
0.0
 11
221.870107
 21
114.795634
 31
0.0
  0
LINE
  5
12EE
100
AcDbEntity
  8
15000_BACK
370
    25
390
0
  6
CONTINUOUS
 62
     7
100
AcDbLine
 10
235.35541
 20
92.759514
 30
0.0
 11
235.280379
 21
92.909577
 31
0.0
  0
LINE
  5
12EF
100
AcDbEntity
  8
15000_BACK
370
    25
390
0
  6
CONTINUOUS
 62
     7
100
AcDbLine
 10
226.947529
 20
97.525081
 30
0.0
 11
226.837728
 21
97.732847
 31
0.0
  0
LINE
  5
12F0
100
AcDbEntity
  8
15000_BACK
370
    25
390
0
  6
CONTINUOUS
 62
     7
100
AcDbLine
 10
222.162284
 20
114.067143
 30
0.0
 11
222.052483
 21
114.274909
 31
0.0
  0
LINE
  5
12F1
100
AcDbEntity
  8
15000_BACK
370
    25
390
0
  6
CONTINUOUS
 62
     7
100
AcDbLine
 10
227.05985
 20
97.325287
 30
0.0
 11
226.883093
 21
97.652316
 31
0.0
  0
LINE
  5
12F2
100
AcDbEntity
  8
15000_BACK
370
    25
390
0
  6
CONTINUOUS
 62
     7
100
AcDbLine
 10
222.116919
 20
114.147674
 30
0.0
 11
221.940162
 21
114.474703
 31
0.0
  0
LINE
  5
12F3
100
AcDbEntity
  8
15000_BACK
370
    25
390
0
  6
CONTINUOUS
 62
     7
100
AcDbLine
 10
216.002135
 20
100.818939
 30
0.0
 11
215.970109
 21
100.874972
 31
0.0
  0
LINE
  5
12F4
100
AcDbEntity
  8
15000_BACK
370
    25
390
0
  6
CONTINUOUS
 62
     7
100
AcDbLine
 10
216.034382
 20
100.763185
 30
0.0
 11
216.002135
 21
100.818939
 31
0.0
  0
LINE
  5
12F5
100
AcDbEntity
  8
15000_BACK
370
    25
390
0
  6
CONTINUOUS
 62
     7
100
AcDbLine
 10
216.066928
 20
100.70776
 30
0.0
 11
216.034382
 21
100.763185
 31
0.0
  0
LINE
  5
12F6
100
AcDbEntity
  8
15000_BACK
370
    25
390
0
  6
CONTINUOUS
 62
     7
100
AcDbLine
 10
216.099768
 20
100.652667
 30
0.0
 11
216.066928
 21
100.70776
 31
0.0
  0
LINE
  5
12F7
100
AcDbEntity
  8
15000_BACK
370
    25
390
0
  6
CONTINUOUS
 62
     7
100
AcDbLine
 10
216.132898
 20
100.597912
 30
0.0
 11
216.099768
 21
100.652667
 31
0.0
  0
LINE
  5
12F8
100
AcDbEntity
  8
15000_BACK
370
    25
390
0
  6
CONTINUOUS
 62
     7
100
AcDbLine
 10
216.166312
 20
100.543498
 30
0.0
 11
216.132898
 21
100.597912
 31
0.0
  0
LINE
  5
12F9
100
AcDbEntity
  8
15000_BACK
370
    25
390
0
  6
CONTINUOUS
 62
     7
100
AcDbLine
 10
227.284803
 20
101.16712
 30
0.0
 11
226.830213
 21
101.902995
 31
0.0
  0
LINE
  5
12FA
100
AcDbEntity
  8
15000_BACK
370
    25
390
0
  6
CONTINUOUS
 62
     7
100
AcDbLine
 10
227.284803
 20
111.03712
 30
0.0
 11
226.830213
 21
111.772995
 31
0.0
  0
LINE
  5
12FB
100
AcDbEntity
  8
15000_BACK
370
    25
390
0
  6
CONTINUOUS
 62
     7
100
AcDbLine
 10
227.845623
 20
100.432995
 30
0.0
 11
227.390076
 21
101.16887
 31
0.0
  0
LINE
  5
12FC
100
AcDbEntity
  8
15000_BACK
370
    25
390
0
  6
CONTINUOUS
 62
     7
100
AcDbLine
 10
227.845623
 20
110.302995
 30
0.0
 11
227.390076
 21
111.03887
 31
0.0
  0
LINE
  5
12FD
100
AcDbEntity
  8
15000_BACK
370
    25
390
0
  6
CONTINUOUS
 62
     7
100
AcDbLine
 10
227.741307
 20
100.432995
 30
0.0
 11
227.33744
 21
101.083777
 31
0.0
  0
LINE
  5
12FE
100
AcDbEntity
  8
15000_BACK
370
    25
390
0
  6
CONTINUOUS
 62
     7
100
AcDbLine
 10
227.741307
 20
110.302995
 30
0.0
 11
227.33744
 21
110.953777
 31
0.0
  0
LINE
  5
12FF
100
AcDbEntity
  8
15000_BACK
370
    25
390
0
  6
CONTINUOUS
 62
     7
100
AcDbLine
 10
227.33744
 20
101.252214
 30
0.0
 11
226.933573
 21
101.902995
 31
0.0
  0
LINE
  5
1300
100
AcDbEntity
  8
15000_BACK
370
    25
390
0
  6
CONTINUOUS
 62
     7
100
AcDbLine
 10
227.33744
 20
111.122214
 30
0.0
 11
226.933573
 21
111.772995
 31
0.0
  0
LINE
  5
1301
100
AcDbEntity
  8
15000_BACK
370
    25
390
0
  6
CONTINUOUS
 62
     7
100
AcDbLine
 10
216.200006
 20
100.48943
 30
0.0
 11
216.166312
 21
100.543498
 31
0.0
  0
LINE
  5
1302
100
AcDbEntity
  8
15000_BACK
370
    25
390
0
  6
CONTINUOUS
 62
     7
100
AcDbLine
 10
225.250006
 20
123.449994
 30
0.0
 11
224.849639
 21
124.08508
 31
0.0
  0
LINE
  5
1303
100
AcDbEntity
  8
15000_BACK
370
    25
390
0
  6
CONTINUOUS
 62
     7
100
AcDbLine
 10
224.150373
 20
124.21491
 30
0.0
 11
223.750006
 21
124.849996
 31
0.0
  0
LINE
  5
1304
100
AcDbEntity
  8
15000_BACK
370
    25
390
0
  6
CONTINUOUS
 62
     7
100
AcDbLine
 10
226.837728
 20
97.732847
 30
0.0
 11
226.709696
 21
97.930476
 31
0.0
  0
LINE
  5
1305
100
AcDbEntity
  8
15000_BACK
370
    25
390
0
  6
CONTINUOUS
 62
     7
100
AcDbLine
 10
222.290316
 20
113.869514
 30
0.0
 11
222.162284
 21
114.067143
 31
0.0
  0
LINE
  5
1306
100
AcDbEntity
  8
15000_BACK
370
    25
390
0
  6
CONTINUOUS
 62
     7
100
AcDbLine
 10
236.334835
 20
93.459295
 30
0.0
 11
236.249086
 21
93.588839
 31
0.0
  0
LINE
  5
1307
100
AcDbEntity
  8
15000_BACK
370
    25
390
0
  6
CONTINUOUS
 62
     7
100
AcDbLine
 10
227.127746
 20
97.008692
 30
0.0
 11
227.124804
 21
97.013049
 31
0.0
  0
LINE
  5
1308
100
AcDbEntity
  8
15000_BACK
370
    25
390
0
  6
CONTINUOUS
 62
     7
100
AcDbLine
 10
221.875208
 20
114.786941
 30
0.0
 11
221.872266
 21
114.791298
 31
0.0
  0
LINE
  5
1309
100
AcDbEntity
  8
15000_BACK
370
    25
390
0
  6
CONTINUOUS
 62
     7
100
AcDbLine
 10
226.709696
 20
97.930476
 30
0.0
 11
226.550976
 21
98.13195
 31
0.0
  0
LINE
  5
130A
100
AcDbEntity
  8
15000_BACK
370
    25
390
0
  6
CONTINUOUS
 62
     7
100
AcDbLine
 10
222.449036
 20
113.66804
 30
0.0
 11
222.290316
 21
113.869514
 31
0.0
  0
LINE
  5
130B
100
AcDbEntity
  8
15000_BACK
370
    25
390
0
  6
CONTINUOUS
 62
     7
100
AcDbLine
 10
227.124804
 20
97.013049
 30
0.0
 11
227.121067
 21
97.017326
 31
0.0
  0
LINE
  5
130C
100
AcDbEntity
  8
15000_BACK
370
    25
390
0
  6
CONTINUOUS
 62
     7
100
AcDbLine
 10
221.878945
 20
114.782664
 30
0.0
 11
221.875208
 21
114.786941
 31
0.0
  0
LINE
  5
130D
100
AcDbEntity
  8
15000_BACK
370
    25
390
0
  6
CONTINUOUS
 62
     7
100
AcDbLine
 10
226.550976
 20
98.13195
 30
0.0
 11
226.373217
 21
98.317721
 31
0.0
  0
LINE
  5
130E
100
AcDbEntity
  8
15000_BACK
370
    25
390
0
  6
CONTINUOUS
 62
     7
100
AcDbLine
 10
222.626795
 20
113.482269
 30
0.0
 11
222.449036
 21
113.66804
 31
0.0
  0
LINE
  5
130F
100
AcDbEntity
  8
15000_BACK
370
    25
390
0
  6
CONTINUOUS
 62
     7
100
AcDbLine
 10
236.90661
 20
92.484195
 30
0.0
 11
236.796743
 21
92.594445
 31
0.0
  0
LINE
  5
1310
100
AcDbEntity
  8
15000_BACK
370
    25
390
0
  6
CONTINUOUS
 62
     7
100
AcDbLine
 10
216.90661
 20
92.484195
 30
0.0
 11
216.796743
 21
92.594445
 31
0.0
  0
LINE
  5
1311
100
AcDbEntity
  8
15000_BACK
370
    25
390
0
  6
CONTINUOUS
 62
     7
100
AcDbLine
 10
214.295154
 20
92.605995
 30
0.0
 11
214.138201
 21
92.763495
 31
0.0
  0
LINE
  5
1312
100
AcDbEntity
  8
15000_BACK
370
    25
390
0
  6
CONTINUOUS
 62
     7
100
AcDbLine
 10
234.295154
 20
92.605995
 30
0.0
 11
234.138201
 21
92.763495
 31
0.0
  0
LINE
  5
1313
100
AcDbEntity
  8
15000_BACK
370
    25
390
0
  6
CONTINUOUS
 62
     7
100
AcDbLine
 10
237.129024
 20
92.707145
 30
0.0
 11
237.019157
 21
92.817395
 31
0.0
  0
LINE
  5
1314
100
AcDbEntity
  8
15000_BACK
370
    25
390
0
  6
CONTINUOUS
 62
     7
100
AcDbLine
 10
217.129024
 20
92.707145
 30
0.0
 11
217.019157
 21
92.817395
 31
0.0
  0
LINE
  5
1315
100
AcDbEntity
  8
15000_BACK
370
    25
390
0
  6
CONTINUOUS
 62
     7
100
AcDbLine
 10
214.612889
 20
92.924495
 30
0.0
 11
214.455936
 21
93.081995
 31
0.0
  0
LINE
  5
1316
100
AcDbEntity
  8
15000_BACK
370
    25
390
0
  6
CONTINUOUS
 62
     7
100
AcDbLine
 10
234.612889
 20
92.924495
 30
0.0
 11
234.455936
 21
93.081995
 31
0.0
  0
LINE
  5
1317
100
AcDbEntity
  8
15000_BACK
370
    25
390
0
  6
CONTINUOUS
 62
     7
100
AcDbLine
 10
236.439344
 20
93.576283
 30
0.0
 11
236.238367
 21
93.777795
 31
0.0
  0
LINE
  5
1318
100
AcDbEntity
  8
15000_BACK
370
    25
390
0
  6
CONTINUOUS
 62
     7
100
AcDbLine
 10
219.539025
 20
115.241414
 30
0.0
 11
219.477568
 21
115.302872
 31
0.0
  0
LINE
  5
1319
100
AcDbEntity
  8
15000_BACK
370
    25
390
0
  6
CONTINUOUS
 62
     7
100
AcDbLine
 10
229.398388
 20
90.877649
 30
0.0
 11
229.200006
 21
91.076032
 31
0.0
  0
LINE
  5
131A
100
AcDbEntity
  8
15000_BACK
370
    25
390
0
  6
CONTINUOUS
 62
     7
100
AcDbLine
 10
226.150006
 20
123.449994
 30
0.0
 11
225.514921
 21
124.08508
 31
0.0
  0
LINE
  5
131B
100
AcDbEntity
  8
15000_BACK
370
    25
390
0
  6
CONTINUOUS
 62
     7
100
AcDbLine
 10
223.485091
 20
124.21491
 30
0.0
 11
222.850006
 21
124.849996
 31
0.0
  0
LINE
  5
131C
100
AcDbEntity
  8
15000_BACK
370
    25
390
0
  6
CONTINUOUS
 62
     7
100
AcDbLine
 10
229.511601
 20
96.107962
 30
0.0
 11
229.400006
 21
96.219557
 31
0.0
  0
LINE
  5
131D
100
AcDbEntity
  8
15000_BACK
370
    25
390
0
  6
CONTINUOUS
 62
     7
100
AcDbLine
 10
219.6
 20
115.180439
 30
0.0
 11
219.539025
 21
115.241414
 31
0.0
  0
LINE
  5
131E
100
AcDbEntity
  8
15000_BACK
370
    25
390
0
  6
CONTINUOUS
 62
     7
100
AcDbLine
 10
219.477568
 20
115.302872
 30
0.0
 11
219.226785
 21
115.553655
 31
0.0
  0
LINE
  5
131F
100
AcDbEntity
  8
15000_BACK
370
    25
390
0
  6
CONTINUOUS
 62
     7
100
AcDbLine
 10
219.800006
 20
120.723959
 30
0.0
 11
219.601624
 21
120.922341
 31
0.0
  0
LINE
  5
1320
100
AcDbEntity
  8
15000_BACK
370
    25
390
0
  6
CONTINUOUS
 62
     7
100
AcDbLine
 10
228.871662
 20
111.63037
 30
0.0
 11
228.798928
 21
111.70212
 31
0.0
  0
LINE
  5
1321
100
AcDbEntity
  8
15000_BACK
370
    25
390
0
  6
CONTINUOUS
 62
     7
100
AcDbLine
 10
233.489819
 20
95.260745
 30
0.0
 11
233.34435
 21
95.404245
 31
0.0
  0
LINE
  5
1322
100
AcDbEntity
  8
15000_BACK
370
    25
390
0
  6
CONTINUOUS
 62
     7
100
AcDbLine
 10
235.35273
 20
92.581889
 30
0.0
 11
235.248222
 21
92.682951
 31
0.0
  0
LINE
  5
1323
100
AcDbEntity
  8
15000_BACK
370
    25
390
0
  6
CONTINUOUS
 62
     7
100
AcDbLine
 10
227.121067
 20
97.017326
 30
0.0
 11
227.116612
 21
97.02142
 31
0.0
  0
LINE
  5
1324
100
AcDbEntity
  8
15000_BACK
370
    25
390
0
  6
CONTINUOUS
 62
     7
100
AcDbLine
 10
221.8834
 20
114.77857
 30
0.0
 11
221.878945
 21
114.782664
 31
0.0
  0
LINE
  5
1325
100
AcDbEntity
  8
15000_BACK
370
    25
390
0
  6
CONTINUOUS
 62
     7
100
AcDbLine
 10
232.316779
 20
125.908445
 30
0.0
 11
230.240481
 21
127.777951
 31
0.0
  0
LINE
  5
1326
100
AcDbEntity
  8
15000_BACK
370
    25
390
0
  6
CONTINUOUS
 62
     7
100
AcDbLine
 10
226.373217
 20
98.317721
 30
0.0
 11
226.178542
 21
98.485595
 31
0.0
  0
LINE
  5
1327
100
AcDbEntity
  8
15000_BACK
370
    25
390
0
  6
CONTINUOUS
 62
     7
100
AcDbLine
 10
222.82147
 20
113.314395
 30
0.0
 11
222.626795
 21
113.482269
 31
0.0
  0
LINE
  5
1328
100
AcDbEntity
  8
15000_BACK
370
    25
390
0
  6
CONTINUOUS
 62
     7
100
AcDbLine
 10
227.116612
 20
97.02142
 30
0.0
 11
227.1115
 21
97.025248
 31
0.0
  0
LINE
  5
1329
100
AcDbEntity
  8
15000_BACK
370
    25
390
0
  6
CONTINUOUS
 62
     7
100
AcDbLine
 10
221.888512
 20
114.774742
 30
0.0
 11
221.8834
 21
114.77857
 31
0.0
  0
LINE
  5
132A
100
AcDbEntity
  8
15000_BACK
370
    25
390
0
  6
CONTINUOUS
 62
     7
100
AcDbLine
 10
226.178542
 20
98.485595
 30
0.0
 11
225.968222
 21
98.6345
 31
0.0
  0
LINE
  5
132B
100
AcDbEntity
  8
15000_BACK
370
    25
390
0
  6
CONTINUOUS
 62
     7
100
AcDbLine
 10
223.03179
 20
113.16549
 30
0.0
 11
222.82147
 21
113.314395
 31
0.0
  0
LINE
  5
132C
100
AcDbEntity
  8
15000_BACK
370
    25
390
0
  6
CONTINUOUS
 62
     7
100
AcDbLine
 10
236.249086
 20
93.588839
 30
0.0
 11
236.120461
 21
93.675202
 31
0.0
  0
LINE
  5
132D
100
AcDbEntity
  8
15000_BACK
370
    25
390
0
  6
CONTINUOUS
 62
     7
100
AcDbLine
 10
230.950855
 20
126.265935
 30
0.0
 11
228.300008
 21
127.97566
 31
0.0
  0
LINE
  5
132E
100
AcDbEntity
  8
15000_BACK
370
    25
390
0
  6
CONTINUOUS
 62
     7
100
AcDbLine
 10
235.470637
 20
92.685707
 30
0.0
 11
235.35541
 21
92.759514
 31
0.0
  0
LINE
  5
132F
100
AcDbEntity
  8
15000_BACK
370
    25
390
0
  6
CONTINUOUS
 62
     7
100
AcDbLine
 10
227.1115
 20
97.025248
 30
0.0
 11
227.105413
 21
97.029022
 31
0.0
  0
LINE
  5
1330
100
AcDbEntity
  8
15000_BACK
370
    25
390
0
  6
CONTINUOUS
 62
     7
100
AcDbLine
 10
221.894599
 20
114.770968
 30
0.0
 11
221.888512
 21
114.774742
 31
0.0
  0
LINE
  5
1331
100
AcDbEntity
  8
15000_BACK
370
    25
390
0
  6
CONTINUOUS
 62
     7
100
AcDbLine
 10
225.968222
 20
98.6345
 30
0.0
 11
225.744741
 21
98.762688
 31
0.0
  0
LINE
  5
1332
100
AcDbEntity
  8
15000_BACK
370
    25
390
0
  6
CONTINUOUS
 62
     7
100
AcDbLine
 10
223.255271
 20
113.037302
 30
0.0
 11
223.03179
 21
113.16549
 31
0.0
  0
LINE
  5
1333
100
AcDbEntity
  8
15000_BACK
370
    25
390
0
  6
CONTINUOUS
 62
     7
100
AcDbLine
 10
227.105413
 20
97.029022
 30
0.0
 11
227.098356
 21
97.032787
 31
0.0
  0
LINE
  5
1334
100
AcDbEntity
  8
15000_BACK
370
    25
390
0
  6
CONTINUOUS
 62
     7
100
AcDbLine
 10
221.901656
 20
114.767203
 30
0.0
 11
221.894599
 21
114.770968
 31
0.0
  0
LINE
  5
1335
100
AcDbEntity
  8
15000_BACK
370
    25
390
0
  6
CONTINUOUS
 62
     7
100
AcDbLine
 10
233.30224
 20
95.220058
 30
0.0
 11
233.041928
 21
95.349995
 31
0.0
  0
LINE
  5
1336
100
AcDbEntity
  8
15000_BACK
370
    25
390
0
  6
CONTINUOUS
 62
     7
100
AcDbLine
 10
228.777873
 20
111.610027
 30
0.0
 11
228.647717
 21
111.674995
 31
0.0
  0
LINE
  5
1337
100
AcDbEntity
  8
15000_BACK
370
    25
390
0
  6
CONTINUOUS
 62
     7
100
AcDbLine
 10
233.34435
 20
95.404245
 30
0.0
 11
233.059154
 21
95.545995
 31
0.0
  0
LINE
  5
1338
100
AcDbEntity
  8
15000_BACK
370
    25
390
0
  6
CONTINUOUS
 62
     7
100
AcDbLine
 10
228.798928
 20
111.70212
 30
0.0
 11
228.65633
 21
111.772995
 31
0.0
  0
LINE
  5
1339
100
AcDbEntity
  8
15000_BACK
370
    25
390
0
  6
CONTINUOUS
 62
     7
100
AcDbLine
 10
227.098356
 20
97.032787
 30
0.0
 11
227.090505
 21
97.036464
 31
0.0
  0
LINE
  5
133A
100
AcDbEntity
  8
15000_BACK
370
    25
390
0
  6
CONTINUOUS
 62
     7
100
AcDbLine
 10
221.909507
 20
114.763526
 30
0.0
 11
221.901656
 21
114.767203
 31
0.0
  0
LINE
  5
133B
100
AcDbEntity
  8
15000_BACK
370
    25
390
0
  6
CONTINUOUS
 62
     7
100
AcDbLine
 10
225.744741
 20
98.762688
 30
0.0
 11
225.509609
 21
98.869313
 31
0.0
  0
LINE
  5
133C
100
AcDbEntity
  8
15000_BACK
370
    25
390
0
  6
CONTINUOUS
 62
     7
100
AcDbLine
 10
223.490403
 20
112.930677
 30
0.0
 11
223.255271
 21
113.037302
 31
0.0
  0
LINE
  5
133D
100
AcDbEntity
  8
15000_BACK
370
    25
390
0
  6
CONTINUOUS
 62
     7
100
AcDbLine
 10
227.090505
 20
97.036464
 30
0.0
 11
227.082042
 21
97.039972
 31
0.0
  0
LINE
  5
133E
100
AcDbEntity
  8
15000_BACK
370
    25
390
0
  6
CONTINUOUS
 62
     7
100
AcDbLine
 10
221.91797
 20
114.760018
 30
0.0
 11
221.909507
 21
114.763526
 31
0.0
  0
LINE
  5
133F
100
AcDbEntity
  8
15000_BACK
370
    25
390
0
  6
CONTINUOUS
 62
     7
100
AcDbLine
 10
227.082042
 20
97.039972
 30
0.0
 11
227.073144
 21
97.043236
 31
0.0
  0
LINE
  5
1340
100
AcDbEntity
  8
15000_BACK
370
    25
390
0
  6
CONTINUOUS
 62
     7
100
AcDbLine
 10
221.926868
 20
114.756754
 30
0.0
 11
221.91797
 21
114.760018
 31
0.0
  0
LINE
  5
1341
100
AcDbEntity
  8
15000_BACK
370
    25
390
0
  6
CONTINUOUS
 62
     7
100
AcDbLine
 10
235.654195
 20
92.621395
 30
0.0
 11
235.470637
 21
92.685707
 31
0.0
  0
LINE
  5
1342
100
AcDbEntity
  8
15000_BACK
370
    25
390
0
  6
CONTINUOUS
 62
     7
100
AcDbLine
 10
236.120461
 20
93.675202
 30
0.0
 11
235.936902
 21
93.738595
 31
0.0
  0
LINE
  5
1343
100
AcDbEntity
  8
15000_BACK
370
    25
390
0
  6
CONTINUOUS
 62
     7
100
AcDbLine
 10
225.509609
 20
98.869313
 30
0.0
 11
225.265486
 21
98.953176
 31
0.0
  0
LINE
  5
1344
100
AcDbEntity
  8
15000_BACK
370
    25
390
0
  6
CONTINUOUS
 62
     7
100
AcDbLine
 10
223.734526
 20
112.846814
 30
0.0
 11
223.490403
 21
112.930677
 31
0.0
  0
LINE
  5
1345
100
AcDbEntity
  8
15000_BACK
370
    25
390
0
  6
CONTINUOUS
 62
     7
100
AcDbLine
 10
236.238367
 20
93.777795
 30
0.0
 11
235.942262
 21
93.875795
 31
0.0
  0
LINE
  5
1346
100
AcDbEntity
  8
15000_BACK
370
    25
390
0
  6
CONTINUOUS
 62
     7
100
AcDbLine
 10
235.648835
 20
92.484195
 30
0.0
 11
235.35273
 21
92.581889
 31
0.0
  0
LINE
  5
1347
100
AcDbEntity
  8
15000_BACK
370
    25
390
0
  6
CONTINUOUS
 62
     7
100
AcDbLine
 10
227.073144
 20
97.043236
 30
0.0
 11
227.063969
 21
97.04618
 31
0.0
  0
LINE
  5
1348
100
AcDbEntity
  8
15000_BACK
370
    25
390
0
  6
CONTINUOUS
 62
     7
100
AcDbLine
 10
221.936043
 20
114.75381
 30
0.0
 11
221.926868
 21
114.756754
 31
0.0
  0
LINE
  5
1349
100
AcDbEntity
  8
15000_BACK
370
    25
390
0
  6
CONTINUOUS
 62
     7
100
AcDbLine
 10
238.300006
 20
123.399995
 30
0.0
 11
228.300006
 21
126.300002
 31
0.0
  0
LINE
  5
134A
100
AcDbEntity
  8
15000_BACK
370
    25
390
0
  6
CONTINUOUS
 62
     7
100
AcDbLine
 10
227.063969
 20
97.04618
 30
0.0
 11
227.054004
 21
97.048955
 31
0.0
  0
LINE
  5
134B
100
AcDbEntity
  8
15000_BACK
370
    25
390
0
  6
CONTINUOUS
 62
     7
100
AcDbLine
 10
221.946008
 20
114.751035
 30
0.0
 11
221.936043
 21
114.75381
 31
0.0
  0
LINE
  5
134C
100
AcDbEntity
  8
15000_BACK
370
    25
390
0
  6
CONTINUOUS
 62
     7
100
AcDbLine
 10
227.054004
 20
97.048955
 30
0.0
 11
227.043152
 21
97.051613
 31
0.0
  0
LINE
  5
134D
100
AcDbEntity
  8
15000_BACK
370
    25
390
0
  6
CONTINUOUS
 62
     7
100
AcDbLine
 10
221.95686
 20
114.748377
 30
0.0
 11
221.946008
 21
114.751035
 31
0.0
  0
LINE
  5
134E
100
AcDbEntity
  8
15000_BACK
370
    25
390
0
  6
CONTINUOUS
 62
     7
100
AcDbLine
 10
225.265486
 20
98.953176
 30
0.0
 11
225.014176
 21
99.013673
 31
0.0
  0
LINE
  5
134F
100
AcDbEntity
  8
15000_BACK
370
    25
390
0
  6
CONTINUOUS
 62
     7
100
AcDbLine
 10
223.985836
 20
112.786317
 30
0.0
 11
223.734526
 21
112.846814
 31
0.0
  0
LINE
  5
1350
100
AcDbEntity
  8
15000_BACK
370
    25
390
0
  6
CONTINUOUS
 62
     7
100
AcDbLine
 10
227.043152
 20
97.051613
 30
0.0
 11
227.031659
 21
97.054103
 31
0.0
  0
LINE
  5
1351
100
AcDbEntity
  8
15000_BACK
370
    25
390
0
  6
CONTINUOUS
 62
     7
100
AcDbLine
 10
221.968353
 20
114.745887
 30
0.0
 11
221.95686
 21
114.748377
 31
0.0
  0
LINE
  5
1352
100
AcDbEntity
  8
15000_BACK
370
    25
390
0
  6
CONTINUOUS
 62
     7
100
AcDbLine
 10
227.031659
 20
97.054103
 30
0.0
 11
227.019776
 21
97.056373
 31
0.0
  0
LINE
  5
1353
100
AcDbEntity
  8
15000_BACK
370
    25
390
0
  6
CONTINUOUS
 62
     7
100
AcDbLine
 10
221.980236
 20
114.743617
 30
0.0
 11
221.968353
 21
114.745887
 31
0.0
  0
LINE
  5
1354
100
AcDbEntity
  8
15000_BACK
370
    25
390
0
  6
CONTINUOUS
 62
     7
100
AcDbLine
 10
227.019776
 20
97.056373
 30
0.0
 11
227.007751
 21
97.058373
 31
0.0
  0
LINE
  5
1355
100
AcDbEntity
  8
15000_BACK
370
    25
390
0
  6
CONTINUOUS
 62
     7
100
AcDbLine
 10
221.992261
 20
114.741617
 30
0.0
 11
221.980236
 21
114.743617
 31
0.0
  0
LINE
  5
1356
100
AcDbEntity
  8
15000_BACK
370
    25
390
0
  6
CONTINUOUS
 62
     7
100
AcDbLine
 10
225.014176
 20
99.013673
 30
0.0
 11
224.758305
 21
99.05017
 31
0.0
  0
LINE
  5
1357
100
AcDbEntity
  8
15000_BACK
370
    25
390
0
  6
CONTINUOUS
 62
     7
100
AcDbLine
 10
224.241707
 20
112.74982
 30
0.0
 11
223.985836
 21
112.786317
 31
0.0
  0
LINE
  5
1358
100
AcDbEntity
  8
15000_BACK
370
    25
390
0
  6
CONTINUOUS
 62
     7
100
AcDbLine
 10
227.007751
 20
97.058373
 30
0.0
 11
226.995829
 21
97.06005
 31
0.0
  0
LINE
  5
1359
100
AcDbEntity
  8
15000_BACK
370
    25
390
0
  6
CONTINUOUS
 62
     7
100
AcDbLine
 10
222.004183
 20
114.73994
 30
0.0
 11
221.992261
 21
114.741617
 31
0.0
  0
LINE
  5
135A
100
AcDbEntity
  8
15000_BACK
370
    25
390
0
  6
CONTINUOUS
 62
     7
100
AcDbLine
 10
226.995829
 20
97.06005
 30
0.0
 11
226.983488
 21
97.061464
 31
0.0
  0
LINE
  5
135B
100
AcDbEntity
  8
15000_BACK
370
    25
390
0
  6
CONTINUOUS
 62
     7
100
AcDbLine
 10
222.016524
 20
114.738526
 30
0.0
 11
222.004183
 21
114.73994
 31
0.0
  0
LINE
  5
135C
100
AcDbEntity
  8
15000_BACK
370
    25
390
0
  6
CONTINUOUS
 62
     7
100
AcDbLine
 10
226.983488
 20
97.061464
 30
0.0
 11
226.970418
 21
97.062664
 31
0.0
  0
LINE
  5
135D
100
AcDbEntity
  8
15000_BACK
370
    25
390
0
  6
CONTINUOUS
 62
     7
100
AcDbLine
 10
222.029594
 20
114.737326
 30
0.0
 11
222.016524
 21
114.738526
 31
0.0
  0
LINE
  5
135E
100
AcDbEntity
  8
15000_BACK
370
    25
390
0
  6
CONTINUOUS
 62
     7
100
AcDbLine
 10
226.970418
 20
97.062664
 30
0.0
 11
226.956912
 21
97.063634
 31
0.0
  0
LINE
  5
135F
100
AcDbEntity
  8
15000_BACK
370
    25
390
0
  6
CONTINUOUS
 62
     7
100
AcDbLine
 10
222.0431
 20
114.736356
 30
0.0
 11
222.029594
 21
114.737326
 31
0.0
  0
LINE
  5
1360
100
AcDbEntity
  8
15000_BACK
370
    25
390
0
  6
CONTINUOUS
 62
     7
100
AcDbLine
 10
225.916685
 20
98.943683
 30
0.0
 11
225.11724
 21
98.991895
 31
0.0
  0
LINE
  5
1361
100
AcDbEntity
  8
15000_BACK
370
    25
390
0
  6
CONTINUOUS
 62
     7
100
AcDbLine
 10
223.8828
 20
112.808093
 30
0.0
 11
223.083329
 21
112.856307
 31
0.0
  0
LINE
  5
1362
100
AcDbEntity
  8
15000_BACK
370
    25
390
0
  6
CONTINUOUS
 62
     7
100
AcDbLine
 10
226.956912
 20
97.063634
 30
0.0
 11
226.943261
 21
97.064353
 31
0.0
  0
LINE
  5
1363
100
AcDbEntity
  8
15000_BACK
370
    25
390
0
  6
CONTINUOUS
 62
     7
100
AcDbLine
 10
222.056751
 20
114.735637
 30
0.0
 11
222.0431
 21
114.736356
 31
0.0
  0
LINE
  5
1364
100
AcDbEntity
  8
15000_BACK
370
    25
390
0
  6
CONTINUOUS
 62
     7
100
AcDbLine
 10
224.758305
 20
99.05017
 30
0.0
 11
224.500006
 21
99.062377
 31
0.0
  0
LINE
  5
1365
100
AcDbEntity
  8
15000_BACK
370
    25
390
0
  6
CONTINUOUS
 62
     7
100
AcDbLine
 10
224.500006
 20
112.737613
 30
0.0
 11
224.241707
 21
112.74982
 31
0.0
  0
LINE
  5
1366
100
AcDbEntity
  8
15000_BACK
370
    25
390
0
  6
CONTINUOUS
 62
     7
100
AcDbLine
 10
226.943261
 20
97.064353
 30
0.0
 11
226.92976
 21
97.064802
 31
0.0
  0
LINE
  5
1367
100
AcDbEntity
  8
15000_BACK
370
    25
390
0
  6
CONTINUOUS
 62
     7
100
AcDbLine
 10
222.070252
 20
114.735188
 30
0.0
 11
222.056751
 21
114.735637
 31
0.0
  0
LINE
  5
1368
100
AcDbEntity
  8
15000_BACK
370
    25
390
0
  6
CONTINUOUS
 62
     7
100
AcDbLine
 10
226.99632
 20
95.645983
 30
0.0
 11
226.979465
 21
95.646208
 31
0.0
  0
LINE
  5
1369
100
AcDbEntity
  8
15000_BACK
370
    25
390
0
  6
CONTINUOUS
 62
     7
100
AcDbLine
 10
222.020537
 20
116.153782
 30
0.0
 11
222.003682
 21
116.154007
 31
0.0
  0
LINE
  5
136A
100
AcDbEntity
  8
15000_BACK
370
    25
390
0
  6
CONTINUOUS
 62
     7
100
AcDbLine
 10
226.92976
 20
97.064802
 30
0.0
 11
226.916698
 21
97.064963
 31
0.0
  0
LINE
  5
136B
100
AcDbEntity
  8
15000_BACK
370
    25
390
0
  6
CONTINUOUS
 62
     7
100
AcDbLine
 10
222.083314
 20
114.735027
 30
0.0
 11
222.070252
 21
114.735188
 31
0.0
  0
LINE
  5
136C
100
AcDbEntity
  8
15000_BACK
370
    25
390
0
  6
CONTINUOUS
 62
     7
100
AcDbLine
 10
226.979465
 20
95.646208
 30
0.0
 11
226.962107
 21
95.646401
 31
0.0
  0
LINE
  5
136D
100
AcDbEntity
  8
15000_BACK
370
    25
390
0
  6
CONTINUOUS
 62
     7
100
AcDbLine
 10
222.037897
 20
116.153589
 30
0.0
 11
222.020537
 21
116.153782
 31
0.0
  0
LINE
  5
136E
100
AcDbEntity
  8
15000_BACK
370
    25
390
0
  6
CONTINUOUS
 62
     7
100
AcDbLine
 10
226.962107
 20
95.646401
 30
0.0
 11
226.944852
 21
95.646552
 31
0.0
  0
LINE
  5
136F
100
AcDbEntity
  8
15000_BACK
370
    25
390
0
  6
CONTINUOUS
 62
     7
100
AcDbLine
 10
222.055153
 20
116.153438
 30
0.0
 11
222.037897
 21
116.153589
 31
0.0
  0
LINE
  5
1370
100
AcDbEntity
  8
15000_BACK
370
    25
390
0
  6
CONTINUOUS
 62
     7
100
AcDbLine
 10
226.944852
 20
95.646552
 30
0.0
 11
226.926459
 21
95.646671
 31
0.0
  0
LINE
  5
1371
100
AcDbEntity
  8
15000_BACK
370
    25
390
0
  6
CONTINUOUS
 62
     7
100
AcDbLine
 10
222.073548
 20
116.153319
 30
0.0
 11
222.055153
 21
116.153438
 31
0.0
  0
LINE
  5
1372
100
AcDbEntity
  8
15000_BACK
370
    25
390
0
  6
CONTINUOUS
 62
     7
100
AcDbLine
 10
226.926459
 20
95.646671
 30
0.0
 11
226.907053
 21
95.646762
 31
0.0
  0
LINE
  5
1373
100
AcDbEntity
  8
15000_BACK
370
    25
390
0
  6
CONTINUOUS
 62
     7
100
AcDbLine
 10
222.092956
 20
116.153228
 30
0.0
 11
222.073548
 21
116.153319
 31
0.0
  0
LINE
  5
1374
100
AcDbEntity
  8
15000_BACK
370
    25
390
0
  6
CONTINUOUS
 62
     7
100
AcDbLine
 10
226.907053
 20
95.646762
 30
0.0
 11
226.887471
 21
95.646819
 31
0.0
  0
LINE
  5
1375
100
AcDbEntity
  8
15000_BACK
370
    25
390
0
  6
CONTINUOUS
 62
     7
100
AcDbLine
 10
222.112539
 20
116.153171
 30
0.0
 11
222.092956
 21
116.153228
 31
0.0
  0
LINE
  5
1376
100
AcDbEntity
  8
15000_BACK
370
    25
390
0
  6
CONTINUOUS
 62
     7
100
AcDbLine
 10
226.887471
 20
95.646819
 30
0.0
 11
226.86855
 21
95.646839
 31
0.0
  0
LINE
  5
1377
100
AcDbEntity
  8
15000_BACK
370
    25
390
0
  6
CONTINUOUS
 62
     7
100
AcDbLine
 10
222.131462
 20
116.153151
 30
0.0
 11
222.112539
 21
116.153171
 31
0.0
  0
LINE
  5
1378
100
AcDbEntity
  8
15000_BACK
370
    25
390
0
  6
CONTINUOUS
 62
     7
100
AcDbLine
 10
220.400006
 20
89.899995
 30
0.0
 11
221.000006
 21
89.899995
 31
0.0
  0
LINE
  5
1379
100
AcDbEntity
  8
15000_BACK
370
    25
390
0
  6
CONTINUOUS
 62
     7
100
AcDbLine
 10
228.000006
 20
89.899995
 30
0.0
 11
228.600006
 21
89.899995
 31
0.0
  0
LINE
  5
137A
100
AcDbEntity
  8
15000_BACK
370
    25
390
0
  6
CONTINUOUS
 62
     7
100
AcDbLine
 10
221.000006
 20
90.038324
 30
0.0
 11
228.000006
 21
90.038324
 31
0.0
  0
LINE
  5
137B
100
AcDbEntity
  8
15000_BACK
370
    25
390
0
  6
CONTINUOUS
 62
     7
100
AcDbLine
 10
209.500006
 20
90.199995
 30
0.0
 11
220.400023
 21
90.199995
 31
0.0
  0
LINE
  5
137C
100
AcDbEntity
  8
15000_BACK
370
    25
390
0
  6
CONTINUOUS
 62
     7
100
AcDbLine
 10
231.700006
 20
90.199995
 30
0.0
 11
231.708733
 21
90.199995
 31
0.0
  0
LINE
  5
137D
100
AcDbEntity
  8
15000_BACK
370
    25
390
0
  6
CONTINUOUS
 62
     7
100
AcDbLine
 10
237.291279
 20
90.199995
 30
0.0
 11
237.300006
 21
90.199995
 31
0.0
  0
LINE
  5
137E
100
AcDbEntity
  8
15000_BACK
370
    25
390
0
  6
CONTINUOUS
 62
     7
100
AcDbLine
 10
237.300006
 20
90.199995
 30
0.0
 11
239.500006
 21
90.199995
 31
0.0
  0
LINE
  5
137F
100
AcDbEntity
  8
15000_BACK
370
    25
390
0
  6
CONTINUOUS
 62
     7
100
AcDbLine
 10
237.271192
 20
90.199995
 30
0.0
 11
237.291279
 21
90.199995
 31
0.0
  0
LINE
  5
1380
100
AcDbEntity
  8
15000_BACK
370
    25
390
0
  6
CONTINUOUS
 62
     7
100
AcDbLine
 10
237.0712
 20
90.199995
 30
0.0
 11
237.271192
 21
90.199995
 31
0.0
  0
LINE
  5
1381
100
AcDbEntity
  8
15000_BACK
370
    25
390
0
  6
CONTINUOUS
 62
     7
100
AcDbLine
 10
236.500006
 20
90.199995
 30
0.0
 11
237.0712
 21
90.199995
 31
0.0
  0
LINE
  5
1382
100
AcDbEntity
  8
15000_BACK
370
    25
390
0
  6
CONTINUOUS
 62
     7
100
AcDbLine
 10
236.300006
 20
90.199995
 30
0.0
 11
236.500006
 21
90.199995
 31
0.0
  0
LINE
  5
1383
100
AcDbEntity
  8
15000_BACK
370
    25
390
0
  6
CONTINUOUS
 62
     7
100
AcDbLine
 10
232.700006
 20
90.199995
 30
0.0
 11
236.300006
 21
90.199995
 31
0.0
  0
LINE
  5
1384
100
AcDbEntity
  8
15000_BACK
370
    25
390
0
  6
CONTINUOUS
 62
     7
100
AcDbLine
 10
232.500006
 20
90.199995
 30
0.0
 11
232.700006
 21
90.199995
 31
0.0
  0
LINE
  5
1385
100
AcDbEntity
  8
15000_BACK
370
    25
390
0
  6
CONTINUOUS
 62
     7
100
AcDbLine
 10
231.928812
 20
90.199995
 30
0.0
 11
232.500006
 21
90.199995
 31
0.0
  0
LINE
  5
1386
100
AcDbEntity
  8
15000_BACK
370
    25
390
0
  6
CONTINUOUS
 62
     7
100
AcDbLine
 10
231.72882
 20
90.199995
 30
0.0
 11
231.928812
 21
90.199995
 31
0.0
  0
LINE
  5
1387
100
AcDbEntity
  8
15000_BACK
370
    25
390
0
  6
CONTINUOUS
 62
     7
100
AcDbLine
 10
231.708733
 20
90.199995
 30
0.0
 11
231.72882
 21
90.199995
 31
0.0
  0
LINE
  5
1388
100
AcDbEntity
  8
15000_BACK
370
    25
390
0
  6
CONTINUOUS
 62
     7
100
AcDbLine
 10
228.600015
 20
90.199995
 30
0.0
 11
231.700006
 21
90.199995
 31
0.0
  0
LINE
  5
1389
100
AcDbEntity
  8
15000_BACK
370
    25
390
0
  6
CONTINUOUS
 62
     7
100
AcDbLine
 10
228.600023
 20
90.199995
 30
0.0
 11
238.150006
 21
90.199995
 31
0.0
  0
LINE
  5
138A
100
AcDbEntity
  8
15000_BACK
370
    25
390
0
  6
CONTINUOUS
 62
     7
100
AcDbLine
 10
219.600006
 20
90.273612
 30
0.0
 11
220.400006
 21
90.273612
 31
0.0
  0
LINE
  5
138B
100
AcDbEntity
  8
15000_BACK
370
    25
390
0
  6
CONTINUOUS
 62
     7
100
AcDbLine
 10
228.600006
 20
90.273612
 30
0.0
 11
229.400006
 21
90.273612
 31
0.0
  0
LINE
  5
138C
100
AcDbEntity
  8
15000_BACK
370
    25
390
0
  6
CONTINUOUS
 62
     7
100
AcDbLine
 10
221.000006
 20
90.431999
 30
0.0
 11
221.700006
 21
90.431999
 31
0.0
  0
LINE
  5
138D
100
AcDbEntity
  8
15000_BACK
370
    25
390
0
  6
CONTINUOUS
 62
     7
100
AcDbLine
 10
227.300006
 20
90.431999
 30
0.0
 11
228.000006
 21
90.431999
 31
0.0
  0
LINE
  5
138E
100
AcDbEntity
  8
15000_BACK
370
    25
390
0
  6
CONTINUOUS
 62
     7
100
AcDbLine
 10
219.600006
 20
90.452089
 30
0.0
 11
220.400006
 21
90.452089
 31
0.0
  0
LINE
  5
138F
100
AcDbEntity
  8
15000_BACK
370
    25
390
0
  6
CONTINUOUS
 62
     7
100
AcDbLine
 10
228.600006
 20
90.452089
 30
0.0
 11
229.400006
 21
90.452089
 31
0.0
  0
LINE
  5
1390
100
AcDbEntity
  8
15000_BACK
370
    25
390
0
  6
CONTINUOUS
 62
     7
100
AcDbLine
 10
221.700009
 20
90.454949
 30
0.0
 11
227.300009
 21
90.454949
 31
0.0
  0
LINE
  5
1391
100
AcDbEntity
  8
15000_BACK
370
    25
390
0
  6
CONTINUOUS
 62
     7
100
AcDbLine
 10
219.601624
 20
90.877649
 30
0.0
 11
221.700006
 21
90.877649
 31
0.0
  0
LINE
  5
1392
100
AcDbEntity
  8
15000_BACK
370
    25
390
0
  6
CONTINUOUS
 62
     7
100
AcDbLine
 10
228.000006
 20
90.877649
 30
0.0
 11
229.398388
 21
90.877649
 31
0.0
  0
LINE
  5
1393
100
AcDbEntity
  8
15000_BACK
370
    25
390
0
  6
CONTINUOUS
 62
     7
100
AcDbLine
 10
227.300006
 20
90.877649
 30
0.0
 11
228.000006
 21
90.877649
 31
0.0
  0
LINE
  5
1394
100
AcDbEntity
  8
15000_BACK
370
    25
390
0
  6
CONTINUOUS
 62
     7
100
AcDbLine
 10
227.300006
 20
91.076032
 30
0.0
 11
229.200006
 21
91.076032
 31
0.0
  0
LINE
  5
1395
100
AcDbEntity
  8
15000_BACK
370
    25
390
0
  6
CONTINUOUS
 62
     7
100
AcDbLine
 10
219.800006
 20
91.076032
 30
0.0
 11
221.000006
 21
91.076032
 31
0.0
  0
LINE
  5
1396
100
AcDbEntity
  8
15000_BACK
370
    25
390
0
  6
CONTINUOUS
 62
     7
100
AcDbLine
 10
221.000006
 20
91.076032
 30
0.0
 11
221.700006
 21
91.076032
 31
0.0
  0
LINE
  5
1397
100
AcDbEntity
  8
15000_BACK
370
    25
390
0
  6
CONTINUOUS
 62
     7
100
AcDbLine
 10
221.700012
 20
91.460303
 30
0.0
 11
227.300012
 21
91.460303
 31
0.0
  0
LINE
  5
1398
100
AcDbEntity
  8
15000_BACK
370
    25
390
0
  6
CONTINUOUS
 62
     7
100
AcDbLine
 10
221.700009
 20
91.940172
 30
0.0
 11
227.30001
 21
91.940172
 31
0.0
  0
LINE
  5
1399
100
AcDbEntity
  8
15000_BACK
370
    25
390
0
  6
CONTINUOUS
 62
     7
100
AcDbLine
 10
221.700009
 20
91.966968
 30
0.0
 11
227.300009
 21
91.966968
 31
0.0
  0
LINE
  5
139A
100
AcDbEntity
  8
15000_BACK
370
    25
390
0
  6
CONTINUOUS
 62
     7
100
AcDbLine
 10
221.700006
 20
92.199995
 30
0.0
 11
227.300006
 21
92.199995
 31
0.0
  0
LINE
  5
139B
100
AcDbEntity
  8
15000_BACK
370
    25
390
0
  6
CONTINUOUS
 62
     7
100
AcDbLine
 10
211.708733
 20
92.199995
 30
0.0
 11
217.291279
 21
92.199995
 31
0.0
  0
LINE
  5
139C
100
AcDbEntity
  8
15000_BACK
370
    25
390
0
  6
CONTINUOUS
 62
     7
100
AcDbLine
 10
231.708733
 20
92.199995
 30
0.0
 11
237.291279
 21
92.199995
 31
0.0
  0
LINE
  5
139D
100
AcDbEntity
  8
15000_BACK
370
    25
390
0
  6
CONTINUOUS
 62
     7
100
AcDbLine
 10
235.648835
 20
92.484195
 30
0.0
 11
235.942262
 21
92.484195
 31
0.0
  0
LINE
  5
139E
100
AcDbEntity
  8
15000_BACK
370
    25
390
0
  6
CONTINUOUS
 62
     7
100
AcDbLine
 10
236.90661
 20
92.484195
 30
0.0
 11
237.019157
 21
92.484195
 31
0.0
  0
LINE
  5
139F
100
AcDbEntity
  8
15000_BACK
370
    25
390
0
  6
CONTINUOUS
 62
     7
100
AcDbLine
 10
216.90661
 20
92.484195
 30
0.0
 11
217.019157
 21
92.484195
 31
0.0
  0
LINE
  5
13A0
100
AcDbEntity
  8
15000_BACK
370
    25
390
0
  6
CONTINUOUS
 62
     7
100
AcDbLine
 10
216.109206
 20
92.484195
 30
0.0
 11
216.246406
 21
92.484195
 31
0.0
  0
LINE
  5
13A1
100
AcDbEntity
  8
15000_BACK
370
    25
390
0
  6
CONTINUOUS
 62
     7
100
AcDbLine
 10
214.295154
 20
92.605995
 30
0.0
 11
214.455936
 21
92.605995
 31
0.0
  0
LINE
  5
13A2
100
AcDbEntity
  8
15000_BACK
370
    25
390
0
  6
CONTINUOUS
 62
     7
100
AcDbLine
 10
212.739506
 20
92.605995
 30
0.0
 11
212.935506
 21
92.605995
 31
0.0
  0
LINE
  5
13A3
100
AcDbEntity
  8
15000_BACK
370
    25
390
0
  6
CONTINUOUS
 62
     7
100
AcDbLine
 10
234.295154
 20
92.605995
 30
0.0
 11
234.455936
 21
92.605995
 31
0.0
  0
LINE
  5
13A4
100
AcDbEntity
  8
15000_BACK
370
    25
390
0
  6
CONTINUOUS
 62
     7
100
AcDbLine
 10
231.746108
 20
92.605995
 30
0.0
 11
233.767358
 21
92.605995
 31
0.0
  0
LINE
  5
13A5
100
AcDbEntity
  8
15000_BACK
370
    25
390
0
  6
CONTINUOUS
 62
     7
100
AcDbLine
 10
235.654195
 20
92.621395
 30
0.0
 11
235.936902
 21
92.621395
 31
0.0
  0
LINE
  5
13A6
100
AcDbEntity
  8
15000_BACK
370
    25
390
0
  6
CONTINUOUS
 62
     7
100
AcDbLine
 10
217.300006
 20
92.699994
 30
0.0
 11
219.600019
 21
92.699994
 31
0.0
  0
LINE
  5
13A7
100
AcDbEntity
  8
15000_BACK
370
    25
390
0
  6
CONTINUOUS
 62
     7
100
AcDbLine
 10
209.500006
 20
92.699994
 30
0.0
 11
211.700006
 21
92.699994
 31
0.0
  0
LINE
  5
13A8
100
AcDbEntity
  8
15000_BACK
370
    25
390
0
  6
CONTINUOUS
 62
     7
100
AcDbLine
 10
237.300006
 20
92.699994
 30
0.0
 11
239.500006
 21
92.699994
 31
0.0
  0
LINE
  5
13A9
100
AcDbEntity
  8
15000_BACK
370
    25
390
0
  6
CONTINUOUS
 62
     7
100
AcDbLine
 10
229.400019
 20
92.699994
 30
0.0
 11
231.700006
 21
92.699994
 31
0.0
  0
LINE
  5
13AA
100
AcDbEntity
  8
15000_BACK
370
    25
390
0
  6
CONTINUOUS
 62
     7
100
AcDbLine
 10
232.161459
 20
92.801995
 30
0.0
 11
233.767358
 21
92.801995
 31
0.0
  0
LINE
  5
13AB
100
AcDbEntity
  8
15000_BACK
370
    25
390
0
  6
CONTINUOUS
 62
     7
100
AcDbLine
 10
236.90661
 20
92.817395
 30
0.0
 11
237.019157
 21
92.817395
 31
0.0
  0
LINE
  5
13AC
100
AcDbEntity
  8
15000_BACK
370
    25
390
0
  6
CONTINUOUS
 62
     7
100
AcDbLine
 10
216.90661
 20
92.817395
 30
0.0
 11
217.019157
 21
92.817395
 31
0.0
  0
LINE
  5
13AD
100
AcDbEntity
  8
15000_BACK
370
    25
390
0
  6
CONTINUOUS
 62
     7
100
AcDbLine
 10
235.135676
 20
92.909577
 30
0.0
 11
235.280379
 21
92.909577
 31
0.0
  0
LINE
  5
13AE
100
AcDbEntity
  8
15000_BACK
370
    25
390
0
  6
CONTINUOUS
 62
     7
100
AcDbLine
 10
216.246406
 20
92.974195
 30
0.0
 11
216.630941
 21
92.974195
 31
0.0
  0
LINE
  5
13AF
100
AcDbEntity
  8
15000_BACK
370
    25
390
0
  6
CONTINUOUS
 62
     7
100
AcDbLine
 10
215.12442
 20
92.974195
 30
0.0
 11
216.109206
 21
92.974195
 31
0.0
  0
LINE
  5
13B0
100
AcDbEntity
  8
15000_BACK
370
    25
390
0
  6
CONTINUOUS
 62
     7
100
AcDbLine
 10
214.295154
 20
93.081995
 30
0.0
 11
214.455936
 21
93.081995
 31
0.0
  0
LINE
  5
13B1
100
AcDbEntity
  8
15000_BACK
370
    25
390
0
  6
CONTINUOUS
 62
     7
100
AcDbLine
 10
234.295154
 20
93.081995
 30
0.0
 11
234.455936
 21
93.081995
 31
0.0
  0
LINE
  5
13B2
100
AcDbEntity
  8
15000_BACK
370
    25
390
0
  6
CONTINUOUS
 62
     7
100
AcDbLine
 10
215.373632
 20
93.111395
 30
0.0
 11
216.109206
 21
93.111395
 31
0.0
  0
LINE
  5
13B3
100
AcDbEntity
  8
15000_BACK
370
    25
390
0
  6
CONTINUOUS
 62
     7
100
AcDbLine
 10
216.246406
 20
93.111395
 30
0.0
 11
216.630941
 21
93.111395
 31
0.0
  0
LINE
  5
13B4
100
AcDbEntity
  8
15000_BACK
370
    25
390
0
  6
CONTINUOUS
 62
     7
100
AcDbLine
 10
209.500006
 20
93.299995
 30
0.0
 11
211.700006
 21
93.299995
 31
0.0
  0
LINE
  5
13B5
100
AcDbEntity
  8
15000_BACK
370
    25
390
0
  6
CONTINUOUS
 62
     7
100
AcDbLine
 10
217.300006
 20
93.299995
 30
0.0
 11
219.600021
 21
93.299995
 31
0.0
  0
LINE
  5
13B6
100
AcDbEntity
  8
15000_BACK
370
    25
390
0
  6
CONTINUOUS
 62
     7
100
AcDbLine
 10
229.400021
 20
93.299995
 30
0.0
 11
231.700006
 21
93.299995
 31
0.0
  0
LINE
  5
13B7
100
AcDbEntity
  8
15000_BACK
370
    25
390
0
  6
CONTINUOUS
 62
     7
100
AcDbLine
 10
237.300006
 20
93.299995
 30
0.0
 11
239.500006
 21
93.299995
 31
0.0
  0
LINE
  5
13B8
100
AcDbEntity
  8
15000_BACK
370
    25
390
0
  6
CONTINUOUS
 62
     7
100
AcDbLine
 10
235.242863
 20
93.642126
 30
0.0
 11
235.368808
 21
93.642126
 31
0.0
  0
LINE
  5
13B9
100
AcDbEntity
  8
15000_BACK
370
    25
390
0
  6
CONTINUOUS
 62
     7
100
AcDbLine
 10
235.560406
 20
93.738595
 30
0.0
 11
235.936902
 21
93.738595
 31
0.0
  0
LINE
  5
13BA
100
AcDbEntity
  8
15000_BACK
370
    25
390
0
  6
CONTINUOUS
 62
     7
100
AcDbLine
 10
235.648835
 20
93.875795
 30
0.0
 11
235.942262
 21
93.875795
 31
0.0
  0
LINE
  5
13BB
100
AcDbEntity
  8
15000_BACK
370
    25
390
0
  6
CONTINUOUS
 62
     7
100
AcDbLine
 10
224.500006
 20
93.999995
 30
0.0
 11
227.600006
 21
93.999995
 31
0.0
  0
LINE
  5
13BC
100
AcDbEntity
  8
15000_BACK
370
    25
390
0
  6
CONTINUOUS
 62
     7
100
AcDbLine
 10
209.500006
 20
94.390535
 30
0.0
 11
211.100006
 21
94.390535
 31
0.0
  0
LINE
  5
13BD
100
AcDbEntity
  8
15000_BACK
370
    25
390
0
  6
CONTINUOUS
 62
     7
100
AcDbLine
 10
237.900006
 20
94.390535
 30
0.0
 11
239.500006
 21
94.390535
 31
0.0
  0
LINE
  5
13BE
100
AcDbEntity
  8
15000_BACK
370
    25
390
0
  6
CONTINUOUS
 62
     7
100
AcDbLine
 10
235.478675
 20
94.404995
 30
0.0
 11
236.345555
 21
94.404995
 31
0.0
  0
LINE
  5
13BF
100
AcDbEntity
  8
15000_BACK
370
    25
390
0
  6
CONTINUOUS
 62
     7
100
AcDbLine
 10
237.900006
 20
94.521447
 30
0.0
 11
238.250006
 21
94.521447
 31
0.0
  0
LINE
  5
13C0
100
AcDbEntity
  8
15000_BACK
370
    25
390
0
  6
CONTINUOUS
 62
     7
100
AcDbLine
 10
210.750006
 20
94.521447
 30
0.0
 11
211.100006
 21
94.521447
 31
0.0
  0
LINE
  5
13C1
100
AcDbEntity
  8
15000_BACK
370
    25
390
0
  6
CONTINUOUS
 62
     7
100
AcDbLine
 10
235.343352
 20
94.542195
 30
0.0
 11
236.345555
 21
94.542195
 31
0.0
  0
LINE
  5
13C2
100
AcDbEntity
  8
15000_BACK
370
    25
390
0
  6
CONTINUOUS
 62
     7
100
AcDbLine
 10
216.213446
 20
94.542195
 30
0.0
 11
216.246406
 21
94.542195
 31
0.0
  0
LINE
  5
13C3
100
AcDbEntity
  8
15000_BACK
370
    25
390
0
  6
CONTINUOUS
 62
     7
100
AcDbLine
 10
209.500006
 20
94.599122
 30
0.0
 11
210.750006
 21
94.599122
 31
0.0
  0
LINE
  5
13C4
100
AcDbEntity
  8
15000_BACK
370
    25
390
0
  6
CONTINUOUS
 62
     7
100
AcDbLine
 10
238.250006
 20
94.599122
 30
0.0
 11
239.500006
 21
94.599122
 31
0.0
  0
LINE
  5
13C5
100
AcDbEntity
  8
15000_BACK
370
    25
390
0
  6
CONTINUOUS
 62
     7
100
AcDbLine
 10
223.985006
 20
94.612791
 30
0.0
 11
224.985006
 21
94.612791
 31
0.0
  0
LINE
  5
13C6
100
AcDbEntity
  8
15000_BACK
370
    25
390
0
  6
CONTINUOUS
 62
     7
100
AcDbLine
 10
237.900011
 20
94.649995
 30
0.0
 11
239.150006
 21
94.649995
 31
0.0
  0
LINE
  5
13C7
100
AcDbEntity
  8
15000_BACK
370
    25
390
0
  6
CONTINUOUS
 62
     7
100
AcDbLine
 10
209.850006
 20
94.649995
 30
0.0
 11
211.100011
 21
94.649995
 31
0.0
  0
LINE
  5
13C8
100
AcDbEntity
  8
15000_BACK
370
    25
390
0
  6
CONTINUOUS
 62
     7
100
AcDbLine
 10
231.922201
 20
94.800495
 30
0.0
 11
232.121264
 21
94.800495
 31
0.0
  0
LINE
  5
13C9
100
AcDbEntity
  8
15000_BACK
370
    25
390
0
  6
CONTINUOUS
 62
     7
100
AcDbLine
 10
226.639425
 20
95.199995
 30
0.0
 11
227.600006
 21
95.199995
 31
0.0
  0
LINE
  5
13CA
100
AcDbEntity
  8
15000_BACK
370
    25
390
0
  6
CONTINUOUS
 62
     7
100
AcDbLine
 10
232.509819
 20
95.349995
 30
0.0
 11
233.041928
 21
95.349995
 31
0.0
  0
LINE
  5
13CB
100
AcDbEntity
  8
15000_BACK
370
    25
390
0
  6
CONTINUOUS
 62
     7
100
AcDbLine
 10
212.894162
 20
95.545995
 30
0.0
 11
212.935506
 21
95.545995
 31
0.0
  0
LINE
  5
13CC
100
AcDbEntity
  8
15000_BACK
370
    25
390
0
  6
CONTINUOUS
 62
     7
100
AcDbLine
 10
232.494506
 20
95.545995
 30
0.0
 11
233.059154
 21
95.545995
 31
0.0
  0
LINE
  5
13CD
100
AcDbEntity
  8
15000_BACK
370
    25
390
0
  6
CONTINUOUS
 62
     7
100
AcDbLine
 10
224.985006
 20
95.646839
 30
0.0
 11
226.86855
 21
95.646839
 31
0.0
  0
LINE
  5
13CE
100
AcDbEntity
  8
15000_BACK
370
    25
390
0
  6
CONTINUOUS
 62
     7
100
AcDbLine
 10
222.131462
 20
95.646839
 30
0.0
 11
223.985006
 21
95.646839
 31
0.0
  0
LINE
  5
13CF
100
AcDbEntity
  8
15000_BACK
370
    25
390
0
  6
CONTINUOUS
 62
     7
100
AcDbLine
 10
221.764362
 20
96.706533
 30
0.0
 11
223.985006
 21
96.706533
 31
0.0
  0
LINE
  5
13D0
100
AcDbEntity
  8
15000_BACK
370
    25
390
0
  6
CONTINUOUS
 62
     7
100
AcDbLine
 10
224.985006
 20
96.706533
 30
0.0
 11
227.23565
 21
96.706533
 31
0.0
  0
LINE
  5
13D1
100
AcDbEntity
  8
15000_BACK
370
    25
390
0
  6
CONTINUOUS
 62
     7
100
AcDbLine
 10
222.083314
 20
97.064963
 30
0.0
 11
223.985006
 21
97.064963
 31
0.0
  0
LINE
  5
13D2
100
AcDbEntity
  8
15000_BACK
370
    25
390
0
  6
CONTINUOUS
 62
     7
100
AcDbLine
 10
224.985006
 20
97.064963
 30
0.0
 11
226.916698
 21
97.064963
 31
0.0
  0
LINE
  5
13D3
100
AcDbEntity
  8
15000_BACK
370
    25
390
0
  6
CONTINUOUS
 62
     7
100
AcDbLine
 10
237.900011
 20
97.549995
 30
0.0
 11
239.150006
 21
97.549995
 31
0.0
  0
LINE
  5
13D4
100
AcDbEntity
  8
15000_BACK
370
    25
390
0
  6
CONTINUOUS
 62
     7
100
AcDbLine
 10
209.850006
 20
97.549995
 30
0.0
 11
211.100011
 21
97.549995
 31
0.0
  0
LINE
  5
13D5
100
AcDbEntity
  8
15000_BACK
370
    25
390
0
  6
CONTINUOUS
 62
     7
100
AcDbLine
 10
223.985006
 20
97.870961
 30
0.0
 11
224.985006
 21
97.870961
 31
0.0
  0
LINE
  5
13D6
100
AcDbEntity
  8
15000_BACK
370
    25
390
0
  6
CONTINUOUS
 62
     7
100
AcDbLine
 10
223.985006
 20
98.108859
 30
0.0
 11
224.985006
 21
98.108859
 31
0.0
  0
LINE
  5
13D7
100
AcDbEntity
  8
15000_BACK
370
    25
390
0
  6
CONTINUOUS
 62
     7
100
AcDbLine
 10
238.150006
 20
98.649995
 30
0.0
 11
239.150006
 21
98.649995
 31
0.0
  0
LINE
  5
13D8
100
AcDbEntity
  8
15000_BACK
370
    25
390
0
  6
CONTINUOUS
 62
     7
100
AcDbLine
 10
209.850006
 20
98.649995
 30
0.0
 11
210.850006
 21
98.649995
 31
0.0
  0
LINE
  5
13D9
100
AcDbEntity
  8
15000_BACK
370
    25
390
0
  6
CONTINUOUS
 62
     7
100
AcDbLine
 10
228.496506
 20
100.432995
 30
0.0
 11
228.594506
 21
100.432995
 31
0.0
  0
LINE
  5
13DA
100
AcDbEntity
  8
15000_BACK
370
    25
390
0
  6
CONTINUOUS
 62
     7
100
AcDbLine
 10
227.741307
 20
100.432995
 30
0.0
 11
227.845623
 21
100.432995
 31
0.0
  0
LINE
  5
13DB
100
AcDbEntity
  8
15000_BACK
370
    25
390
0
  6
CONTINUOUS
 62
     7
100
AcDbLine
 10
226.830213
 20
100.432995
 30
0.0
 11
226.933573
 21
100.432995
 31
0.0
  0
LINE
  5
13DC
100
AcDbEntity
  8
15000_BACK
370
    25
390
0
  6
CONTINUOUS
 62
     7
100
AcDbLine
 10
224.500006
 20
101.349995
 30
0.0
 11
226.500006
 21
101.349995
 31
0.0
  0
LINE
  5
13DD
100
AcDbEntity
  8
15000_BACK
370
    25
390
0
  6
CONTINUOUS
 62
     7
100
AcDbLine
 10
209.500006
 20
101.900868
 30
0.0
 11
210.750006
 21
101.900868
 31
0.0
  0
LINE
  5
13DE
100
AcDbEntity
  8
15000_BACK
370
    25
390
0
  6
CONTINUOUS
 62
     7
100
AcDbLine
 10
238.250006
 20
101.900868
 30
0.0
 11
239.500006
 21
101.900868
 31
0.0
  0
LINE
  5
13DF
100
AcDbEntity
  8
15000_BACK
370
    25
390
0
  6
CONTINUOUS
 62
     7
100
AcDbLine
 10
228.573834
 20
101.902995
 30
0.0
 11
228.594506
 21
101.902995
 31
0.0
  0
LINE
  5
13E0
100
AcDbEntity
  8
15000_BACK
370
    25
390
0
  6
CONTINUOUS
 62
     7
100
AcDbLine
 10
226.830213
 20
101.902995
 30
0.0
 11
226.933573
 21
101.902995
 31
0.0
  0
LINE
  5
13E1
100
AcDbEntity
  8
15000_BACK
370
    25
390
0
  6
CONTINUOUS
 62
     7
100
AcDbLine
 10
227.741307
 20
101.902995
 30
0.0
 11
227.845623
 21
101.902995
 31
0.0
  0
LINE
  5
13E2
100
AcDbEntity
  8
15000_BACK
370
    25
390
0
  6
CONTINUOUS
 62
     7
100
AcDbLine
 10
210.750006
 20
101.992507
 30
0.0
 11
211.100006
 21
101.992507
 31
0.0
  0
LINE
  5
13E3
100
AcDbEntity
  8
15000_BACK
370
    25
390
0
  6
CONTINUOUS
 62
     7
100
AcDbLine
 10
237.900006
 20
101.992507
 30
0.0
 11
238.250006
 21
101.992507
 31
0.0
  0
LINE
  5
13E4
100
AcDbEntity
  8
15000_BACK
370
    25
390
0
  6
CONTINUOUS
 62
     7
100
AcDbLine
 10
237.900006
 20
102.004725
 30
0.0
 11
239.500006
 21
102.004725
 31
0.0
  0
LINE
  5
13E5
100
AcDbEntity
  8
15000_BACK
370
    25
390
0
  6
CONTINUOUS
 62
     7
100
AcDbLine
 10
209.500006
 20
102.004725
 30
0.0
 11
211.100006
 21
102.004725
 31
0.0
  0
LINE
  5
13E6
100
AcDbEntity
  8
15000_BACK
370
    25
390
0
  6
CONTINUOUS
 62
     7
100
AcDbLine
 10
224.500006
 20
102.299995
 30
0.0
 11
228.600006
 21
102.299995
 31
0.0
  0
LINE
  5
13E7
100
AcDbEntity
  8
15000_BACK
370
    25
390
0
  6
CONTINUOUS
 62
     7
100
AcDbLine
 10
224.500006
 20
102.599995
 30
0.0
 11
228.600006
 21
102.599995
 31
0.0
  0
LINE
  5
13E8
100
AcDbEntity
  8
15000_BACK
370
    25
390
0
  6
CONTINUOUS
 62
     7
100
AcDbLine
 10
219.800006
 20
102.899995
 30
0.0
 11
229.200006
 21
102.899995
 31
0.0
  0
LINE
  5
13E9
100
AcDbEntity
  8
15000_BACK
370
    25
390
0
  6
CONTINUOUS
 62
     7
100
AcDbLine
 10
211.100006
 20
102.899994
 30
0.0
 11
214.803486
 21
102.899994
 31
0.0
  0
LINE
  5
13EA
100
AcDbEntity
  8
15000_BACK
370
    25
390
0
  6
CONTINUOUS
 62
     7
100
AcDbLine
 10
234.196526
 20
102.899994
 30
0.0
 11
237.900006
 21
102.899994
 31
0.0
  0
LINE
  5
13EB
100
AcDbEntity
  8
15000_BACK
370
    25
390
0
  6
CONTINUOUS
 62
     7
100
AcDbLine
 10
219.600006
 20
103.099996
 30
0.0
 11
229.400006
 21
103.099996
 31
0.0
  0
LINE
  5
13EC
100
AcDbEntity
  8
15000_BACK
370
    25
390
0
  6
CONTINUOUS
 62
     7
100
AcDbLine
 10
234.451013
 20
103.900003
 30
0.0
 11
237.900006
 21
103.900003
 31
0.0
  0
LINE
  5
13ED
100
AcDbEntity
  8
15000_BACK
370
    25
390
0
  6
CONTINUOUS
 62
     7
100
AcDbLine
 10
211.100006
 20
103.900003
 30
0.0
 11
214.548999
 21
103.900003
 31
0.0
  0
LINE
  5
13EE
100
AcDbEntity
  8
15000_BACK
370
    25
390
0
  6
CONTINUOUS
 62
     7
100
AcDbLine
 10
234.451013
 20
107.899987
 30
0.0
 11
237.900006
 21
107.899987
 31
0.0
  0
LINE
  5
13EF
100
AcDbEntity
  8
15000_BACK
370
    25
390
0
  6
CONTINUOUS
 62
     7
100
AcDbLine
 10
211.100006
 20
107.899987
 30
0.0
 11
214.548999
 21
107.899987
 31
0.0
  0
LINE
  5
13F0
100
AcDbEntity
  8
15000_BACK
370
    25
390
0
  6
CONTINUOUS
 62
     7
100
AcDbLine
 10
219.600006
 20
108.699995
 30
0.0
 11
229.400006
 21
108.699995
 31
0.0
  0
LINE
  5
13F1
100
AcDbEntity
  8
15000_BACK
370
    25
390
0
  6
CONTINUOUS
 62
     7
100
AcDbLine
 10
219.800006
 20
108.899995
 30
0.0
 11
229.200006
 21
108.899995
 31
0.0
  0
LINE
  5
13F2
100
AcDbEntity
  8
15000_BACK
370
    25
390
0
  6
CONTINUOUS
 62
     7
100
AcDbLine
 10
211.100006
 20
108.899995
 30
0.0
 11
214.803486
 21
108.899995
 31
0.0
  0
LINE
  5
13F3
100
AcDbEntity
  8
15000_BACK
370
    25
390
0
  6
CONTINUOUS
 62
     7
100
AcDbLine
 10
234.196526
 20
108.899995
 30
0.0
 11
237.900006
 21
108.899995
 31
0.0
  0
LINE
  5
13F4
100
AcDbEntity
  8
15000_BACK
370
    25
390
0
  6
CONTINUOUS
 62
     7
100
AcDbLine
 10
224.500006
 20
109.199995
 30
0.0
 11
228.600006
 21
109.199995
 31
0.0
  0
LINE
  5
13F5
100
AcDbEntity
  8
15000_BACK
370
    25
390
0
  6
CONTINUOUS
 62
     7
100
AcDbLine
 10
224.500006
 20
109.499995
 30
0.0
 11
228.600006
 21
109.499995
 31
0.0
  0
LINE
  5
13F6
100
AcDbEntity
  8
15000_BACK
370
    25
390
0
  6
CONTINUOUS
 62
     7
100
AcDbLine
 10
209.500006
 20
109.795265
 30
0.0
 11
211.100006
 21
109.795265
 31
0.0
  0
LINE
  5
13F7
100
AcDbEntity
  8
15000_BACK
370
    25
390
0
  6
CONTINUOUS
 62
     7
100
AcDbLine
 10
237.900006
 20
109.795265
 30
0.0
 11
239.500006
 21
109.795265
 31
0.0
  0
LINE
  5
13F8
100
AcDbEntity
  8
15000_BACK
370
    25
390
0
  6
CONTINUOUS
 62
     7
100
AcDbLine
 10
210.750006
 20
109.807483
 30
0.0
 11
211.100006
 21
109.807483
 31
0.0
  0
LINE
  5
13F9
100
AcDbEntity
  8
15000_BACK
370
    25
390
0
  6
CONTINUOUS
 62
     7
100
AcDbLine
 10
237.900006
 20
109.807483
 30
0.0
 11
238.250006
 21
109.807483
 31
0.0
  0
LINE
  5
13FA
100
AcDbEntity
  8
15000_BACK
370
    25
390
0
  6
CONTINUOUS
 62
     7
100
AcDbLine
 10
209.500006
 20
109.899122
 30
0.0
 11
210.750006
 21
109.899122
 31
0.0
  0
LINE
  5
13FB
100
AcDbEntity
  8
15000_BACK
370
    25
390
0
  6
CONTINUOUS
 62
     7
100
AcDbLine
 10
238.250006
 20
109.899122
 30
0.0
 11
239.500006
 21
109.899122
 31
0.0
  0
LINE
  5
13FC
100
AcDbEntity
  8
15000_BACK
370
    25
390
0
  6
CONTINUOUS
 62
     7
100
AcDbLine
 10
227.999807
 20
110.302995
 30
0.0
 11
229.010432
 21
110.302995
 31
0.0
  0
LINE
  5
13FD
100
AcDbEntity
  8
15000_BACK
370
    25
390
0
  6
CONTINUOUS
 62
     7
100
AcDbLine
 10
227.741307
 20
110.302995
 30
0.0
 11
227.845623
 21
110.302995
 31
0.0
  0
LINE
  5
13FE
100
AcDbEntity
  8
15000_BACK
370
    25
390
0
  6
CONTINUOUS
 62
     7
100
AcDbLine
 10
226.830213
 20
110.302995
 30
0.0
 11
226.933573
 21
110.302995
 31
0.0
  0
LINE
  5
13FF
100
AcDbEntity
  8
15000_BACK
370
    25
390
0
  6
CONTINUOUS
 62
     7
100
AcDbLine
 10
228.207483
 20
110.400995
 30
0.0
 11
229.010432
 21
110.400995
 31
0.0
  0
LINE
  5
1400
100
AcDbEntity
  8
15000_BACK
370
    25
390
0
  6
CONTINUOUS
 62
     7
100
AcDbLine
 10
224.500006
 20
110.449995
 30
0.0
 11
226.500006
 21
110.449995
 31
0.0
  0
LINE
  5
1401
100
AcDbEntity
  8
15000_BACK
370
    25
390
0
  6
CONTINUOUS
 62
     7
100
AcDbLine
 10
228.087853
 20
111.400245
 30
0.0
 11
228.187385
 21
111.400245
 31
0.0
  0
LINE
  5
1402
100
AcDbEntity
  8
15000_BACK
370
    25
390
0
  6
CONTINUOUS
 62
     7
100
AcDbLine
 10
228.381662
 20
111.674995
 30
0.0
 11
228.647717
 21
111.674995
 31
0.0
  0
LINE
  5
1403
100
AcDbEntity
  8
15000_BACK
370
    25
390
0
  6
CONTINUOUS
 62
     7
100
AcDbLine
 10
228.374006
 20
111.772995
 30
0.0
 11
228.65633
 21
111.772995
 31
0.0
  0
LINE
  5
1404
100
AcDbEntity
  8
15000_BACK
370
    25
390
0
  6
CONTINUOUS
 62
     7
100
AcDbLine
 10
226.830213
 20
111.772995
 30
0.0
 11
226.933573
 21
111.772995
 31
0.0
  0
LINE
  5
1405
100
AcDbEntity
  8
15000_BACK
370
    25
390
0
  6
CONTINUOUS
 62
     7
100
AcDbLine
 10
227.741307
 20
111.772995
 30
0.0
 11
227.845623
 21
111.772995
 31
0.0
  0
LINE
  5
1406
100
AcDbEntity
  8
15000_BACK
370
    25
390
0
  6
CONTINUOUS
 62
     7
100
AcDbLine
 10
238.150006
 20
112.549995
 30
0.0
 11
239.150006
 21
112.549995
 31
0.0
  0
LINE
  5
1407
100
AcDbEntity
  8
15000_BACK
370
    25
390
0
  6
CONTINUOUS
 62
     7
100
AcDbLine
 10
209.850006
 20
112.549995
 30
0.0
 11
210.850006
 21
112.549995
 31
0.0
  0
LINE
  5
1408
100
AcDbEntity
  8
15000_BACK
370
    25
390
0
  6
CONTINUOUS
 62
     7
100
AcDbLine
 10
237.900011
 20
113.649995
 30
0.0
 11
239.150006
 21
113.649995
 31
0.0
  0
LINE
  5
1409
100
AcDbEntity
  8
15000_BACK
370
    25
390
0
  6
CONTINUOUS
 62
     7
100
AcDbLine
 10
209.850006
 20
113.649995
 30
0.0
 11
211.100011
 21
113.649995
 31
0.0
  0
LINE
  5
140A
100
AcDbEntity
  8
15000_BACK
370
    25
390
0
  6
CONTINUOUS
 62
     7
100
AcDbLine
 10
224.015006
 20
113.691131
 30
0.0
 11
225.015006
 21
113.691131
 31
0.0
  0
LINE
  5
140B
100
AcDbEntity
  8
15000_BACK
370
    25
390
0
  6
CONTINUOUS
 62
     7
100
AcDbLine
 10
224.015006
 20
113.929029
 30
0.0
 11
225.015006
 21
113.929029
 31
0.0
  0
LINE
  5
140C
100
AcDbEntity
  8
15000_BACK
370
    25
390
0
  6
CONTINUOUS
 62
     7
100
AcDbLine
 10
225.015006
 20
114.735027
 30
0.0
 11
226.916698
 21
114.735027
 31
0.0
  0
LINE
  5
140D
100
AcDbEntity
  8
15000_BACK
370
    25
390
0
  6
CONTINUOUS
 62
     7
100
AcDbLine
 10
222.083314
 20
114.735027
 30
0.0
 11
224.015006
 21
114.735027
 31
0.0
  0
LINE
  5
140E
100
AcDbEntity
  8
15000_BACK
370
    25
390
0
  6
CONTINUOUS
 62
     7
100
AcDbLine
 10
225.015006
 20
115.093457
 30
0.0
 11
227.23565
 21
115.093457
 31
0.0
  0
LINE
  5
140F
100
AcDbEntity
  8
15000_BACK
370
    25
390
0
  6
CONTINUOUS
 62
     7
100
AcDbLine
 10
221.764362
 20
115.093457
 30
0.0
 11
224.015006
 21
115.093457
 31
0.0
  0
LINE
  5
1410
100
AcDbEntity
  8
15000_BACK
370
    25
390
0
  6
CONTINUOUS
 62
     7
100
AcDbLine
 10
222.131462
 20
116.153151
 30
0.0
 11
224.015006
 21
116.153151
 31
0.0
  0
LINE
  5
1411
100
AcDbEntity
  8
15000_BACK
370
    25
390
0
  6
CONTINUOUS
 62
     7
100
AcDbLine
 10
225.015006
 20
116.153151
 30
0.0
 11
226.86855
 21
116.153151
 31
0.0
  0
LINE
  5
1412
100
AcDbEntity
  8
15000_BACK
370
    25
390
0
  6
CONTINUOUS
 62
     7
100
AcDbLine
 10
237.900011
 20
116.549995
 30
0.0
 11
239.150006
 21
116.549995
 31
0.0
  0
LINE
  5
1413
100
AcDbEntity
  8
15000_BACK
370
    25
390
0
  6
CONTINUOUS
 62
     7
100
AcDbLine
 10
209.850006
 20
116.549995
 30
0.0
 11
211.100011
 21
116.549995
 31
0.0
  0
LINE
  5
1414
100
AcDbEntity
  8
15000_BACK
370
    25
390
0
  6
CONTINUOUS
 62
     7
100
AcDbLine
 10
219.600006
 20
116.599995
 30
0.0
 11
221.400006
 21
116.599995
 31
0.0
  0
LINE
  5
1415
100
AcDbEntity
  8
15000_BACK
370
    25
390
0
  6
CONTINUOUS
 62
     7
100
AcDbLine
 10
238.250006
 20
116.600867
 30
0.0
 11
239.500006
 21
116.600867
 31
0.0
  0
LINE
  5
1416
100
AcDbEntity
  8
15000_BACK
370
    25
390
0
  6
CONTINUOUS
 62
     7
100
AcDbLine
 10
209.500006
 20
116.600867
 30
0.0
 11
210.750006
 21
116.600867
 31
0.0
  0
LINE
  5
1417
100
AcDbEntity
  8
15000_BACK
370
    25
390
0
  6
CONTINUOUS
 62
     7
100
AcDbLine
 10
237.900006
 20
116.678543
 30
0.0
 11
238.250006
 21
116.678543
 31
0.0
  0
LINE
  5
1418
100
AcDbEntity
  8
15000_BACK
370
    25
390
0
  6
CONTINUOUS
 62
     7
100
AcDbLine
 10
210.750006
 20
116.678543
 30
0.0
 11
211.100006
 21
116.678543
 31
0.0
  0
LINE
  5
1419
100
AcDbEntity
  8
15000_BACK
370
    25
390
0
  6
CONTINUOUS
 62
     7
100
AcDbLine
 10
209.500006
 20
116.809456
 30
0.0
 11
211.100006
 21
116.809456
 31
0.0
  0
LINE
  5
141A
100
AcDbEntity
  8
15000_BACK
370
    25
390
0
  6
CONTINUOUS
 62
     7
100
AcDbLine
 10
237.900006
 20
116.809456
 30
0.0
 11
239.500006
 21
116.809456
 31
0.0
  0
LINE
  5
141B
100
AcDbEntity
  8
15000_BACK
370
    25
390
0
  6
CONTINUOUS
 62
     7
100
AcDbLine
 10
224.015006
 20
117.187199
 30
0.0
 11
225.015006
 21
117.187199
 31
0.0
  0
LINE
  5
141C
100
AcDbEntity
  8
15000_BACK
370
    25
390
0
  6
CONTINUOUS
 62
     7
100
AcDbLine
 10
209.500006
 20
117.649994
 30
0.0
 11
210.700006
 21
117.649994
 31
0.0
  0
LINE
  5
141D
100
AcDbEntity
  8
15000_BACK
370
    25
390
0
  6
CONTINUOUS
 62
     7
100
AcDbLine
 10
218.300006
 20
117.649994
 30
0.0
 11
219.600019
 21
117.649994
 31
0.0
  0
LINE
  5
141E
100
AcDbEntity
  8
15000_BACK
370
    25
390
0
  6
CONTINUOUS
 62
     7
100
AcDbLine
 10
229.400019
 20
117.649994
 30
0.0
 11
230.700006
 21
117.649994
 31
0.0
  0
LINE
  5
141F
100
AcDbEntity
  8
15000_BACK
370
    25
390
0
  6
CONTINUOUS
 62
     7
100
AcDbLine
 10
238.300006
 20
117.649994
 30
0.0
 11
239.500006
 21
117.649994
 31
0.0
  0
LINE
  5
1420
100
AcDbEntity
  8
15000_BACK
370
    25
390
0
  6
CONTINUOUS
 62
     7
100
AcDbLine
 10
219.600006
 20
117.799995
 30
0.0
 11
221.400006
 21
117.799995
 31
0.0
  0
LINE
  5
1421
100
AcDbEntity
  8
15000_BACK
370
    25
390
0
  6
CONTINUOUS
 62
     7
100
AcDbLine
 10
230.700006
 20
119.399995
 30
0.0
 11
238.300006
 21
119.399995
 31
0.0
  0
LINE
  5
1422
100
AcDbEntity
  8
15000_BACK
370
    25
390
0
  6
CONTINUOUS
 62
     7
100
AcDbLine
 10
210.700006
 20
119.399995
 30
0.0
 11
218.300006
 21
119.399995
 31
0.0
  0
LINE
  5
1423
100
AcDbEntity
  8
15000_BACK
370
    25
390
0
  6
CONTINUOUS
 62
     7
100
AcDbLine
 10
220.700006
 20
119.599995
 30
0.0
 11
228.300006
 21
119.599995
 31
0.0
  0
LINE
  5
1424
100
AcDbEntity
  8
15000_BACK
370
    25
390
0
  6
CONTINUOUS
 62
     7
100
AcDbLine
 10
221.000006
 20
119.833022
 30
0.0
 11
228.000006
 21
119.833022
 31
0.0
  0
LINE
  5
1425
100
AcDbEntity
  8
15000_BACK
370
    25
390
0
  6
CONTINUOUS
 62
     7
100
AcDbLine
 10
221.000006
 20
119.859818
 30
0.0
 11
228.000006
 21
119.859818
 31
0.0
  0
LINE
  5
1426
100
AcDbEntity
  8
15000_BACK
370
    25
390
0
  6
CONTINUOUS
 62
     7
100
AcDbLine
 10
221.000006
 20
120.339687
 30
0.0
 11
228.000006
 21
120.339687
 31
0.0
  0
LINE
  5
1427
100
AcDbEntity
  8
15000_BACK
370
    25
390
0
  6
CONTINUOUS
 62
     7
100
AcDbLine
 10
219.800006
 20
120.723959
 30
0.0
 11
220.700006
 21
120.723959
 31
0.0
  0
LINE
  5
1428
100
AcDbEntity
  8
15000_BACK
370
    25
390
0
  6
CONTINUOUS
 62
     7
100
AcDbLine
 10
228.300006
 20
120.723959
 30
0.0
 11
229.200006
 21
120.723959
 31
0.0
  0
LINE
  5
1429
100
AcDbEntity
  8
15000_BACK
370
    25
390
0
  6
CONTINUOUS
 62
     7
100
AcDbLine
 10
210.700006
 20
120.799995
 30
0.0
 11
218.300006
 21
120.799995
 31
0.0
  0
LINE
  5
142A
100
AcDbEntity
  8
15000_BACK
370
    25
390
0
  6
CONTINUOUS
 62
     7
100
AcDbLine
 10
230.700006
 20
120.799995
 30
0.0
 11
232.500006
 21
120.799995
 31
0.0
  0
LINE
  5
142B
100
AcDbEntity
  8
15000_BACK
370
    25
390
0
  6
CONTINUOUS
 62
     7
100
AcDbLine
 10
232.500006
 20
120.799995
 30
0.0
 11
232.700006
 21
120.799995
 31
0.0
  0
LINE
  5
142C
100
AcDbEntity
  8
15000_BACK
370
    25
390
0
  6
CONTINUOUS
 62
     7
100
AcDbLine
 10
232.700006
 20
120.799995
 30
0.0
 11
236.300006
 21
120.799995
 31
0.0
  0
LINE
  5
142D
100
AcDbEntity
  8
15000_BACK
370
    25
390
0
  6
CONTINUOUS
 62
     7
100
AcDbLine
 10
236.300006
 20
120.799995
 30
0.0
 11
236.500006
 21
120.799995
 31
0.0
  0
LINE
  5
142E
100
AcDbEntity
  8
15000_BACK
370
    25
390
0
  6
CONTINUOUS
 62
     7
100
AcDbLine
 10
236.500006
 20
120.799995
 30
0.0
 11
238.300006
 21
120.799995
 31
0.0
  0
LINE
  5
142F
100
AcDbEntity
  8
15000_BACK
370
    25
390
0
  6
CONTINUOUS
 62
     7
100
AcDbLine
 10
219.601624
 20
120.922341
 30
0.0
 11
220.700006
 21
120.922341
 31
0.0
  0
LINE
  5
1430
100
AcDbEntity
  8
15000_BACK
370
    25
390
0
  6
CONTINUOUS
 62
     7
100
AcDbLine
 10
228.300006
 20
120.922341
 30
0.0
 11
229.398388
 21
120.922341
 31
0.0
  0
LINE
  5
1431
100
AcDbEntity
  8
15000_BACK
370
    25
390
0
  6
CONTINUOUS
 62
     7
100
AcDbLine
 10
221.000006
 20
121.345041
 30
0.0
 11
228.000006
 21
121.345041
 31
0.0
  0
LINE
  5
1432
100
AcDbEntity
  8
15000_BACK
370
    25
390
0
  6
CONTINUOUS
 62
     7
100
AcDbLine
 10
219.600006
 20
121.347901
 30
0.0
 11
220.400006
 21
121.347901
 31
0.0
  0
LINE
  5
1433
100
AcDbEntity
  8
15000_BACK
370
    25
390
0
  6
CONTINUOUS
 62
     7
100
AcDbLine
 10
228.600006
 20
121.347901
 30
0.0
 11
229.400006
 21
121.347901
 31
0.0
  0
LINE
  5
1434
100
AcDbEntity
  8
15000_BACK
370
    25
390
0
  6
CONTINUOUS
 62
     7
100
AcDbLine
 10
220.700006
 20
121.367992
 30
0.0
 11
221.000006
 21
121.367992
 31
0.0
  0
LINE
  5
1435
100
AcDbEntity
  8
15000_BACK
370
    25
390
0
  6
CONTINUOUS
 62
     7
100
AcDbLine
 10
228.000006
 20
121.367991
 30
0.0
 11
228.300006
 21
121.367991
 31
0.0
  0
LINE
  5
1436
100
AcDbEntity
  8
15000_BACK
370
    25
390
0
  6
CONTINUOUS
 62
     7
100
AcDbLine
 10
228.600006
 20
121.526379
 30
0.0
 11
229.400006
 21
121.526379
 31
0.0
  0
LINE
  5
1437
100
AcDbEntity
  8
15000_BACK
370
    25
390
0
  6
CONTINUOUS
 62
     7
100
AcDbLine
 10
221.000006
 20
121.761667
 30
0.0
 11
228.000006
 21
121.761667
 31
0.0
  0
LINE
  5
1438
100
AcDbEntity
  8
15000_BACK
370
    25
390
0
  6
CONTINUOUS
 62
     7
100
AcDbLine
 10
220.400006
 20
121.899995
 30
0.0
 11
221.000006
 21
121.899995
 31
0.0
  0
LINE
  5
1439
100
AcDbEntity
  8
15000_BACK
370
    25
390
0
  6
CONTINUOUS
 62
     7
100
AcDbLine
 10
228.000006
 20
121.899995
 30
0.0
 11
228.600006
 21
121.899995
 31
0.0
  0
LINE
  5
143A
100
AcDbEntity
  8
15000_BACK
370
    25
390
0
  6
CONTINUOUS
 62
     7
100
AcDbLine
 10
219.600006
 20
121.901599
 30
0.0
 11
220.400006
 21
121.901599
 31
0.0
  0
LINE
  5
143B
100
AcDbEntity
  8
15000_BACK
370
    25
390
0
  6
CONTINUOUS
 62
     7
100
AcDbLine
 10
227.850011
 20
122.099996
 30
0.0
 11
228.300006
 21
122.099996
 31
0.0
  0
LINE
  5
143C
100
AcDbEntity
  8
15000_BACK
370
    25
390
0
  6
CONTINUOUS
 62
     7
100
AcDbLine
 10
220.400006
 20
122.256644
 30
0.0
 11
227.850006
 21
122.256644
 31
0.0
  0
LINE
  5
143D
100
AcDbEntity
  8
15000_BACK
370
    25
390
0
  6
CONTINUOUS
 62
     7
100
AcDbLine
 10
220.400009
 20
122.399995
 30
0.0
 11
220.700006
 21
122.399995
 31
0.0
  0
LINE
  5
143E
100
AcDbEntity
  8
15000_BACK
370
    25
390
0
  6
CONTINUOUS
 62
     7
100
AcDbLine
 10
218.300006
 20
122.399995
 30
0.0
 11
219.600009
 21
122.399995
 31
0.0
  0
LINE
  5
143F
100
AcDbEntity
  8
15000_BACK
370
    25
390
0
  6
CONTINUOUS
 62
     7
100
AcDbLine
 10
228.300006
 20
122.399995
 30
0.0
 11
230.700006
 21
122.399995
 31
0.0
  0
LINE
  5
1440
100
AcDbEntity
  8
15000_BACK
370
    25
390
0
  6
CONTINUOUS
 62
     7
100
AcDbLine
 10
238.300006
 20
122.399995
 30
0.0
 11
239.500006
 21
122.399995
 31
0.0
  0
LINE
  5
1441
100
AcDbEntity
  8
15000_BACK
370
    25
390
0
  6
CONTINUOUS
 62
     7
100
AcDbLine
 10
209.500006
 20
122.399995
 30
0.0
 11
210.700006
 21
122.399995
 31
0.0
  0
LINE
  5
1442
100
AcDbEntity
  8
15000_BACK
370
    25
390
0
  6
CONTINUOUS
 62
     7
100
AcDbLine
 10
220.400009
 20
122.599996
 30
0.0
 11
220.700006
 21
122.599996
 31
0.0
  0
LINE
  5
1443
100
AcDbEntity
  8
15000_BACK
370
    25
390
0
  6
CONTINUOUS
 62
     7
100
AcDbLine
 10
218.300006
 20
122.599996
 30
0.0
 11
219.600009
 21
122.599996
 31
0.0
  0
LINE
  5
1444
100
AcDbEntity
  8
15000_BACK
370
    25
390
0
  6
CONTINUOUS
 62
     7
100
AcDbLine
 10
228.300006
 20
122.599996
 30
0.0
 11
230.700006
 21
122.599996
 31
0.0
  0
LINE
  5
1445
100
AcDbEntity
  8
15000_BACK
370
    25
390
0
  6
CONTINUOUS
 62
     7
100
AcDbLine
 10
219.600006
 20
123.048942
 30
0.0
 11
220.400006
 21
123.048942
 31
0.0
  0
LINE
  5
1446
100
AcDbEntity
  8
15000_BACK
370
    25
390
0
  6
CONTINUOUS
 62
     7
100
AcDbLine
 10
219.600006
 20
123.054753
 30
0.0
 11
220.400006
 21
123.054753
 31
0.0
  0
LINE
  5
1447
100
AcDbEntity
  8
15000_BACK
370
    25
390
0
  6
CONTINUOUS
 62
     7
100
AcDbLine
 10
209.500006
 20
123.399995
 30
0.0
 11
210.700006
 21
123.399995
 31
0.0
  0
LINE
  5
1448
100
AcDbEntity
  8
15000_BACK
370
    25
390
0
  6
CONTINUOUS
 62
     7
100
AcDbLine
 10
238.300006
 20
123.399995
 30
0.0
 11
239.500006
 21
123.399995
 31
0.0
  0
LINE
  5
1449
100
AcDbEntity
  8
15000_BACK
370
    25
390
0
  6
CONTINUOUS
 62
     7
100
AcDbLine
 10
225.250006
 20
123.449994
 30
0.0
 11
226.150006
 21
123.449994
 31
0.0
  0
LINE
  5
144A
100
AcDbEntity
  8
15000_BACK
370
    25
390
0
  6
CONTINUOUS
 62
     7
100
AcDbLine
 10
222.850006
 20
123.449994
 30
0.0
 11
223.750006
 21
123.449994
 31
0.0
  0
LINE
  5
144B
100
AcDbEntity
  8
15000_BACK
370
    25
390
0
  6
CONTINUOUS
 62
     7
100
AcDbLine
 10
224.849639
 20
124.08508
 30
0.0
 11
225.514921
 21
124.08508
 31
0.0
  0
LINE
  5
144C
100
AcDbEntity
  8
15000_BACK
370
    25
390
0
  6
CONTINUOUS
 62
     7
100
AcDbLine
 10
223.485091
 20
124.08508
 30
0.0
 11
224.150373
 21
124.08508
 31
0.0
  0
LINE
  5
144D
100
AcDbEntity
  8
15000_BACK
370
    25
390
0
  6
CONTINUOUS
 62
     7
100
AcDbLine
 10
220.000006
 20
124.149995
 30
0.0
 11
220.755343
 21
124.149995
 31
0.0
  0
LINE
  5
144E
100
AcDbEntity
  8
15000_BACK
370
    25
390
0
  6
CONTINUOUS
 62
     7
100
AcDbLine
 10
224.849639
 20
124.21491
 30
0.0
 11
225.514921
 21
124.21491
 31
0.0
  0
LINE
  5
144F
100
AcDbEntity
  8
15000_BACK
370
    25
390
0
  6
CONTINUOUS
 62
     7
100
AcDbLine
 10
223.485091
 20
124.21491
 30
0.0
 11
224.150373
 21
124.21491
 31
0.0
  0
LINE
  5
1450
100
AcDbEntity
  8
15000_BACK
370
    25
390
0
  6
CONTINUOUS
 62
     7
100
AcDbLine
 10
209.500006
 20
124.699994
 30
0.0
 11
215.000006
 21
124.699994
 31
0.0
  0
LINE
  5
1451
100
AcDbEntity
  8
15000_BACK
370
    25
390
0
  6
CONTINUOUS
 62
     7
100
AcDbLine
 10
225.250006
 20
124.849996
 30
0.0
 11
226.150006
 21
124.849996
 31
0.0
  0
LINE
  5
1452
100
AcDbEntity
  8
15000_BACK
370
    25
390
0
  6
CONTINUOUS
 62
     7
100
AcDbLine
 10
222.850006
 20
124.849996
 30
0.0
 11
223.750006
 21
124.849996
 31
0.0
  0
LINE
  5
1453
100
AcDbEntity
  8
15000_BACK
370
    25
390
0
  6
CONTINUOUS
 62
     7
100
AcDbLine
 10
209.500006
 20
124.899995
 30
0.0
 11
214.554011
 21
124.899995
 31
0.0
  0
LINE
  5
1454
100
AcDbEntity
  8
15000_BACK
370
    25
390
0
  6
CONTINUOUS
 62
     7
100
AcDbLine
 10
226.917132
 20
126.749995
 30
0.0
 11
228.300006
 21
126.749995
 31
0.0
  0
LINE
  5
1455
100
AcDbEntity
  8
15000_BACK
370
    25
390
0
  6
CONTINUOUS
 62
     7
100
AcDbLine
 10
223.646416
 20
129.899995
 30
0.0
 11
225.353596
 21
129.899995
 31
0.0
  0
LINE
  5
1456
100
AcDbEntity
  8
15000_BACK
370
    25
390
0
  6
CONTINUOUS
 62
     7
100
AcDbLine
 10
225.700006
 20
130.099994
 30
0.0
 11
228.300006
 21
130.099994
 31
0.0
  0
LINE
  5
1457
100
AcDbEntity
  8
15000_BACK
370
    25
390
0
  6
CONTINUOUS
 62
     7
100
AcDbLine
 10
216.150006
 20
130.099994
 30
0.0
 11
223.300006
 21
130.099994
 31
0.0
  0
LINE
  5
1458
100
AcDbEntity
  8
15000_BACK
370
    25
390
0
  6
CONTINUOUS
 62
     7
100
AcDbLine
 10
209.500006
 20
130.099996
 30
0.0
 11
216.150008
 21
130.099996
 31
0.0
  0
LINE
  5
1459
100
AcDbEntity
  8
15000_BACK
370
    25
390
0
  6
CONTINUOUS
 62
     7
100
AcDbLine
 10
223.301101
 20
130.099996
 30
0.0
 11
225.698917
 21
130.099996
 31
0.0
  0
LINE
  5
145A
100
AcDbEntity
  8
15000_BACK
370
    25
390
0
  6
CONTINUOUS
 62
     7
100
AcDbLine
 10
228.300009
 20
130.099996
 30
0.0
 11
239.500006
 21
130.099996
 31
0.0
  0
LINE
  5
145B
100
AcDbEntity
  8
15000_BACK
370
    25
390
0
  6
CONTINUOUS
 62
     7
100
AcDbLine
 10
222.116831
 20
95.646827
 30
0.0
 11
222.131462
 21
95.646839
 31
0.0
  0
LINE
  5
145C
100
AcDbEntity
  8
15000_BACK
370
    25
390
0
  6
CONTINUOUS
 62
     7
100
AcDbLine
 10
226.86855
 20
116.153151
 30
0.0
 11
226.883181
 21
116.153163
 31
0.0
  0
LINE
  5
145D
100
AcDbEntity
  8
15000_BACK
370
    25
390
0
  6
CONTINUOUS
 62
     7
100
AcDbLine
 10
222.101688
 20
95.646792
 30
0.0
 11
222.116831
 21
95.646827
 31
0.0
  0
LINE
  5
145E
100
AcDbEntity
  8
15000_BACK
370
    25
390
0
  6
CONTINUOUS
 62
     7
100
AcDbLine
 10
226.883181
 20
116.153163
 30
0.0
 11
226.898324
 21
116.153198
 31
0.0
  0
LINE
  5
145F
100
AcDbEntity
  8
15000_BACK
370
    25
390
0
  6
CONTINUOUS
 62
     7
100
AcDbLine
 10
222.086426
 20
95.646735
 30
0.0
 11
222.101688
 21
95.646792
 31
0.0
  0
LINE
  5
1460
100
AcDbEntity
  8
15000_BACK
370
    25
390
0
  6
CONTINUOUS
 62
     7
100
AcDbLine
 10
226.898324
 20
116.153198
 30
0.0
 11
226.913586
 21
116.153255
 31
0.0
  0
LINE
  5
1461
100
AcDbEntity
  8
15000_BACK
370
    25
390
0
  6
CONTINUOUS
 62
     7
100
AcDbLine
 10
222.071439
 20
95.64666
 30
0.0
 11
222.086426
 21
95.646735
 31
0.0
  0
LINE
  5
1462
100
AcDbEntity
  8
15000_BACK
370
    25
390
0
  6
CONTINUOUS
 62
     7
100
AcDbLine
 10
226.913586
 20
116.153255
 30
0.0
 11
226.928573
 21
116.15333
 31
0.0
  0
LINE
  5
1463
100
AcDbEntity
  8
15000_BACK
370
    25
390
0
  6
CONTINUOUS
 62
     7
100
AcDbLine
 10
222.057121
 20
95.646567
 30
0.0
 11
222.071439
 21
95.64666
 31
0.0
  0
LINE
  5
1464
100
AcDbEntity
  8
15000_BACK
370
    25
390
0
  6
CONTINUOUS
 62
     7
100
AcDbLine
 10
226.928573
 20
116.15333
 30
0.0
 11
226.942891
 21
116.153423
 31
0.0
  0
LINE
  5
1465
100
AcDbEntity
  8
15000_BACK
370
    25
390
0
  6
CONTINUOUS
 62
     7
100
AcDbLine
 10
222.043669
 20
95.646456
 30
0.0
 11
222.057121
 21
95.646567
 31
0.0
  0
LINE
  5
1466
100
AcDbEntity
  8
15000_BACK
370
    25
390
0
  6
CONTINUOUS
 62
     7
100
AcDbLine
 10
226.942891
 20
116.153423
 30
0.0
 11
226.956343
 21
116.153534
 31
0.0
  0
LINE
  5
1467
100
AcDbEntity
  8
15000_BACK
370
    25
390
0
  6
CONTINUOUS
 62
     7
100
AcDbLine
 10
222.030166
 20
95.64632
 30
0.0
 11
222.043669
 21
95.646456
 31
0.0
  0
LINE
  5
1468
100
AcDbEntity
  8
15000_BACK
370
    25
390
0
  6
CONTINUOUS
 62
     7
100
AcDbLine
 10
226.956343
 20
116.153534
 30
0.0
 11
226.969846
 21
116.15367
 31
0.0
  0
LINE
  5
1469
100
AcDbEntity
  8
15000_BACK
370
    25
390
0
  6
CONTINUOUS
 62
     7
100
AcDbLine
 10
222.016723
 20
95.64616
 30
0.0
 11
222.030166
 21
95.64632
 31
0.0
  0
LINE
  5
146A
100
AcDbEntity
  8
15000_BACK
370
    25
390
0
  6
CONTINUOUS
 62
     7
100
AcDbLine
 10
226.969846
 20
116.15367
 30
0.0
 11
226.98329
 21
116.15383
 31
0.0
  0
LINE
  5
146B
100
AcDbEntity
  8
15000_BACK
370
    25
390
0
  6
CONTINUOUS
 62
     7
100
AcDbLine
 10
222.003682
 20
95.645983
 30
0.0
 11
222.016723
 21
95.64616
 31
0.0
  0
LINE
  5
146C
100
AcDbEntity
  8
15000_BACK
370
    25
390
0
  6
CONTINUOUS
 62
     7
100
AcDbLine
 10
226.98329
 20
116.15383
 30
0.0
 11
226.99633
 21
116.154007
 31
0.0
  0
LINE
  5
146D
100
AcDbEntity
  8
15000_BACK
370
    25
390
0
  6
CONTINUOUS
 62
     7
100
AcDbLine
 10
222.067437
 20
97.064732
 30
0.0
 11
222.083314
 21
97.064963
 31
0.0
  0
LINE
  5
146E
100
AcDbEntity
  8
15000_BACK
370
    25
390
0
  6
CONTINUOUS
 62
     7
100
AcDbLine
 10
226.916698
 20
114.735027
 30
0.0
 11
226.932575
 21
114.735258
 31
0.0
  0
LINE
  5
146F
100
AcDbEntity
  8
15000_BACK
370
    25
390
0
  6
CONTINUOUS
 62
     7
100
AcDbLine
 10
222.051004
 20
97.064082
 30
0.0
 11
222.067437
 21
97.064732
 31
0.0
  0
LINE
  5
1470
100
AcDbEntity
  8
15000_BACK
370
    25
390
0
  6
CONTINUOUS
 62
     7
100
AcDbLine
 10
226.932575
 20
114.735258
 30
0.0
 11
226.949008
 21
114.735908
 31
0.0
  0
LINE
  5
1471
100
AcDbEntity
  8
15000_BACK
370
    25
390
0
  6
CONTINUOUS
 62
     7
100
AcDbLine
 10
224.241707
 20
99.05017
 30
0.0
 11
224.500006
 21
99.062377
 31
0.0
  0
LINE
  5
1472
100
AcDbEntity
  8
15000_BACK
370
    25
390
0
  6
CONTINUOUS
 62
     7
100
AcDbLine
 10
224.500006
 20
112.737613
 30
0.0
 11
224.758305
 21
112.74982
 31
0.0
  0
LINE
  5
1473
100
AcDbEntity
  8
15000_BACK
370
    25
390
0
  6
CONTINUOUS
 62
     7
100
AcDbLine
 10
223.083327
 20
98.943683
 30
0.0
 11
223.882777
 21
98.991895
 31
0.0
  0
LINE
  5
1474
100
AcDbEntity
  8
15000_BACK
370
    25
390
0
  6
CONTINUOUS
 62
     7
100
AcDbLine
 10
225.117218
 20
112.808094
 30
0.0
 11
225.916684
 21
112.856307
 31
0.0
  0
LINE
  5
1475
100
AcDbEntity
  8
15000_BACK
370
    25
390
0
  6
CONTINUOUS
 62
     7
100
AcDbLine
 10
222.034535
 20
97.063049
 30
0.0
 11
222.051004
 21
97.064082
 31
0.0
  0
LINE
  5
1476
100
AcDbEntity
  8
15000_BACK
370
    25
390
0
  6
CONTINUOUS
 62
     7
100
AcDbLine
 10
226.949008
 20
114.735908
 30
0.0
 11
226.965477
 21
114.736941
 31
0.0
  0
LINE
  5
1477
100
AcDbEntity
  8
15000_BACK
370
    25
390
0
  6
CONTINUOUS
 62
     7
100
AcDbLine
 10
222.018547
 20
97.061668
 30
0.0
 11
222.034535
 21
97.063049
 31
0.0
  0
LINE
  5
1478
100
AcDbEntity
  8
15000_BACK
370
    25
390
0
  6
CONTINUOUS
 62
     7
100
AcDbLine
 10
226.965477
 20
114.736941
 30
0.0
 11
226.981465
 21
114.738322
 31
0.0
  0
LINE
  5
1479
100
AcDbEntity
  8
15000_BACK
370
    25
390
0
  6
CONTINUOUS
 62
     7
100
AcDbLine
 10
222.003559
 20
97.059971
 30
0.0
 11
222.018547
 21
97.061668
 31
0.0
  0
LINE
  5
147A
100
AcDbEntity
  8
15000_BACK
370
    25
390
0
  6
CONTINUOUS
 62
     7
100
AcDbLine
 10
226.981465
 20
114.738322
 30
0.0
 11
226.996453
 21
114.740019
 31
0.0
  0
LINE
  5
147B
100
AcDbEntity
  8
15000_BACK
370
    25
390
0
  6
CONTINUOUS
 62
     7
100
AcDbLine
 10
223.985836
 20
99.013673
 30
0.0
 11
224.241707
 21
99.05017
 31
0.0
  0
LINE
  5
147C
100
AcDbEntity
  8
15000_BACK
370
    25
390
0
  6
CONTINUOUS
 62
     7
100
AcDbLine
 10
224.758305
 20
112.74982
 30
0.0
 11
225.014176
 21
112.786317
 31
0.0
  0
LINE
  5
147D
100
AcDbEntity
  8
15000_BACK
370
    25
390
0
  6
CONTINUOUS
 62
     7
100
AcDbLine
 10
221.989096
 20
97.057876
 30
0.0
 11
222.003559
 21
97.059971
 31
0.0
  0
LINE
  5
147E
100
AcDbEntity
  8
15000_BACK
370
    25
390
0
  6
CONTINUOUS
 62
     7
100
AcDbLine
 10
226.996453
 20
114.740019
 30
0.0
 11
227.010916
 21
114.742114
 31
0.0
  0
LINE
  5
147F
100
AcDbEntity
  8
15000_BACK
370
    25
390
0
  6
CONTINUOUS
 62
     7
100
AcDbLine
 10
221.974574
 20
97.055329
 30
0.0
 11
221.989096
 21
97.057876
 31
0.0
  0
LINE
  5
1480
100
AcDbEntity
  8
15000_BACK
370
    25
390
0
  6
CONTINUOUS
 62
     7
100
AcDbLine
 10
227.010916
 20
114.742114
 30
0.0
 11
227.025438
 21
114.744661
 31
0.0
  0
LINE
  5
1481
100
AcDbEntity
  8
15000_BACK
370
    25
390
0
  6
CONTINUOUS
 62
     7
100
AcDbLine
 10
221.960432
 20
97.05242
 30
0.0
 11
221.974574
 21
97.055329
 31
0.0
  0
LINE
  5
1482
100
AcDbEntity
  8
15000_BACK
370
    25
390
0
  6
CONTINUOUS
 62
     7
100
AcDbLine
 10
227.025438
 20
114.744661
 30
0.0
 11
227.03958
 21
114.74757
 31
0.0
  0
LINE
  5
1483
100
AcDbEntity
  8
15000_BACK
370
    25
390
0
  6
CONTINUOUS
 62
     7
100
AcDbLine
 10
221.947113
 20
97.049241
 30
0.0
 11
221.960432
 21
97.05242
 31
0.0
  0
LINE
  5
1484
100
AcDbEntity
  8
15000_BACK
370
    25
390
0
  6
CONTINUOUS
 62
     7
100
AcDbLine
 10
227.03958
 20
114.74757
 30
0.0
 11
227.052899
 21
114.750749
 31
0.0
  0
LINE
  5
1485
100
AcDbEntity
  8
15000_BACK
370
    25
390
0
  6
CONTINUOUS
 62
     7
100
AcDbLine
 10
223.734526
 20
98.953176
 30
0.0
 11
223.985836
 21
99.013673
 31
0.0
  0
LINE
  5
1486
100
AcDbEntity
  8
15000_BACK
370
    25
390
0
  6
CONTINUOUS
 62
     7
100
AcDbLine
 10
225.014176
 20
112.786317
 30
0.0
 11
225.265486
 21
112.846814
 31
0.0
  0
LINE
  5
1487
100
AcDbEntity
  8
15000_BACK
370
    25
390
0
  6
CONTINUOUS
 62
     7
100
AcDbLine
 10
221.935056
 20
97.045883
 30
0.0
 11
221.947113
 21
97.049241
 31
0.0
  0
LINE
  5
1488
100
AcDbEntity
  8
15000_BACK
370
    25
390
0
  6
CONTINUOUS
 62
     7
100
AcDbLine
 10
227.052899
 20
114.750749
 30
0.0
 11
227.064956
 21
114.754107
 31
0.0
  0
LINE
  5
1489
100
AcDbEntity
  8
15000_BACK
370
    25
390
0
  6
CONTINUOUS
 62
     7
100
AcDbLine
 10
235.390246
 20
93.79127
 30
0.0
 11
235.648835
 21
93.875795
 31
0.0
  0
LINE
  5
148A
100
AcDbEntity
  8
15000_BACK
370
    25
390
0
  6
CONTINUOUS
 62
     7
100
AcDbLine
 10
235.936902
 20
92.621395
 30
0.0
 11
236.112422
 21
92.679277
 31
0.0
  0
LINE
  5
148B
100
AcDbEntity
  8
15000_BACK
370
    25
390
0
  6
CONTINUOUS
 62
     7
100
AcDbLine
 10
221.924022
 20
97.042236
 30
0.0
 11
221.935056
 21
97.045883
 31
0.0
  0
LINE
  5
148C
100
AcDbEntity
  8
15000_BACK
370
    25
390
0
  6
CONTINUOUS
 62
     7
100
AcDbLine
 10
227.064956
 20
114.754107
 30
0.0
 11
227.07599
 21
114.757754
 31
0.0
  0
LINE
  5
148D
100
AcDbEntity
  8
15000_BACK
370
    25
390
0
  6
CONTINUOUS
 62
     7
100
AcDbLine
 10
235.942262
 20
92.484195
 30
0.0
 11
236.238367
 21
92.583727
 31
0.0
  0
LINE
  5
148E
100
AcDbEntity
  8
15000_BACK
370
    25
390
0
  6
CONTINUOUS
 62
     7
100
AcDbLine
 10
223.490403
 20
98.869313
 30
0.0
 11
223.734526
 21
98.953176
 31
0.0
  0
LINE
  5
148F
100
AcDbEntity
  8
15000_BACK
370
    25
390
0
  6
CONTINUOUS
 62
     7
100
AcDbLine
 10
225.265486
 20
112.846814
 30
0.0
 11
225.509609
 21
112.930677
 31
0.0
  0
LINE
  5
1490
100
AcDbEntity
  8
15000_BACK
370
    25
390
0
  6
CONTINUOUS
 62
     7
100
AcDbLine
 10
221.91345
 20
97.038152
 30
0.0
 11
221.924022
 21
97.042236
 31
0.0
  0
LINE
  5
1491
100
AcDbEntity
  8
15000_BACK
370
    25
390
0
  6
CONTINUOUS
 62
     7
100
AcDbLine
 10
227.07599
 20
114.757754
 30
0.0
 11
227.086562
 21
114.761838
 31
0.0
  0
LINE
  5
1492
100
AcDbEntity
  8
15000_BACK
370
    25
390
0
  6
CONTINUOUS
 62
     7
100
AcDbLine
 10
221.903653
 20
97.033767
 30
0.0
 11
221.91345
 21
97.038152
 31
0.0
  0
LINE
  5
1493
100
AcDbEntity
  8
15000_BACK
370
    25
390
0
  6
CONTINUOUS
 62
     7
100
AcDbLine
 10
227.086562
 20
114.761838
 30
0.0
 11
227.096359
 21
114.766223
 31
0.0
  0
LINE
  5
1494
100
AcDbEntity
  8
15000_BACK
370
    25
390
0
  6
CONTINUOUS
 62
     7
100
AcDbLine
 10
223.255271
 20
98.762688
 30
0.0
 11
223.490403
 21
98.869313
 31
0.0
  0
LINE
  5
1495
100
AcDbEntity
  8
15000_BACK
370
    25
390
0
  6
CONTINUOUS
 62
     7
100
AcDbLine
 10
225.509609
 20
112.930677
 30
0.0
 11
225.744741
 21
113.037302
 31
0.0
  0
LINE
  5
1496
100
AcDbEntity
  8
15000_BACK
370
    25
390
0
  6
CONTINUOUS
 62
     7
100
AcDbLine
 10
228.230451
 20
111.703214
 30
0.0
 11
228.374006
 21
111.772995
 31
0.0
  0
LINE
  5
1497
100
AcDbEntity
  8
15000_BACK
370
    25
390
0
  6
CONTINUOUS
 62
     7
100
AcDbLine
 10
232.207397
 20
95.406433
 30
0.0
 11
232.494506
 21
95.545995
 31
0.0
  0
LINE
  5
1498
100
AcDbEntity
  8
15000_BACK
370
    25
390
0
  6
CONTINUOUS
 62
     7
100
AcDbLine
 10
228.221838
 20
101.519745
 30
0.0
 11
228.384533
 21
101.600026
 31
0.0
  0
LINE
  5
1499
100
AcDbEntity
  8
15000_BACK
370
    25
390
0
  6
CONTINUOUS
 62
     7
100
AcDbLine
 10
212.19017
 20
94.779495
 30
0.0
 11
212.515561
 21
94.940058
 31
0.0
  0
LINE
  5
149A
100
AcDbEntity
  8
15000_BACK
370
    25
390
0
  6
CONTINUOUS
 62
     7
100
AcDbLine
 10
235.368808
 20
93.642126
 30
0.0
 11
235.560406
 21
93.738595
 31
0.0
  0
LINE
  5
149B
100
AcDbEntity
  8
15000_BACK
370
    25
390
0
  6
CONTINUOUS
 62
     7
100
AcDbLine
 10
228.252463
 20
111.609808
 30
0.0
 11
228.381662
 21
111.674995
 31
0.0
  0
LINE
  5
149C
100
AcDbEntity
  8
15000_BACK
370
    25
390
0
  6
CONTINUOUS
 62
     7
100
AcDbLine
 10
232.25142
 20
95.21962
 30
0.0
 11
232.509819
 21
95.349995
 31
0.0
  0
LINE
  5
149D
100
AcDbEntity
  8
15000_BACK
370
    25
390
0
  6
CONTINUOUS
 62
     7
100
AcDbLine
 10
212.19017
 20
94.985995
 30
0.0
 11
212.477279
 21
95.131245
 31
0.0
  0
LINE
  5
149E
100
AcDbEntity
  8
15000_BACK
370
    25
390
0
  6
CONTINUOUS
 62
     7
100
AcDbLine
 10
228.221838
 20
101.622995
 30
0.0
 11
228.365392
 21
101.69562
 31
0.0
  0
LINE
  5
149F
100
AcDbEntity
  8
15000_BACK
370
    25
390
0
  6
CONTINUOUS
 62
     7
100
AcDbLine
 10
221.894947
 20
97.029222
 30
0.0
 11
221.903653
 21
97.033767
 31
0.0
  0
LINE
  5
14A0
100
AcDbEntity
  8
15000_BACK
370
    25
390
0
  6
CONTINUOUS
 62
     7
100
AcDbLine
 10
227.096359
 20
114.766223
 30
0.0
 11
227.105065
 21
114.770768
 31
0.0
  0
LINE
  5
14A1
100
AcDbEntity
  8
15000_BACK
370
    25
390
0
  6
CONTINUOUS
 62
     7
100
AcDbLine
 10
223.03179
 20
98.6345
 30
0.0
 11
223.255271
 21
98.762688
 31
0.0
  0
LINE
  5
14A2
100
AcDbEntity
  8
15000_BACK
370
    25
390
0
  6
CONTINUOUS
 62
     7
100
AcDbLine
 10
225.744741
 20
113.037302
 30
0.0
 11
225.968222
 21
113.16549
 31
0.0
  0
LINE
  5
14A3
100
AcDbEntity
  8
15000_BACK
370
    25
390
0
  6
CONTINUOUS
 62
     7
100
AcDbLine
 10
231.727417
 20
114.192438
 30
0.0
 11
231.910043
 21
114.298301
 31
0.0
  0
LINE
  5
14A4
100
AcDbEntity
  8
15000_BACK
370
    25
390
0
  6
CONTINUOUS
 62
     7
100
AcDbLine
 10
217.08999
 20
97.501693
 30
0.0
 11
217.272603
 21
97.607555
 31
0.0
  0
LINE
  5
14A5
100
AcDbEntity
  8
15000_BACK
370
    25
390
0
  6
CONTINUOUS
 62
     7
100
AcDbLine
 10
221.887652
 20
97.024655
 30
0.0
 11
221.894947
 21
97.029222
 31
0.0
  0
LINE
  5
14A6
100
AcDbEntity
  8
15000_BACK
370
    25
390
0
  6
CONTINUOUS
 62
     7
100
AcDbLine
 10
227.105065
 20
114.770768
 30
0.0
 11
227.11236
 21
114.775335
 31
0.0
  0
LINE
  5
14A7
100
AcDbEntity
  8
15000_BACK
370
    25
390
0
  6
CONTINUOUS
 62
     7
100
AcDbLine
 10
222.82147
 20
98.485595
 30
0.0
 11
223.03179
 21
98.6345
 31
0.0
  0
LINE
  5
14A8
100
AcDbEntity
  8
15000_BACK
370
    25
390
0
  6
CONTINUOUS
 62
     7
100
AcDbLine
 10
225.968222
 20
113.16549
 30
0.0
 11
226.178542
 21
113.314395
 31
0.0
  0
LINE
  5
14A9
100
AcDbEntity
  8
15000_BACK
370
    25
390
0
  6
CONTINUOUS
 62
     7
100
AcDbLine
 10
236.112422
 20
92.679277
 30
0.0
 11
236.259805
 21
92.784626
 31
0.0
  0
LINE
  5
14AA
100
AcDbEntity
  8
15000_BACK
370
    25
390
0
  6
CONTINUOUS
 62
     7
100
AcDbLine
 10
221.881681
 20
97.019939
 30
0.0
 11
221.887652
 21
97.024655
 31
0.0
  0
LINE
  5
14AB
100
AcDbEntity
  8
15000_BACK
370
    25
390
0
  6
CONTINUOUS
 62
     7
100
AcDbLine
 10
227.11236
 20
114.775335
 30
0.0
 11
227.118331
 21
114.780051
 31
0.0
  0
LINE
  5
14AC
100
AcDbEntity
  8
15000_BACK
370
    25
390
0
  6
CONTINUOUS
 62
     7
100
AcDbLine
 10
222.626795
 20
98.317721
 30
0.0
 11
222.82147
 21
98.485595
 31
0.0
  0
LINE
  5
14AD
100
AcDbEntity
  8
15000_BACK
370
    25
390
0
  6
CONTINUOUS
 62
     7
100
AcDbLine
 10
226.178542
 20
113.314395
 30
0.0
 11
226.373217
 21
113.482269
 31
0.0
  0
LINE
  5
14AE
100
AcDbEntity
  8
15000_BACK
370
    25
390
0
  6
CONTINUOUS
 62
     7
100
AcDbLine
 10
232.061928
 20
95.263808
 30
0.0
 11
232.207397
 21
95.406433
 31
0.0
  0
LINE
  5
14AF
100
AcDbEntity
  8
15000_BACK
370
    25
390
0
  6
CONTINUOUS
 62
     7
100
AcDbLine
 10
228.157717
 20
111.631901
 30
0.0
 11
228.230451
 21
111.703214
 31
0.0
  0
LINE
  5
14B0
100
AcDbEntity
  8
15000_BACK
370
    25
390
0
  6
CONTINUOUS
 62
     7
100
AcDbLine
 10
228.365392
 20
101.69562
 30
0.0
 11
228.573834
 21
101.902995
 31
0.0
  0
LINE
  5
14B1
100
AcDbEntity
  8
15000_BACK
370
    25
390
0
  6
CONTINUOUS
 62
     7
100
AcDbLine
 10
212.477279
 20
95.131245
 30
0.0
 11
212.894162
 21
95.545995
 31
0.0
  0
LINE
  5
14B2
100
AcDbEntity
  8
15000_BACK
370
    25
390
0
  6
CONTINUOUS
 62
     7
100
AcDbLine
 10
236.238367
 20
92.583727
 30
0.0
 11
236.439344
 21
92.783708
 31
0.0
  0
LINE
  5
14B3
100
AcDbEntity
  8
15000_BACK
370
    25
390
0
  6
CONTINUOUS
 62
     7
100
AcDbLine
 10
229.200006
 20
120.723959
 30
0.0
 11
229.398388
 21
120.922341
 31
0.0
  0
LINE
  5
14B4
100
AcDbEntity
  8
15000_BACK
370
    25
390
0
  6
CONTINUOUS
 62
     7
100
AcDbLine
 10
222.850006
 20
123.449994
 30
0.0
 11
223.485091
 21
124.08508
 31
0.0
  0
LINE
  5
14B5
100
AcDbEntity
  8
15000_BACK
370
    25
390
0
  6
CONTINUOUS
 62
     7
100
AcDbLine
 10
225.514921
 20
124.21491
 30
0.0
 11
226.150006
 21
124.849996
 31
0.0
  0
LINE
  5
14B6
100
AcDbEntity
  8
15000_BACK
370
    25
390
0
  6
CONTINUOUS
 62
     7
100
AcDbLine
 10
219.601624
 20
90.877649
 30
0.0
 11
219.800006
 21
91.076032
 31
0.0
  0
LINE
  5
14B7
100
AcDbEntity
  8
15000_BACK
370
    25
390
0
  6
CONTINUOUS
 62
     7
100
AcDbLine
 10
237.019157
 20
92.484195
 30
0.0
 11
237.129024
 21
92.594445
 31
0.0
  0
LINE
  5
14B8
100
AcDbEntity
  8
15000_BACK
370
    25
390
0
  6
CONTINUOUS
 62
     7
100
AcDbLine
 10
217.019157
 20
92.484195
 30
0.0
 11
217.129024
 21
92.594445
 31
0.0
  0
LINE
  5
14B9
100
AcDbEntity
  8
15000_BACK
370
    25
390
0
  6
CONTINUOUS
 62
     7
100
AcDbLine
 10
214.455936
 20
92.605995
 30
0.0
 11
214.612889
 21
92.763495
 31
0.0
  0
LINE
  5
14BA
100
AcDbEntity
  8
15000_BACK
370
    25
390
0
  6
CONTINUOUS
 62
     7
100
AcDbLine
 10
234.455936
 20
92.605995
 30
0.0
 11
234.612889
 21
92.763495
 31
0.0
  0
LINE
  5
14BB
100
AcDbEntity
  8
15000_BACK
370
    25
390
0
  6
CONTINUOUS
 62
     7
100
AcDbLine
 10
236.796743
 20
92.707145
 30
0.0
 11
236.90661
 21
92.817395
 31
0.0
  0
LINE
  5
14BC
100
AcDbEntity
  8
15000_BACK
370
    25
390
0
  6
CONTINUOUS
 62
     7
100
AcDbLine
 10
216.796743
 20
92.707145
 30
0.0
 11
216.90661
 21
92.817395
 31
0.0
  0
LINE
  5
14BD
100
AcDbEntity
  8
15000_BACK
370
    25
390
0
  6
CONTINUOUS
 62
     7
100
AcDbLine
 10
214.138201
 20
92.924495
 30
0.0
 11
214.295154
 21
93.081995
 31
0.0
  0
LINE
  5
14BE
100
AcDbEntity
  8
15000_BACK
370
    25
390
0
  6
CONTINUOUS
 62
     7
100
AcDbLine
 10
234.138201
 20
92.924495
 30
0.0
 11
234.295154
 21
93.081995
 31
0.0
  0
LINE
  5
14BF
100
AcDbEntity
  8
15000_BACK
370
    25
390
0
  6
CONTINUOUS
 62
     7
100
AcDbLine
 10
228.384533
 20
101.600026
 30
0.0
 11
228.496506
 21
101.712901
 31
0.0
  0
LINE
  5
14C0
100
AcDbEntity
  8
15000_BACK
370
    25
390
0
  6
CONTINUOUS
 62
     7
100
AcDbLine
 10
212.515561
 20
94.940058
 30
0.0
 11
212.739506
 21
95.165808
 31
0.0
  0
LINE
  5
14C1
100
AcDbEntity
  8
15000_BACK
370
    25
390
0
  6
CONTINUOUS
 62
     7
100
AcDbLine
 10
221.876689
 20
97.014866
 30
0.0
 11
221.881681
 21
97.019939
 31
0.0
  0
LINE
  5
14C2
100
AcDbEntity
  8
15000_BACK
370
    25
390
0
  6
CONTINUOUS
 62
     7
100
AcDbLine
 10
227.118331
 20
114.780051
 30
0.0
 11
227.123323
 21
114.785124
 31
0.0
  0
LINE
  5
14C3
100
AcDbEntity
  8
15000_BACK
370
    25
390
0
  6
CONTINUOUS
 62
     7
100
AcDbLine
 10
222.449036
 20
98.13195
 30
0.0
 11
222.626795
 21
98.317721
 31
0.0
  0
LINE
  5
14C4
100
AcDbEntity
  8
15000_BACK
370
    25
390
0
  6
CONTINUOUS
 62
     7
100
AcDbLine
 10
226.373217
 20
113.482269
 30
0.0
 11
226.550976
 21
113.66804
 31
0.0
  0
LINE
  5
14C5
100
AcDbEntity
  8
15000_BACK
370
    25
390
0
  6
CONTINUOUS
 62
     7
100
AcDbLine
 10
226.508604
 20
126.310558
 30
0.0
 11
226.917132
 21
126.749995
 31
0.0
  0
LINE
  5
14C6
100
AcDbEntity
  8
15000_BACK
370
    25
390
0
  6
CONTINUOUS
 62
     7
100
AcDbLine
 10
232.316779
 20
125.908445
 30
0.0
 11
232.719265
 21
126.355451
 31
0.0
  0
LINE
  5
14C7
100
AcDbEntity
  8
15000_BACK
370
    25
390
0
  6
CONTINUOUS
 62
     7
100
AcDbLine
 10
231.746108
 20
92.605995
 30
0.0
 11
232.890717
 21
93.891808
 31
0.0
  0
LINE
  5
14C8
100
AcDbEntity
  8
15000_BACK
370
    25
390
0
  6
CONTINUOUS
 62
     7
100
AcDbLine
 10
227.999807
 20
110.302995
 30
0.0
 11
228.572111
 21
110.945902
 31
0.0
  0
LINE
  5
14C9
100
AcDbEntity
  8
15000_BACK
370
    25
390
0
  6
CONTINUOUS
 62
     7
100
AcDbLine
 10
232.161459
 20
92.801995
 30
0.0
 11
233.074467
 21
93.848495
 31
0.0
  0
LINE
  5
14CA
100
AcDbEntity
  8
15000_BACK
370
    25
390
0
  6
CONTINUOUS
 62
     7
100
AcDbLine
 10
228.207483
 20
110.400995
 30
0.0
 11
228.663986
 21
110.924245
 31
0.0
  0
LINE
  5
14CB
100
AcDbEntity
  8
15000_BACK
370
    25
390
0
  6
CONTINUOUS
 62
     7
100
AcDbLine
 10
222.290316
 20
97.930476
 30
0.0
 11
222.449036
 21
98.13195
 31
0.0
  0
LINE
  5
14CC
100
AcDbEntity
  8
15000_BACK
370
    25
390
0
  6
CONTINUOUS
 62
     7
100
AcDbLine
 10
226.550976
 20
113.66804
 30
0.0
 11
226.709696
 21
113.869514
 31
0.0
  0
LINE
  5
14CD
100
AcDbEntity
  8
15000_BACK
370
    25
390
0
  6
CONTINUOUS
 62
     7
100
AcDbLine
 10
233.074467
 20
93.848495
 30
0.0
 11
233.489819
 21
94.401495
 31
0.0
  0
LINE
  5
14CE
100
AcDbEntity
  8
15000_BACK
370
    25
390
0
  6
CONTINUOUS
 62
     7
100
AcDbLine
 10
228.663986
 20
110.924245
 30
0.0
 11
228.871662
 21
111.200745
 31
0.0
  0
LINE
  5
14CF
100
AcDbEntity
  8
15000_BACK
370
    25
390
0
  6
CONTINUOUS
 62
     7
100
AcDbLine
 10
228.572111
 20
110.945902
 30
0.0
 11
228.775959
 21
111.217589
 31
0.0
  0
LINE
  5
14D0
100
AcDbEntity
  8
15000_BACK
370
    25
390
0
  6
CONTINUOUS
 62
     7
100
AcDbLine
 10
232.890717
 20
93.891808
 30
0.0
 11
233.298412
 21
94.435183
 31
0.0
  0
LINE
  5
14D1
100
AcDbEntity
  8
15000_BACK
370
    25
390
0
  6
CONTINUOUS
 62
     7
100
AcDbLine
 10
221.872815
 20
97.009611
 30
0.0
 11
221.876689
 21
97.014866
 31
0.0
  0
LINE
  5
14D2
100
AcDbEntity
  8
15000_BACK
370
    25
390
0
  6
CONTINUOUS
 62
     7
100
AcDbLine
 10
227.123323
 20
114.785124
 30
0.0
 11
227.127197
 21
114.790379
 31
0.0
  0
LINE
  5
14D3
100
AcDbEntity
  8
15000_BACK
370
    25
390
0
  6
CONTINUOUS
 62
     7
100
AcDbLine
 10
215.373632
 20
93.111395
 30
0.0
 11
216.109206
 21
94.169795
 31
0.0
  0
LINE
  5
14D4
100
AcDbEntity
  8
15000_BACK
370
    25
390
0
  6
CONTINUOUS
 62
     7
100
AcDbLine
 10
215.12442
 20
92.974195
 30
0.0
 11
216.213446
 21
94.542195
 31
0.0
  0
LINE
  5
14D5
100
AcDbEntity
  8
15000_BACK
370
    25
390
0
  6
CONTINUOUS
 62
     7
100
AcDbLine
 10
236.259805
 20
92.784626
 30
0.0
 11
236.314738
 21
92.868233
 31
0.0
  0
LINE
  5
14D6
100
AcDbEntity
  8
15000_BACK
370
    25
390
0
  6
CONTINUOUS
 62
     7
100
AcDbLine
 10
222.162284
 20
97.732847
 30
0.0
 11
222.290316
 21
97.930476
 31
0.0
  0
LINE
  5
14D7
100
AcDbEntity
  8
15000_BACK
370
    25
390
0
  6
CONTINUOUS
 62
     7
100
AcDbLine
 10
226.709696
 20
113.869514
 30
0.0
 11
226.837728
 21
114.067143
 31
0.0
  0
LINE
  5
14D8
100
AcDbEntity
  8
15000_BACK
370
    25
390
0
  6
CONTINUOUS
 62
     7
100
AcDbLine
 10
223.750006
 20
123.449994
 30
0.0
 11
224.150373
 21
124.08508
 31
0.0
  0
LINE
  5
14D9
100
AcDbEntity
  8
15000_BACK
370
    25
390
0
  6
CONTINUOUS
 62
     7
100
AcDbLine
 10
224.849639
 20
124.21491
 30
0.0
 11
225.250006
 21
124.849996
 31
0.0
  0
LINE
  5
14DA
100
AcDbEntity
  8
15000_BACK
370
    25
390
0
  6
CONTINUOUS
 62
     7
100
AcDbLine
 10
232.800006
 20
100.48943
 30
0.0
 11
232.833853
 21
100.543969
 31
0.0
  0
LINE
  5
14DB
100
AcDbEntity
  8
15000_BACK
370
    25
390
0
  6
CONTINUOUS
 62
     7
100
AcDbLine
 10
227.33744
 20
101.252214
 30
0.0
 11
227.741307
 21
101.902995
 31
0.0
  0
LINE
  5
14DC
100
AcDbEntity
  8
15000_BACK
370
    25
390
0
  6
CONTINUOUS
 62
     7
100
AcDbLine
 10
227.33744
 20
111.122214
 30
0.0
 11
227.741307
 21
111.772995
 31
0.0
  0
LINE
  5
14DD
100
AcDbEntity
  8
15000_BACK
370
    25
390
0
  6
CONTINUOUS
 62
     7
100
AcDbLine
 10
226.933573
 20
100.432995
 30
0.0
 11
227.33744
 21
101.083777
 31
0.0
  0
LINE
  5
14DE
100
AcDbEntity
  8
15000_BACK
370
    25
390
0
  6
CONTINUOUS
 62
     7
100
AcDbLine
 10
226.933573
 20
110.302995
 30
0.0
 11
227.33744
 21
110.953777
 31
0.0
  0
LINE
  5
14DF
100
AcDbEntity
  8
15000_BACK
370
    25
390
0
  6
CONTINUOUS
 62
     7
100
AcDbLine
 10
227.390076
 20
101.16887
 30
0.0
 11
227.845623
 21
101.902995
 31
0.0
  0
LINE
  5
14E0
100
AcDbEntity
  8
15000_BACK
370
    25
390
0
  6
CONTINUOUS
 62
     7
100
AcDbLine
 10
227.390076
 20
111.03887
 30
0.0
 11
227.845623
 21
111.772995
 31
0.0
  0
LINE
  5
14E1
100
AcDbEntity
  8
15000_BACK
370
    25
390
0
  6
CONTINUOUS
 62
     7
100
AcDbLine
 10
226.830213
 20
100.432995
 30
0.0
 11
227.284803
 21
101.16712
 31
0.0
  0
LINE
  5
14E2
100
AcDbEntity
  8
15000_BACK
370
    25
390
0
  6
CONTINUOUS
 62
     7
100
AcDbLine
 10
226.830213
 20
110.302995
 30
0.0
 11
227.284803
 21
111.03712
 31
0.0
  0
LINE
  5
14E3
100
AcDbEntity
  8
15000_BACK
370
    25
390
0
  6
CONTINUOUS
 62
     7
100
AcDbLine
 10
232.833853
 20
100.543969
 30
0.0
 11
232.867427
 21
100.598658
 31
0.0
  0
LINE
  5
14E4
100
AcDbEntity
  8
15000_BACK
370
    25
390
0
  6
CONTINUOUS
 62
     7
100
AcDbLine
 10
232.867427
 20
100.598658
 30
0.0
 11
232.900634
 21
100.653549
 31
0.0
  0
LINE
  5
14E5
100
AcDbEntity
  8
15000_BACK
370
    25
390
0
  6
CONTINUOUS
 62
     7
100
AcDbLine
 10
232.900634
 20
100.653549
 30
0.0
 11
232.933473
 21
100.708639
 31
0.0
  0
LINE
  5
14E6
100
AcDbEntity
  8
15000_BACK
370
    25
390
0
  6
CONTINUOUS
 62
     7
100
AcDbLine
 10
232.933473
 20
100.708639
 30
0.0
 11
232.965943
 21
100.763922
 31
0.0
  0
LINE
  5
14E7
100
AcDbEntity
  8
15000_BACK
370
    25
390
0
  6
CONTINUOUS
 62
     7
100
AcDbLine
 10
232.965943
 20
100.763922
 30
0.0
 11
232.99804
 21
100.819394
 31
0.0
  0
LINE
  5
14E8
100
AcDbEntity
  8
15000_BACK
370
    25
390
0
  6
CONTINUOUS
 62
     7
100
AcDbLine
 10
232.99804
 20
100.819394
 30
0.0
 11
233.029903
 21
100.874972
 31
0.0
  0
LINE
  5
14E9
100
AcDbEntity
  8
15000_BACK
370
    25
390
0
  6
CONTINUOUS
 62
     7
100
AcDbLine
 10
221.940162
 20
97.325287
 30
0.0
 11
222.116919
 21
97.652316
 31
0.0
  0
LINE
  5
14EA
100
AcDbEntity
  8
15000_BACK
370
    25
390
0
  6
CONTINUOUS
 62
     7
100
AcDbLine
 10
226.883093
 20
114.147674
 30
0.0
 11
227.05985
 21
114.474703
 31
0.0
  0
LINE
  5
14EB
100
AcDbEntity
  8
15000_BACK
370
    25
390
0
  6
CONTINUOUS
 62
     7
100
AcDbLine
 10
222.052483
 20
97.525081
 30
0.0
 11
222.162284
 21
97.732847
 31
0.0
  0
LINE
  5
14EC
100
AcDbEntity
  8
15000_BACK
370
    25
390
0
  6
CONTINUOUS
 62
     7
100
AcDbLine
 10
226.837728
 20
114.067143
 30
0.0
 11
226.947529
 21
114.274909
 31
0.0
  0
LINE
  5
14ED
100
AcDbEntity
  8
15000_BACK
370
    25
390
0
  6
CONTINUOUS
 62
     7
100
AcDbLine
 10
221.870107
 20
97.004356
 30
0.0
 11
221.872815
 21
97.009611
 31
0.0
  0
LINE
  5
14EE
100
AcDbEntity
  8
15000_BACK
370
    25
390
0
  6
CONTINUOUS
 62
     7
100
AcDbLine
 10
227.127197
 20
114.790379
 30
0.0
 11
227.129905
 21
114.795634
 31
0.0
  0
LINE
  5
14EF
100
AcDbEntity
  8
15000_BACK
370
    25
390
0
  6
CONTINUOUS
 62
     7
100
AcDbLine
 10
232.121264
 20
94.961495
 30
0.0
 11
232.25142
 21
95.21962
 31
0.0
  0
LINE
  5
14F0
100
AcDbEntity
  8
15000_BACK
370
    25
390
0
  6
CONTINUOUS
 62
     7
100
AcDbLine
 10
228.187385
 20
111.480745
 30
0.0
 11
228.252463
 21
111.609808
 31
0.0
  0
LINE
  5
14F1
100
AcDbEntity
  8
15000_BACK
370
    25
390
0
  6
CONTINUOUS
 62
     7
100
AcDbLine
 10
233.489819
 20
94.401495
 30
0.0
 11
233.631459
 21
94.682808
 31
0.0
  0
LINE
  5
14F2
100
AcDbEntity
  8
15000_BACK
370
    25
390
0
  6
CONTINUOUS
 62
     7
100
AcDbLine
 10
228.871662
 20
111.200745
 30
0.0
 11
228.942482
 21
111.341402
 31
0.0
  0
LINE
  5
14F3
100
AcDbEntity
  8
15000_BACK
370
    25
390
0
  6
CONTINUOUS
 62
     7
100
AcDbLine
 10
228.775959
 20
111.217589
 30
0.0
 11
228.841995
 21
111.351682
 31
0.0
  0
LINE
  5
14F4
100
AcDbEntity
  8
15000_BACK
370
    25
390
0
  6
CONTINUOUS
 62
     7
100
AcDbLine
 10
233.298412
 20
94.435183
 30
0.0
 11
233.430483
 21
94.70337
 31
0.0
  0
LINE
  5
14F5
100
AcDbEntity
  8
15000_BACK
370
    25
390
0
  6
CONTINUOUS
 62
     7
100
AcDbLine
 10
228.087853
 20
111.488402
 30
0.0
 11
228.157717
 21
111.631901
 31
0.0
  0
LINE
  5
14F6
100
AcDbEntity
  8
15000_BACK
370
    25
390
0
  6
CONTINUOUS
 62
     7
100
AcDbLine
 10
231.922201
 20
94.976808
 30
0.0
 11
232.061928
 21
95.263808
 31
0.0
  0
LINE
  5
14F7
100
AcDbEntity
  8
15000_BACK
370
    25
390
0
  6
CONTINUOUS
 62
     7
100
AcDbLine
 10
236.314738
 20
92.868233
 30
0.0
 11
236.397808
 21
93.086895
 31
0.0
  0
LINE
  5
14F8
100
AcDbEntity
  8
15000_BACK
370
    25
390
0
  6
CONTINUOUS
 62
     7
100
AcDbLine
 10
236.439344
 20
92.783708
 30
0.0
 11
236.537153
 21
93.080465
 31
0.0
  0
LINE
  5
14F9
100
AcDbEntity
  8
15000_BACK
370
    25
390
0
  6
CONTINUOUS
 62
     7
100
AcDbLine
 10
230.900902
 20
96.70932
 30
0.0
 11
230.980408
 21
97.011554
 31
0.0
  0
LINE
  5
14FA
100
AcDbEntity
  8
15000_BACK
370
    25
390
0
  6
CONTINUOUS
 62
     7
100
AcDbLine
 10
233.949977
 20
108.300109
 30
0.0
 11
234.147959
 21
109.052718
 31
0.0
  0
LINE
  5
14FB
100
AcDbEntity
  8
15000_BACK
370
    25
390
0
  6
CONTINUOUS
 62
     7
100
AcDbLine
 10
214.852791
 20
102.745062
 30
0.0
 11
214.998564
 21
103.299472
 31
0.0
  0
LINE
  5
14FC
100
AcDbEntity
  8
15000_BACK
370
    25
390
0
  6
CONTINUOUS
 62
     7
100
AcDbLine
 10
218.019335
 20
114.788241
 30
0.0
 11
218.098797
 21
115.090455
 31
0.0
  0
LINE
  5
14FD
100
AcDbEntity
  8
15000_BACK
370
    25
390
0
  6
CONTINUOUS
 62
     7
100
AcDbLine
 10
215.000006
 20
124.699994
 30
0.0
 11
216.150006
 21
130.099996
 31
0.0
  0
LINE
  5
14FE
100
AcDbEntity
  8
15000_BACK
370
    25
390
0
  6
CONTINUOUS
 62
     7
100
AcDbLine
 10
214.847455
 20
125.137622
 30
0.0
 11
215.90224
 21
130.099996
 31
0.0
  0
LINE
  5
14FF
100
AcDbEntity
  8
15000_BACK
370
    25
390
0
  6
CONTINUOUS
 62
     7
100
AcDbLine
 10
235.390246
 20
93.79127
 30
0.0
 11
235.478675
 21
94.404995
 31
0.0
  0
LINE
  5
1500
100
AcDbEntity
  8
15000_BACK
370
    25
390
0
  6
CONTINUOUS
 62
     7
100
AcDbLine
 10
235.242863
 20
93.642126
 30
0.0
 11
235.343352
 21
94.542195
 31
0.0
  0
LINE
  5
1501
100
AcDbEntity
  8
15000_BACK
370
    25
390
0
  6
CONTINUOUS
 62
     7
100
AcDbLine
 10
209.500006
 20
90.199995
 30
0.0
 11
209.500006
 21
130.099996
 31
0.0
  0
LINE
  5
1502
100
AcDbEntity
  8
15000_BACK
370
    25
390
0
  6
CONTINUOUS
 62
     7
100
AcDbLine
 10
209.850006
 20
112.549995
 30
0.0
 11
209.850006
 21
116.549995
 31
0.0
  0
LINE
  5
1503
100
AcDbEntity
  8
15000_BACK
370
    25
390
0
  6
CONTINUOUS
 62
     7
100
AcDbLine
 10
209.850006
 20
94.649995
 30
0.0
 11
209.850006
 21
97.549995
 31
0.0
  0
LINE
  5
1504
100
AcDbEntity
  8
15000_BACK
370
    25
390
0
  6
CONTINUOUS
 62
     7
100
AcDbLine
 10
209.850006
 20
97.549995
 30
0.0
 11
209.850006
 21
98.649995
 31
0.0
  0
LINE
  5
1505
100
AcDbEntity
  8
15000_BACK
370
    25
390
0
  6
CONTINUOUS
 62
     7
100
AcDbLine
 10
210.700006
 20
117.649994
 30
0.0
 11
210.700006
 21
123.399995
 31
0.0
  0
LINE
  5
1506
100
AcDbEntity
  8
15000_BACK
370
    25
390
0
  6
CONTINUOUS
 62
     7
100
AcDbLine
 10
210.750006
 20
116.549995
 30
0.0
 11
210.750006
 21
116.678543
 31
0.0
  0
LINE
  5
1507
100
AcDbEntity
  8
15000_BACK
370
    25
390
0
  6
CONTINUOUS
 62
     7
100
AcDbLine
 10
210.750006
 20
109.899122
 30
0.0
 11
210.750006
 21
112.549995
 31
0.0
  0
LINE
  5
1508
100
AcDbEntity
  8
15000_BACK
370
    25
390
0
  6
CONTINUOUS
 62
     7
100
AcDbLine
 10
210.750006
 20
109.807483
 30
0.0
 11
210.750006
 21
109.899122
 31
0.0
  0
LINE
  5
1509
100
AcDbEntity
  8
15000_BACK
370
    25
390
0
  6
CONTINUOUS
 62
     7
100
AcDbLine
 10
210.750006
 20
101.900868
 30
0.0
 11
210.750006
 21
101.992507
 31
0.0
  0
LINE
  5
150A
100
AcDbEntity
  8
15000_BACK
370
    25
390
0
  6
CONTINUOUS
 62
     7
100
AcDbLine
 10
210.750006
 20
98.649995
 30
0.0
 11
210.750006
 21
101.900868
 31
0.0
  0
LINE
  5
150B
100
AcDbEntity
  8
15000_BACK
370
    25
390
0
  6
CONTINUOUS
 62
     7
100
AcDbLine
 10
210.750006
 20
94.599122
 30
0.0
 11
210.750006
 21
94.649995
 31
0.0
  0
LINE
  5
150C
100
AcDbEntity
  8
15000_BACK
370
    25
390
0
  6
CONTINUOUS
 62
     7
100
AcDbLine
 10
210.750006
 20
94.521447
 30
0.0
 11
210.750006
 21
94.599122
 31
0.0
  0
LINE
  5
150D
100
AcDbEntity
  8
15000_BACK
370
    25
390
0
  6
CONTINUOUS
 62
     7
100
AcDbLine
 10
210.850006
 20
98.649995
 30
0.0
 11
210.850006
 21
101.992507
 31
0.0
  0
LINE
  5
150E
100
AcDbEntity
  8
15000_BACK
370
    25
390
0
  6
CONTINUOUS
 62
     7
100
AcDbLine
 10
210.850006
 20
109.807483
 30
0.0
 11
210.850006
 21
112.549995
 31
0.0
  0
LINE
  5
150F
100
AcDbEntity
  8
15000_BACK
370
    25
390
0
  6
CONTINUOUS
 62
     7
100
AcDbLine
 10
211.100006
 20
94.390535
 30
0.0
 11
211.100006
 21
103.900003
 31
0.0
  0
LINE
  5
1510
100
AcDbEntity
  8
15000_BACK
370
    25
390
0
  6
CONTINUOUS
 62
     7
100
AcDbLine
 10
211.100006
 20
108.899995
 30
0.0
 11
211.100006
 21
116.809456
 31
0.0
  0
LINE
  5
1511
100
AcDbEntity
  8
15000_BACK
370
    25
390
0
  6
CONTINUOUS
 62
     7
100
AcDbLine
 10
211.100006
 20
107.899987
 30
0.0
 11
211.100006
 21
108.899995
 31
0.0
  0
LINE
  5
1512
100
AcDbEntity
  8
15000_BACK
370
    25
390
0
  6
CONTINUOUS
 62
     7
100
AcDbLine
 10
211.700006
 20
90.199995
 30
0.0
 11
211.700006
 21
93.299995
 31
0.0
  0
LINE
  5
1513
100
AcDbEntity
  8
15000_BACK
370
    25
390
0
  6
CONTINUOUS
 62
     7
100
AcDbLine
 10
211.708733
 20
90.199995
 30
0.0
 11
211.708733
 21
92.199995
 31
0.0
  0
LINE
  5
1514
100
AcDbEntity
  8
15000_BACK
370
    25
390
0
  6
CONTINUOUS
 62
     7
100
AcDbLine
 10
211.72882
 20
90.199995
 30
0.0
 11
211.72882
 21
92.199995
 31
0.0
  0
LINE
  5
1515
100
AcDbEntity
  8
15000_BACK
370
    25
390
0
  6
CONTINUOUS
 62
     7
100
AcDbLine
 10
211.928812
 20
90.199995
 30
0.0
 11
211.928812
 21
92.199995
 31
0.0
  0
LINE
  5
1516
100
AcDbEntity
  8
15000_BACK
370
    25
390
0
  6
CONTINUOUS
 62
     7
100
AcDbLine
 10
212.19017
 20
94.779495
 30
0.0
 11
212.19017
 21
94.985995
 31
0.0
  0
LINE
  5
1517
100
AcDbEntity
  8
15000_BACK
370
    25
390
0
  6
CONTINUOUS
 62
     7
100
AcDbLine
 10
212.500006
 20
119.399995
 30
0.0
 11
212.500006
 21
120.799995
 31
0.0
  0
LINE
  5
1518
100
AcDbEntity
  8
15000_BACK
370
    25
390
0
  6
CONTINUOUS
 62
     7
100
AcDbLine
 10
212.500006
 20
90.199995
 30
0.0
 11
212.500006
 21
92.199995
 31
0.0
  0
LINE
  5
1519
100
AcDbEntity
  8
15000_BACK
370
    25
390
0
  6
CONTINUOUS
 62
     7
100
AcDbLine
 10
212.700006
 20
119.399995
 30
0.0
 11
212.700006
 21
120.799995
 31
0.0
  0
LINE
  5
151A
100
AcDbEntity
  8
15000_BACK
370
    25
390
0
  6
CONTINUOUS
 62
     7
100
AcDbLine
 10
212.700006
 20
90.199995
 30
0.0
 11
212.700006
 21
92.199995
 31
0.0
  0
LINE
  5
151B
100
AcDbEntity
  8
15000_BACK
370
    25
390
0
  6
CONTINUOUS
 62
     7
100
AcDbLine
 10
212.739506
 20
92.605995
 30
0.0
 11
212.739506
 21
95.165808
 31
0.0
  0
LINE
  5
151C
100
AcDbEntity
  8
15000_BACK
370
    25
390
0
  6
CONTINUOUS
 62
     7
100
AcDbLine
 10
212.935506
 20
92.605995
 30
0.0
 11
212.935506
 21
95.545995
 31
0.0
  0
LINE
  5
151D
100
AcDbEntity
  8
15000_BACK
370
    25
390
0
  6
CONTINUOUS
 62
     7
100
AcDbLine
 10
214.138201
 20
92.763495
 30
0.0
 11
214.138201
 21
92.924495
 31
0.0
  0
LINE
  5
151E
100
AcDbEntity
  8
15000_BACK
370
    25
390
0
  6
CONTINUOUS
 62
     7
100
AcDbLine
 10
214.612889
 20
92.763495
 30
0.0
 11
214.612889
 21
92.924495
 31
0.0
  0
LINE
  5
151F
100
AcDbEntity
  8
15000_BACK
370
    25
390
0
  6
CONTINUOUS
 62
     7
100
AcDbLine
 10
215.839752
 20
98.797883
 30
0.0
 11
215.839752
 21
100.606367
 31
0.0
  0
LINE
  5
1520
100
AcDbEntity
  8
15000_BACK
370
    25
390
0
  6
CONTINUOUS
 62
     7
100
AcDbLine
 10
215.839752
 20
111.193623
 30
0.0
 11
215.839752
 21
113.002107
 31
0.0
  0
LINE
  5
1521
100
AcDbEntity
  8
15000_BACK
370
    25
390
0
  6
CONTINUOUS
 62
     7
100
AcDbLine
 10
216.109206
 20
92.484195
 30
0.0
 11
216.109206
 21
92.974195
 31
0.0
  0
LINE
  5
1522
100
AcDbEntity
  8
15000_BACK
370
    25
390
0
  6
CONTINUOUS
 62
     7
100
AcDbLine
 10
216.109206
 20
93.111395
 30
0.0
 11
216.109206
 21
94.169795
 31
0.0
  0
LINE
  5
1523
100
AcDbEntity
  8
15000_BACK
370
    25
390
0
  6
CONTINUOUS
 62
     7
100
AcDbLine
 10
216.200006
 20
110.910561
 30
0.0
 11
216.200006
 21
113.118721
 31
0.0
  0
LINE
  5
1524
100
AcDbEntity
  8
15000_BACK
370
    25
390
0
  6
CONTINUOUS
 62
     7
100
AcDbLine
 10
216.200006
 20
100.242133
 30
0.0
 11
216.200006
 21
100.48943
 31
0.0
  0
LINE
  5
1525
100
AcDbEntity
  8
15000_BACK
370
    25
390
0
  6
CONTINUOUS
 62
     7
100
AcDbLine
 10
216.200006
 20
99.99155
 30
0.0
 11
216.200006
 21
100.242133
 31
0.0
  0
LINE
  5
1526
100
AcDbEntity
  8
15000_BACK
370
    25
390
0
  6
CONTINUOUS
 62
     7
100
AcDbLine
 10
216.200006
 20
99.737457
 30
0.0
 11
216.200006
 21
99.99155
 31
0.0
  0
LINE
  5
1527
100
AcDbEntity
  8
15000_BACK
370
    25
390
0
  6
CONTINUOUS
 62
     7
100
AcDbLine
 10
216.200006
 20
99.479623
 30
0.0
 11
216.200006
 21
99.737457
 31
0.0
  0
LINE
  5
1528
100
AcDbEntity
  8
15000_BACK
370
    25
390
0
  6
CONTINUOUS
 62
     7
100
AcDbLine
 10
216.200006
 20
99.217812
 30
0.0
 11
216.200006
 21
99.479623
 31
0.0
  0
LINE
  5
1529
100
AcDbEntity
  8
15000_BACK
370
    25
390
0
  6
CONTINUOUS
 62
     7
100
AcDbLine
 10
216.200006
 20
98.951779
 30
0.0
 11
216.200006
 21
99.217812
 31
0.0
  0
LINE
  5
152A
100
AcDbEntity
  8
15000_BACK
370
    25
390
0
  6
CONTINUOUS
 62
     7
100
AcDbLine
 10
216.200006
 20
98.681269
 30
0.0
 11
216.200006
 21
98.951779
 31
0.0
  0
LINE
  5
152B
100
AcDbEntity
  8
15000_BACK
370
    25
390
0
  6
CONTINUOUS
 62
     7
100
AcDbLine
 10
216.246406
 20
92.484195
 30
0.0
 11
216.246406
 21
92.974195
 31
0.0
  0
LINE
  5
152C
100
AcDbEntity
  8
15000_BACK
370
    25
390
0
  6
CONTINUOUS
 62
     7
100
AcDbLine
 10
216.246406
 20
93.111395
 30
0.0
 11
216.246406
 21
94.542195
 31
0.0
  0
LINE
  5
152D
100
AcDbEntity
  8
15000_BACK
370
    25
390
0
  6
CONTINUOUS
 62
     7
100
AcDbLine
 10
216.300006
 20
119.399995
 30
0.0
 11
216.300006
 21
120.799995
 31
0.0
  0
LINE
  5
152E
100
AcDbEntity
  8
15000_BACK
370
    25
390
0
  6
CONTINUOUS
 62
     7
100
AcDbLine
 10
216.300006
 20
90.199995
 30
0.0
 11
216.300006
 21
92.199995
 31
0.0
  0
LINE
  5
152F
100
AcDbEntity
  8
15000_BACK
370
    25
390
0
  6
CONTINUOUS
 62
     7
100
AcDbLine
 10
216.500006
 20
119.399995
 30
0.0
 11
216.500006
 21
120.799995
 31
0.0
  0
LINE
  5
1530
100
AcDbEntity
  8
15000_BACK
370
    25
390
0
  6
CONTINUOUS
 62
     7
100
AcDbLine
 10
216.500006
 20
90.199995
 30
0.0
 11
216.500006
 21
92.199995
 31
0.0
  0
LINE
  5
1531
100
AcDbEntity
  8
15000_BACK
370
    25
390
0
  6
CONTINUOUS
 62
     7
100
AcDbLine
 10
216.630941
 20
92.974195
 30
0.0
 11
216.630941
 21
93.111395
 31
0.0
  0
LINE
  5
1532
100
AcDbEntity
  8
15000_BACK
370
    25
390
0
  6
CONTINUOUS
 62
     7
100
AcDbLine
 10
216.796743
 20
92.594445
 30
0.0
 11
216.796743
 21
92.707145
 31
0.0
  0
LINE
  5
1533
100
AcDbEntity
  8
15000_BACK
370
    25
390
0
  6
CONTINUOUS
 62
     7
100
AcDbLine
 10
217.0712
 20
90.199995
 30
0.0
 11
217.0712
 21
92.199995
 31
0.0
  0
LINE
  5
1534
100
AcDbEntity
  8
15000_BACK
370
    25
390
0
  6
CONTINUOUS
 62
     7
100
AcDbLine
 10
217.129024
 20
92.594445
 30
0.0
 11
217.129024
 21
92.707145
 31
0.0
  0
LINE
  5
1535
100
AcDbEntity
  8
15000_BACK
370
    25
390
0
  6
CONTINUOUS
 62
     7
100
AcDbLine
 10
217.271192
 20
90.199995
 30
0.0
 11
217.271192
 21
92.199995
 31
0.0
  0
LINE
  5
1536
100
AcDbEntity
  8
15000_BACK
370
    25
390
0
  6
CONTINUOUS
 62
     7
100
AcDbLine
 10
217.291279
 20
90.199995
 30
0.0
 11
217.291279
 21
92.199995
 31
0.0
  0
LINE
  5
1537
100
AcDbEntity
  8
15000_BACK
370
    25
390
0
  6
CONTINUOUS
 62
     7
100
AcDbLine
 10
217.300006
 20
90.199995
 30
0.0
 11
217.300006
 21
93.299995
 31
0.0
  0
LINE
  5
1538
100
AcDbEntity
  8
15000_BACK
370
    25
390
0
  6
CONTINUOUS
 62
     7
100
AcDbLine
 10
218.300006
 20
117.649994
 30
0.0
 11
218.300006
 21
122.599996
 31
0.0
  0
LINE
  5
1539
100
AcDbEntity
  8
15000_BACK
370
    25
390
0
  6
CONTINUOUS
 62
     7
100
AcDbLine
 10
219.600006
 20
90.273612
 30
0.0
 11
219.600006
 21
121.347901
 31
0.0
  0
LINE
  5
153A
100
AcDbEntity
  8
15000_BACK
370
    25
390
0
  6
CONTINUOUS
 62
     7
100
AcDbLine
 10
219.600006
 20
121.347905
 30
0.0
 11
219.600006
 21
121.901599
 31
0.0
  0
LINE
  5
153B
100
AcDbEntity
  8
15000_BACK
370
    25
390
0
  6
CONTINUOUS
 62
     7
100
AcDbLine
 10
219.600006
 20
121.901599
 30
0.0
 11
219.600006
 21
123.048942
 31
0.0
  0
LINE
  5
153C
100
AcDbEntity
  8
15000_BACK
370
    25
390
0
  6
CONTINUOUS
 62
     7
100
AcDbLine
 10
219.600006
 20
123.048942
 30
0.0
 11
219.600006
 21
123.054753
 31
0.0
  0
LINE
  5
153D
100
AcDbEntity
  8
15000_BACK
370
    25
390
0
  6
CONTINUOUS
 62
     7
100
AcDbLine
 10
219.800006
 20
117.799995
 30
0.0
 11
219.800006
 21
120.723959
 31
0.0
  0
LINE
  5
153E
100
AcDbEntity
  8
15000_BACK
370
    25
390
0
  6
CONTINUOUS
 62
     7
100
AcDbLine
 10
219.800006
 20
108.899995
 30
0.0
 11
219.800006
 21
116.599995
 31
0.0
  0
LINE
  5
153F
100
AcDbEntity
  8
15000_BACK
370
    25
390
0
  6
CONTINUOUS
 62
     7
100
AcDbLine
 10
219.800006
 20
91.076032
 30
0.0
 11
219.800006
 21
102.899995
 31
0.0
  0
LINE
  5
1540
100
AcDbEntity
  8
15000_BACK
370
    25
390
0
  6
CONTINUOUS
 62
     7
100
AcDbLine
 10
220.000006
 20
123.054759
 30
0.0
 11
220.000006
 21
124.149995
 31
0.0
  0
LINE
  5
1541
100
AcDbEntity
  8
15000_BACK
370
    25
390
0
  6
CONTINUOUS
 62
     7
100
AcDbLine
 10
220.400006
 20
89.899995
 30
0.0
 11
220.400006
 21
90.452089
 31
0.0
  0
LINE
  5
1542
100
AcDbEntity
  8
15000_BACK
370
    25
390
0
  6
CONTINUOUS
 62
     7
100
AcDbLine
 10
220.400006
 20
121.901599
 30
0.0
 11
220.400006
 21
123.048942
 31
0.0
  0
LINE
  5
1543
100
AcDbEntity
  8
15000_BACK
370
    25
390
0
  6
CONTINUOUS
 62
     7
100
AcDbLine
 10
220.400006
 20
123.048942
 30
0.0
 11
220.400006
 21
123.054753
 31
0.0
  0
LINE
  5
1544
100
AcDbEntity
  8
15000_BACK
370
    25
390
0
  6
CONTINUOUS
 62
     7
100
AcDbLine
 10
220.400006
 20
121.899995
 30
0.0
 11
220.400006
 21
121.901599
 31
0.0
  0
LINE
  5
1545
100
AcDbEntity
  8
15000_BACK
370
    25
390
0
  6
CONTINUOUS
 62
     7
100
AcDbLine
 10
220.400006
 20
121.347901
 30
0.0
 11
220.400006
 21
121.899995
 31
0.0
  0
LINE
  5
1546
100
AcDbEntity
  8
15000_BACK
370
    25
390
0
  6
CONTINUOUS
 62
     7
100
AcDbLine
 10
220.700006
 20
119.599995
 30
0.0
 11
220.700006
 21
121.367992
 31
0.0
  0
LINE
  5
1547
100
AcDbEntity
  8
15000_BACK
370
    25
390
0
  6
CONTINUOUS
 62
     7
100
AcDbLine
 10
220.700006
 20
122.399995
 30
0.0
 11
220.700006
 21
122.599996
 31
0.0
  0
LINE
  5
1548
100
AcDbEntity
  8
15000_BACK
370
    25
390
0
  6
CONTINUOUS
 62
     7
100
AcDbLine
 10
220.700006
 20
122.256644
 30
0.0
 11
220.700006
 21
122.399995
 31
0.0
  0
LINE
  5
1549
100
AcDbEntity
  8
15000_BACK
370
    25
390
0
  6
CONTINUOUS
 62
     7
100
AcDbLine
 10
220.755343
 20
124.149995
 30
0.0
 11
220.755343
 21
124.349996
 31
0.0
  0
LINE
  5
154A
100
AcDbEntity
  8
15000_BACK
370
    25
390
0
  6
CONTINUOUS
 62
     7
100
AcDbLine
 10
221.000006
 20
89.899995
 30
0.0
 11
221.000006
 21
91.076032
 31
0.0
  0
LINE
  5
154B
100
AcDbEntity
  8
15000_BACK
370
    25
390
0
  6
CONTINUOUS
 62
     7
100
AcDbLine
 10
221.000006
 20
119.599998
 30
0.0
 11
221.000006
 21
121.367991
 31
0.0
  0
LINE
  5
154C
100
AcDbEntity
  8
15000_BACK
370
    25
390
0
  6
CONTINUOUS
 62
     7
100
AcDbLine
 10
221.000006
 20
121.367992
 30
0.0
 11
221.000006
 21
121.899995
 31
0.0
  0
LINE
  5
154D
100
AcDbEntity
  8
15000_BACK
370
    25
390
0
  6
CONTINUOUS
 62
     7
100
AcDbLine
 10
221.400006
 20
116.599995
 30
0.0
 11
221.400006
 21
117.799995
 31
0.0
  0
LINE
  5
154E
100
AcDbEntity
  8
15000_BACK
370
    25
390
0
  6
CONTINUOUS
 62
     7
100
AcDbLine
 10
221.700006
 20
90.431999
 30
0.0
 11
221.700006
 21
92.199995
 31
0.0
  0
LINE
  5
154F
100
AcDbEntity
  8
15000_BACK
370
    25
390
0
  6
CONTINUOUS
 62
     7
100
AcDbLine
 10
222.850006
 20
123.449994
 30
0.0
 11
222.850006
 21
124.849996
 31
0.0
  0
LINE
  5
1550
100
AcDbEntity
  8
15000_BACK
370
    25
390
0
  6
CONTINUOUS
 62
     7
100
AcDbLine
 10
223.485091
 20
124.08508
 30
0.0
 11
223.485091
 21
124.21491
 31
0.0
  0
LINE
  5
1551
100
AcDbEntity
  8
15000_BACK
370
    25
390
0
  6
CONTINUOUS
 62
     7
100
AcDbLine
 10
223.750006
 20
122.256646
 30
0.0
 11
223.750006
 21
123.449994
 31
0.0
  0
LINE
  5
1552
100
AcDbEntity
  8
15000_BACK
370
    25
390
0
  6
CONTINUOUS
 62
     7
100
AcDbLine
 10
223.750006
 20
124.849996
 30
0.0
 11
223.750006
 21
126.482375
 31
0.0
  0
LINE
  5
1553
100
AcDbEntity
  8
15000_BACK
370
    25
390
0
  6
CONTINUOUS
 62
     7
100
AcDbLine
 10
223.985006
 20
95.64684
 30
0.0
 11
223.985006
 21
98.108859
 31
0.0
  0
LINE
  5
1554
100
AcDbEntity
  8
15000_BACK
370
    25
390
0
  6
CONTINUOUS
 62
     7
100
AcDbLine
 10
223.985006
 20
94.612791
 30
0.0
 11
223.985006
 21
95.646839
 31
0.0
  0
LINE
  5
1555
100
AcDbEntity
  8
15000_BACK
370
    25
390
0
  6
CONTINUOUS
 62
     7
100
AcDbLine
 10
224.015006
 20
113.691131
 30
0.0
 11
224.015006
 21
117.187199
 31
0.0
  0
LINE
  5
1556
100
AcDbEntity
  8
15000_BACK
370
    25
390
0
  6
CONTINUOUS
 62
     7
100
AcDbLine
 10
224.150373
 20
122.256646
 30
0.0
 11
224.150373
 21
124.08508
 31
0.0
  0
LINE
  5
1557
100
AcDbEntity
  8
15000_BACK
370
    25
390
0
  6
CONTINUOUS
 62
     7
100
AcDbLine
 10
224.150373
 20
124.21491
 30
0.0
 11
224.150373
 21
126.57492
 31
0.0
  0
LINE
  5
1558
100
AcDbEntity
  8
15000_BACK
370
    25
390
0
  6
CONTINUOUS
 62
     7
100
AcDbLine
 10
224.500006
 20
109.199995
 30
0.0
 11
224.500006
 21
110.449995
 31
0.0
  0
LINE
  5
1559
100
AcDbEntity
  8
15000_BACK
370
    25
390
0
  6
CONTINUOUS
 62
     7
100
AcDbLine
 10
224.500006
 20
93.999995
 30
0.0
 11
224.500006
 21
94.289225
 31
0.0
  0
LINE
  5
155A
100
AcDbEntity
  8
15000_BACK
370
    25
390
0
  6
CONTINUOUS
 62
     7
100
AcDbLine
 10
224.500006
 20
101.349995
 30
0.0
 11
224.500006
 21
102.599995
 31
0.0
  0
LINE
  5
155B
100
AcDbEntity
  8
15000_BACK
370
    25
390
0
  6
CONTINUOUS
 62
     7
100
AcDbLine
 10
224.700006
 20
127.093208
 30
0.0
 11
224.700006
 21
127.49402
 31
0.0
  0
LINE
  5
155C
100
AcDbEntity
  8
15000_BACK
370
    25
390
0
  6
CONTINUOUS
 62
     7
100
AcDbLine
 10
224.849639
 20
124.21491
 30
0.0
 11
224.849639
 21
126.57492
 31
0.0
  0
LINE
  5
155D
100
AcDbEntity
  8
15000_BACK
370
    25
390
0
  6
CONTINUOUS
 62
     7
100
AcDbLine
 10
224.849639
 20
122.256646
 30
0.0
 11
224.849639
 21
124.08508
 31
0.0
  0
LINE
  5
155E
100
AcDbEntity
  8
15000_BACK
370
    25
390
0
  6
CONTINUOUS
 62
     7
100
AcDbLine
 10
224.985006
 20
95.64684
 30
0.0
 11
224.985006
 21
98.108859
 31
0.0
  0
LINE
  5
155F
100
AcDbEntity
  8
15000_BACK
370
    25
390
0
  6
CONTINUOUS
 62
     7
100
AcDbLine
 10
224.985006
 20
94.612791
 30
0.0
 11
224.985006
 21
95.646839
 31
0.0
  0
LINE
  5
1560
100
AcDbEntity
  8
15000_BACK
370
    25
390
0
  6
CONTINUOUS
 62
     7
100
AcDbLine
 10
225.015006
 20
113.691131
 30
0.0
 11
225.015006
 21
117.187199
 31
0.0
  0
LINE
  5
1561
100
AcDbEntity
  8
15000_BACK
370
    25
390
0
  6
CONTINUOUS
 62
     7
100
AcDbLine
 10
225.250006
 20
124.849996
 30
0.0
 11
225.250006
 21
126.482375
 31
0.0
  0
LINE
  5
1562
100
AcDbEntity
  8
15000_BACK
370
    25
390
0
  6
CONTINUOUS
 62
     7
100
AcDbLine
 10
225.250006
 20
122.256646
 30
0.0
 11
225.250006
 21
123.449994
 31
0.0
  0
LINE
  5
1563
100
AcDbEntity
  8
15000_BACK
370
    25
390
0
  6
CONTINUOUS
 62
     7
100
AcDbLine
 10
225.514921
 20
124.08508
 30
0.0
 11
225.514921
 21
124.21491
 31
0.0
  0
LINE
  5
1564
100
AcDbEntity
  8
15000_BACK
370
    25
390
0
  6
CONTINUOUS
 62
     7
100
AcDbLine
 10
226.150006
 20
123.449994
 30
0.0
 11
226.150006
 21
124.849996
 31
0.0
  0
LINE
  5
1565
100
AcDbEntity
  8
15000_BACK
370
    25
390
0
  6
CONTINUOUS
 62
     7
100
AcDbLine
 10
226.500006
 20
109.499995
 30
0.0
 11
226.500006
 21
110.449995
 31
0.0
  0
LINE
  5
1566
100
AcDbEntity
  8
15000_BACK
370
    25
390
0
  6
CONTINUOUS
 62
     7
100
AcDbLine
 10
226.500006
 20
101.349995
 30
0.0
 11
226.500006
 21
102.299995
 31
0.0
  0
LINE
  5
1567
100
AcDbEntity
  8
15000_BACK
370
    25
390
0
  6
CONTINUOUS
 62
     7
100
AcDbLine
 10
227.300006
 20
90.431999
 30
0.0
 11
227.300006
 21
92.199995
 31
0.0
  0
LINE
  5
1568
100
AcDbEntity
  8
15000_BACK
370
    25
390
0
  6
CONTINUOUS
 62
     7
100
AcDbLine
 10
227.600006
 20
93.999995
 30
0.0
 11
227.600006
 21
95.199995
 31
0.0
  0
LINE
  5
1569
100
AcDbEntity
  8
15000_BACK
370
    25
390
0
  6
CONTINUOUS
 62
     7
100
AcDbLine
 10
227.850006
 20
121.761672
 30
0.0
 11
227.850006
 21
122.256644
 31
0.0
  0
LINE
  5
156A
100
AcDbEntity
  8
15000_BACK
370
    25
390
0
  6
CONTINUOUS
 62
     7
100
AcDbLine
 10
228.000006
 20
121.367992
 30
0.0
 11
228.000006
 21
121.899995
 31
0.0
  0
LINE
  5
156B
100
AcDbEntity
  8
15000_BACK
370
    25
390
0
  6
CONTINUOUS
 62
     7
100
AcDbLine
 10
228.000006
 20
90.431999
 30
0.0
 11
228.000006
 21
90.877649
 31
0.0
  0
LINE
  5
156C
100
AcDbEntity
  8
15000_BACK
370
    25
390
0
  6
CONTINUOUS
 62
     7
100
AcDbLine
 10
228.000006
 20
89.899995
 30
0.0
 11
228.000006
 21
90.431999
 31
0.0
  0
LINE
  5
156D
100
AcDbEntity
  8
15000_BACK
370
    25
390
0
  6
CONTINUOUS
 62
     7
100
AcDbLine
 10
228.000006
 20
90.877649
 30
0.0
 11
228.000006
 21
91.076032
 31
0.0
  0
LINE
  5
156E
100
AcDbEntity
  8
15000_BACK
370
    25
390
0
  6
CONTINUOUS
 62
     7
100
AcDbLine
 10
228.000006
 20
119.599998
 30
0.0
 11
228.000006
 21
121.367991
 31
0.0
  0
LINE
  5
156F
100
AcDbEntity
  8
15000_BACK
370
    25
390
0
  6
CONTINUOUS
 62
     7
100
AcDbLine
 10
228.087853
 20
111.400245
 30
0.0
 11
228.087853
 21
111.488402
 31
0.0
  0
LINE
  5
1570
100
AcDbEntity
  8
15000_BACK
370
    25
390
0
  6
CONTINUOUS
 62
     7
100
AcDbLine
 10
228.187385
 20
111.400245
 30
0.0
 11
228.187385
 21
111.480745
 31
0.0
  0
LINE
  5
1571
100
AcDbEntity
  8
15000_BACK
370
    25
390
0
  6
CONTINUOUS
 62
     7
100
AcDbLine
 10
228.221838
 20
101.519745
 30
0.0
 11
228.221838
 21
101.622995
 31
0.0
  0
LINE
  5
1572
100
AcDbEntity
  8
15000_BACK
370
    25
390
0
  6
CONTINUOUS
 62
     7
100
AcDbLine
 10
228.300006
 20
119.599995
 30
0.0
 11
228.300006
 21
121.367992
 31
0.0
  0
LINE
  5
1573
100
AcDbEntity
  8
15000_BACK
370
    25
390
0
  6
CONTINUOUS
 62
     7
100
AcDbLine
 10
228.300006
 20
126.749995
 30
0.0
 11
228.300006
 21
130.099996
 31
0.0
  0
LINE
  5
1574
100
AcDbEntity
  8
15000_BACK
370
    25
390
0
  6
CONTINUOUS
 62
     7
100
AcDbLine
 10
228.300006
 20
122.599996
 30
0.0
 11
228.300006
 21
126.749995
 31
0.0
  0
LINE
  5
1575
100
AcDbEntity
  8
15000_BACK
370
    25
390
0
  6
CONTINUOUS
 62
     7
100
AcDbLine
 10
228.300006
 20
121.900003
 30
0.0
 11
228.300006
 21
122.399995
 31
0.0
  0
LINE
  5
1576
100
AcDbEntity
  8
15000_BACK
370
    25
390
0
  6
CONTINUOUS
 62
     7
100
AcDbLine
 10
228.300006
 20
122.399995
 30
0.0
 11
228.300006
 21
122.599996
 31
0.0
  0
LINE
  5
1577
100
AcDbEntity
  8
15000_BACK
370
    25
390
0
  6
CONTINUOUS
 62
     7
100
AcDbLine
 10
228.496506
 20
100.432995
 30
0.0
 11
228.496506
 21
101.712901
 31
0.0
  0
LINE
  5
1578
100
AcDbEntity
  8
15000_BACK
370
    25
390
0
  6
CONTINUOUS
 62
     7
100
AcDbLine
 10
228.594506
 20
100.432995
 30
0.0
 11
228.594506
 21
101.902995
 31
0.0
  0
LINE
  5
1579
100
AcDbEntity
  8
15000_BACK
370
    25
390
0
  6
CONTINUOUS
 62
     7
100
AcDbLine
 10
228.600006
 20
109.199995
 30
0.0
 11
228.600006
 21
109.499995
 31
0.0
  0
LINE
  5
157A
100
AcDbEntity
  8
15000_BACK
370
    25
390
0
  6
CONTINUOUS
 62
     7
100
AcDbLine
 10
228.600006
 20
102.299995
 30
0.0
 11
228.600006
 21
102.599995
 31
0.0
  0
LINE
  5
157B
100
AcDbEntity
  8
15000_BACK
370
    25
390
0
  6
CONTINUOUS
 62
     7
100
AcDbLine
 10
228.600006
 20
121.347901
 30
0.0
 11
228.600006
 21
121.899995
 31
0.0
  0
LINE
  5
157C
100
AcDbEntity
  8
15000_BACK
370
    25
390
0
  6
CONTINUOUS
 62
     7
100
AcDbLine
 10
228.600006
 20
89.899995
 30
0.0
 11
228.600006
 21
90.452089
 31
0.0
  0
LINE
  5
157D
100
AcDbEntity
  8
15000_BACK
370
    25
390
0
  6
CONTINUOUS
 62
     7
100
AcDbLine
 10
228.841995
 20
111.351682
 30
0.0
 11
228.841995
 21
111.480745
 31
0.0
  0
LINE
  5
157E
100
AcDbEntity
  8
15000_BACK
370
    25
390
0
  6
CONTINUOUS
 62
     7
100
AcDbLine
 10
228.942482
 20
111.341402
 30
0.0
 11
228.942482
 21
111.48687
 31
0.0
  0
LINE
  5
157F
100
AcDbEntity
  8
15000_BACK
370
    25
390
0
  6
CONTINUOUS
 62
     7
100
AcDbLine
 10
229.010432
 20
110.302995
 30
0.0
 11
229.010432
 21
110.400995
 31
0.0
  0
LINE
  5
1580
100
AcDbEntity
  8
15000_BACK
370
    25
390
0
  6
CONTINUOUS
 62
     7
100
AcDbLine
 10
229.200006
 20
108.899995
 30
0.0
 11
229.200006
 21
120.723959
 31
0.0
  0
LINE
  5
1581
100
AcDbEntity
  8
15000_BACK
370
    25
390
0
  6
CONTINUOUS
 62
     7
100
AcDbLine
 10
229.200006
 20
91.076032
 30
0.0
 11
229.200006
 21
102.899995
 31
0.0
  0
LINE
  5
1582
100
AcDbEntity
  8
15000_BACK
370
    25
390
0
  6
CONTINUOUS
 62
     7
100
AcDbLine
 10
229.400006
 20
90.273612
 30
0.0
 11
229.400006
 21
121.347901
 31
0.0
  0
LINE
  5
1583
100
AcDbEntity
  8
15000_BACK
370
    25
390
0
  6
CONTINUOUS
 62
     7
100
AcDbLine
 10
229.400006
 20
121.347906
 30
0.0
 11
229.400006
 21
121.526379
 31
0.0
  0
LINE
  5
1584
100
AcDbEntity
  8
15000_BACK
370
    25
390
0
  6
CONTINUOUS
 62
     7
100
AcDbLine
 10
230.700006
 20
117.649994
 30
0.0
 11
230.700006
 21
122.599996
 31
0.0
  0
LINE
  5
1585
100
AcDbEntity
  8
15000_BACK
370
    25
390
0
  6
CONTINUOUS
 62
     7
100
AcDbLine
 10
231.700006
 20
90.199995
 30
0.0
 11
231.700006
 21
93.299995
 31
0.0
  0
LINE
  5
1586
100
AcDbEntity
  8
15000_BACK
370
    25
390
0
  6
CONTINUOUS
 62
     7
100
AcDbLine
 10
231.708733
 20
90.199995
 30
0.0
 11
231.708733
 21
92.199995
 31
0.0
  0
LINE
  5
1587
100
AcDbEntity
  8
15000_BACK
370
    25
390
0
  6
CONTINUOUS
 62
     7
100
AcDbLine
 10
231.72882
 20
90.199995
 30
0.0
 11
231.72882
 21
92.199995
 31
0.0
  0
LINE
  5
1588
100
AcDbEntity
  8
15000_BACK
370
    25
390
0
  6
CONTINUOUS
 62
     7
100
AcDbLine
 10
231.922201
 20
94.800495
 30
0.0
 11
231.922201
 21
94.976808
 31
0.0
  0
LINE
  5
1589
100
AcDbEntity
  8
15000_BACK
370
    25
390
0
  6
CONTINUOUS
 62
     7
100
AcDbLine
 10
231.928812
 20
90.199995
 30
0.0
 11
231.928812
 21
92.199995
 31
0.0
  0
LINE
  5
158A
100
AcDbEntity
  8
15000_BACK
370
    25
390
0
  6
CONTINUOUS
 62
     7
100
AcDbLine
 10
232.121264
 20
94.800495
 30
0.0
 11
232.121264
 21
94.961495
 31
0.0
  0
LINE
  5
158B
100
AcDbEntity
  8
15000_BACK
370
    25
390
0
  6
CONTINUOUS
 62
     7
100
AcDbLine
 10
232.500006
 20
119.399995
 30
0.0
 11
232.500006
 21
120.799995
 31
0.0
  0
LINE
  5
158C
100
AcDbEntity
  8
15000_BACK
370
    25
390
0
  6
CONTINUOUS
 62
     7
100
AcDbLine
 10
232.500006
 20
90.199995
 30
0.0
 11
232.500006
 21
92.199995
 31
0.0
  0
LINE
  5
158D
100
AcDbEntity
  8
15000_BACK
370
    25
390
0
  6
CONTINUOUS
 62
     7
100
AcDbLine
 10
232.700006
 20
119.399995
 30
0.0
 11
232.700006
 21
120.799995
 31
0.0
  0
LINE
  5
158E
100
AcDbEntity
  8
15000_BACK
370
    25
390
0
  6
CONTINUOUS
 62
     7
100
AcDbLine
 10
232.700006
 20
90.199995
 30
0.0
 11
232.700006
 21
92.199995
 31
0.0
  0
LINE
  5
158F
100
AcDbEntity
  8
15000_BACK
370
    25
390
0
  6
CONTINUOUS
 62
     7
100
AcDbLine
 10
232.800006
 20
110.910561
 30
0.0
 11
232.800006
 21
113.118721
 31
0.0
  0
LINE
  5
1590
100
AcDbEntity
  8
15000_BACK
370
    25
390
0
  6
CONTINUOUS
 62
     7
100
AcDbLine
 10
232.800006
 20
98.681269
 30
0.0
 11
232.800006
 21
98.951779
 31
0.0
  0
LINE
  5
1591
100
AcDbEntity
  8
15000_BACK
370
    25
390
0
  6
CONTINUOUS
 62
     7
100
AcDbLine
 10
232.800006
 20
98.951779
 30
0.0
 11
232.800006
 21
99.217813
 31
0.0
  0
LINE
  5
1592
100
AcDbEntity
  8
15000_BACK
370
    25
390
0
  6
CONTINUOUS
 62
     7
100
AcDbLine
 10
232.800006
 20
99.217813
 30
0.0
 11
232.800006
 21
99.479624
 31
0.0
  0
LINE
  5
1593
100
AcDbEntity
  8
15000_BACK
370
    25
390
0
  6
CONTINUOUS
 62
     7
100
AcDbLine
 10
232.800006
 20
99.479624
 30
0.0
 11
232.800006
 21
99.737457
 31
0.0
  0
LINE
  5
1594
100
AcDbEntity
  8
15000_BACK
370
    25
390
0
  6
CONTINUOUS
 62
     7
100
AcDbLine
 10
232.800006
 20
99.737457
 30
0.0
 11
232.800006
 21
99.99155
 31
0.0
  0
LINE
  5
1595
100
AcDbEntity
  8
15000_BACK
370
    25
390
0
  6
CONTINUOUS
 62
     7
100
AcDbLine
 10
232.800006
 20
99.99155
 30
0.0
 11
232.800006
 21
100.242133
 31
0.0
  0
LINE
  5
1596
100
AcDbEntity
  8
15000_BACK
370
    25
390
0
  6
CONTINUOUS
 62
     7
100
AcDbLine
 10
232.800006
 20
100.242133
 30
0.0
 11
232.800006
 21
100.48943
 31
0.0
  0
LINE
  5
1597
100
AcDbEntity
  8
15000_BACK
370
    25
390
0
  6
CONTINUOUS
 62
     7
100
AcDbLine
 10
233.16026
 20
98.797883
 30
0.0
 11
233.16026
 21
100.606367
 31
0.0
  0
LINE
  5
1598
100
AcDbEntity
  8
15000_BACK
370
    25
390
0
  6
CONTINUOUS
 62
     7
100
AcDbLine
 10
233.16026
 20
111.193623
 30
0.0
 11
233.16026
 21
113.002107
 31
0.0
  0
LINE
  5
1599
100
AcDbEntity
  8
15000_BACK
370
    25
390
0
  6
CONTINUOUS
 62
     7
100
AcDbLine
 10
233.430483
 20
94.70337
 30
0.0
 11
233.430483
 21
94.961495
 31
0.0
  0
LINE
  5
159A
100
AcDbEntity
  8
15000_BACK
370
    25
390
0
  6
CONTINUOUS
 62
     7
100
AcDbLine
 10
233.631459
 20
94.682808
 30
0.0
 11
233.631459
 21
94.973745
 31
0.0
  0
LINE
  5
159B
100
AcDbEntity
  8
15000_BACK
370
    25
390
0
  6
CONTINUOUS
 62
     7
100
AcDbLine
 10
233.767358
 20
92.605995
 30
0.0
 11
233.767358
 21
92.801995
 31
0.0
  0
LINE
  5
159C
100
AcDbEntity
  8
15000_BACK
370
    25
390
0
  6
CONTINUOUS
 62
     7
100
AcDbLine
 10
234.138201
 20
92.763495
 30
0.0
 11
234.138201
 21
92.924495
 31
0.0
  0
LINE
  5
159D
100
AcDbEntity
  8
15000_BACK
370
    25
390
0
  6
CONTINUOUS
 62
     7
100
AcDbLine
 10
234.612889
 20
92.763495
 30
0.0
 11
234.612889
 21
92.924495
 31
0.0
  0
LINE
  5
159E
100
AcDbEntity
  8
15000_BACK
370
    25
390
0
  6
CONTINUOUS
 62
     7
100
AcDbLine
 10
236.300006
 20
119.399995
 30
0.0
 11
236.300006
 21
120.799995
 31
0.0
  0
LINE
  5
159F
100
AcDbEntity
  8
15000_BACK
370
    25
390
0
  6
CONTINUOUS
 62
     7
100
AcDbLine
 10
236.300006
 20
90.199995
 30
0.0
 11
236.300006
 21
92.199995
 31
0.0
  0
LINE
  5
15A0
100
AcDbEntity
  8
15000_BACK
370
    25
390
0
  6
CONTINUOUS
 62
     7
100
AcDbLine
 10
236.345555
 20
94.404995
 30
0.0
 11
236.345555
 21
94.542195
 31
0.0
  0
LINE
  5
15A1
100
AcDbEntity
  8
15000_BACK
370
    25
390
0
  6
CONTINUOUS
 62
     7
100
AcDbLine
 10
236.397808
 20
93.086895
 30
0.0
 11
236.397808
 21
93.27432
 31
0.0
  0
LINE
  5
15A2
100
AcDbEntity
  8
15000_BACK
370
    25
390
0
  6
CONTINUOUS
 62
     7
100
AcDbLine
 10
236.500006
 20
119.399995
 30
0.0
 11
236.500006
 21
120.799995
 31
0.0
  0
LINE
  5
15A3
100
AcDbEntity
  8
15000_BACK
370
    25
390
0
  6
CONTINUOUS
 62
     7
100
AcDbLine
 10
236.500006
 20
90.199995
 30
0.0
 11
236.500006
 21
92.199995
 31
0.0
  0
LINE
  5
15A4
100
AcDbEntity
  8
15000_BACK
370
    25
390
0
  6
CONTINUOUS
 62
     7
100
AcDbLine
 10
236.537153
 20
93.080465
 30
0.0
 11
236.537153
 21
93.279527
 31
0.0
  0
LINE
  5
15A5
100
AcDbEntity
  8
15000_BACK
370
    25
390
0
  6
CONTINUOUS
 62
     7
100
AcDbLine
 10
236.796743
 20
92.594445
 30
0.0
 11
236.796743
 21
92.707145
 31
0.0
  0
LINE
  5
15A6
100
AcDbEntity
  8
15000_BACK
370
    25
390
0
  6
CONTINUOUS
 62
     7
100
AcDbLine
 10
237.0712
 20
90.199995
 30
0.0
 11
237.0712
 21
92.199995
 31
0.0
  0
LINE
  5
15A7
100
AcDbEntity
  8
15000_BACK
370
    25
390
0
  6
CONTINUOUS
 62
     7
100
AcDbLine
 10
237.129024
 20
92.594445
 30
0.0
 11
237.129024
 21
92.707145
 31
0.0
  0
LINE
  5
15A8
100
AcDbEntity
  8
15000_BACK
370
    25
390
0
  6
CONTINUOUS
 62
     7
100
AcDbLine
 10
237.271192
 20
90.199995
 30
0.0
 11
237.271192
 21
92.199995
 31
0.0
  0
LINE
  5
15A9
100
AcDbEntity
  8
15000_BACK
370
    25
390
0
  6
CONTINUOUS
 62
     7
100
AcDbLine
 10
237.291279
 20
90.199995
 30
0.0
 11
237.291279
 21
92.199995
 31
0.0
  0
LINE
  5
15AA
100
AcDbEntity
  8
15000_BACK
370
    25
390
0
  6
CONTINUOUS
 62
     7
100
AcDbLine
 10
237.300006
 20
90.199995
 30
0.0
 11
237.300006
 21
93.299995
 31
0.0
  0
LINE
  5
15AB
100
AcDbEntity
  8
15000_BACK
370
    25
390
0
  6
CONTINUOUS
 62
     7
100
AcDbLine
 10
237.900006
 20
94.390535
 30
0.0
 11
237.900006
 21
103.900003
 31
0.0
  0
LINE
  5
15AC
100
AcDbEntity
  8
15000_BACK
370
    25
390
0
  6
CONTINUOUS
 62
     7
100
AcDbLine
 10
237.900006
 20
108.899995
 30
0.0
 11
237.900006
 21
116.809456
 31
0.0
  0
LINE
  5
15AD
100
AcDbEntity
  8
15000_BACK
370
    25
390
0
  6
CONTINUOUS
 62
     7
100
AcDbLine
 10
237.900006
 20
107.899987
 30
0.0
 11
237.900006
 21
108.899995
 31
0.0
  0
LINE
  5
15AE
100
AcDbEntity
  8
15000_BACK
370
    25
390
0
  6
CONTINUOUS
 62
     7
100
AcDbLine
 10
238.150006
 20
109.807483
 30
0.0
 11
238.150006
 21
112.549995
 31
0.0
  0
LINE
  5
15AF
100
AcDbEntity
  8
15000_BACK
370
    25
390
0
  6
CONTINUOUS
 62
     7
100
AcDbLine
 10
238.150006
 20
98.649995
 30
0.0
 11
238.150006
 21
101.992507
 31
0.0
  0
LINE
  5
15B0
100
AcDbEntity
  8
15000_BACK
370
    25
390
0
  6
CONTINUOUS
 62
     7
100
AcDbLine
 10
238.250006
 20
94.521447
 30
0.0
 11
238.250006
 21
94.649995
 31
0.0
  0
LINE
  5
15B1
100
AcDbEntity
  8
15000_BACK
370
    25
390
0
  6
CONTINUOUS
 62
     7
100
AcDbLine
 10
238.250006
 20
98.649995
 30
0.0
 11
238.250006
 21
101.900868
 31
0.0
  0
LINE
  5
15B2
100
AcDbEntity
  8
15000_BACK
370
    25
390
0
  6
CONTINUOUS
 62
     7
100
AcDbLine
 10
238.250006
 20
101.900868
 30
0.0
 11
238.250006
 21
101.992507
 31
0.0
  0
LINE
  5
15B3
100
AcDbEntity
  8
15000_BACK
370
    25
390
0
  6
CONTINUOUS
 62
     7
100
AcDbLine
 10
238.250006
 20
109.807483
 30
0.0
 11
238.250006
 21
109.899122
 31
0.0
  0
LINE
  5
15B4
100
AcDbEntity
  8
15000_BACK
370
    25
390
0
  6
CONTINUOUS
 62
     7
100
AcDbLine
 10
238.250006
 20
109.899122
 30
0.0
 11
238.250006
 21
112.549995
 31
0.0
  0
LINE
  5
15B5
100
AcDbEntity
  8
15000_BACK
370
    25
390
0
  6
CONTINUOUS
 62
     7
100
AcDbLine
 10
238.250006
 20
116.549995
 30
0.0
 11
238.250006
 21
116.600867
 31
0.0
  0
LINE
  5
15B6
100
AcDbEntity
  8
15000_BACK
370
    25
390
0
  6
CONTINUOUS
 62
     7
100
AcDbLine
 10
238.250006
 20
116.600867
 30
0.0
 11
238.250006
 21
116.678543
 31
0.0
  0
LINE
  5
15B7
100
AcDbEntity
  8
15000_BACK
370
    25
390
0
  6
CONTINUOUS
 62
     7
100
AcDbLine
 10
238.300006
 20
117.649994
 30
0.0
 11
238.300006
 21
123.399995
 31
0.0
  0
LINE
  5
15B8
100
AcDbEntity
  8
15000_BACK
370
    25
390
0
  6
CONTINUOUS
 62
     7
100
AcDbLine
 10
239.150006
 20
94.649995
 30
0.0
 11
239.150006
 21
98.649995
 31
0.0
  0
LINE
  5
15B9
100
AcDbEntity
  8
15000_BACK
370
    25
390
0
  6
CONTINUOUS
 62
     7
100
AcDbLine
 10
239.150006
 20
112.549995
 30
0.0
 11
239.150006
 21
113.649995
 31
0.0
  0
LINE
  5
15BA
100
AcDbEntity
  8
15000_BACK
370
    25
390
0
  6
CONTINUOUS
 62
     7
100
AcDbLine
 10
239.150006
 20
113.649995
 30
0.0
 11
239.150006
 21
116.549995
 31
0.0
  0
LINE
  5
15BB
100
AcDbEntity
  8
15000_BACK
370
    25
390
0
  6
CONTINUOUS
 62
     7
100
AcDbLine
 10
239.500006
 20
90.199995
 30
0.0
 11
239.500006
 21
123.399995
 31
0.0
  0
LINE
  5
15BC
100
AcDbEntity
  8
15000_BACK
370
    25
390
0
  6
CONTINUOUS
 62
     7
100
AcDbLine
 10
239.500006
 20
123.399999
 30
0.0
 11
239.500006
 21
130.099996
 31
0.0
  0
CIRCLE
  5
15BD
100
AcDbEntity
  8
15000_BACK
370
    25
390
0
  6
CONTINUOUS
 62
     7
100
AcDbCircle
 10
212.000006
 20
127.899995
 30
0.0
 40
1.35
  0
ARC
  5
15BE
100
AcDbEntity
  8
15000_BACK
370
    25
390
0
  6
CONTINUOUS
 62
     7
100
AcDbCircle
 10
214.554011
 20
125.199995
 30
0.0
 40
0.3
100
AcDbArc
 50
269.999987
 51
348.000113
  0
LINE
  5
15BF
100
AcDbEntity
  8
15000_BACK
370
    25
390
0
  6
CONTINUOUS
 62
     7
100
AcDbLine
 10
219.601624
 20
90.877649
 30
0.0
 11
219.600006
 21
90.8744
 31
0.0
  0
ARC
  5
15C0
100
AcDbEntity
  8
15000_BACK
370
    25
390
0
  6
CONTINUOUS
 62
     7
100
AcDbCircle
 10
219.800006
 20
103.099995
 30
0.0
 40
0.2
100
AcDbArc
 50
179.99985
 51
270.000055
  0
ARC
  5
15C1
100
AcDbEntity
  8
15000_BACK
370
    25
390
0
  6
CONTINUOUS
 62
     7
100
AcDbCircle
 10
219.800006
 20
108.699996
 30
0.0
 40
0.2
100
AcDbArc
 50
89.999945
 51
180.000118
  0
LINE
  5
15C2
100
AcDbEntity
  8
15000_BACK
370
    25
390
0
  6
CONTINUOUS
 62
     7
100
AcDbLine
 10
219.600006
 20
120.92559
 30
0.0
 11
219.601624
 21
120.922341
 31
0.0
  0
ARC
  5
15C3
100
AcDbEntity
  8
15000_BACK
370
    25
390
0
  6
CONTINUOUS
 62
     7
100
AcDbCircle
 10
223.300006
 20
129.899995
 30
0.0
 40
0.2
100
AcDbArc
 50
30.000094
 51
90.000013
  0
ARC
  5
15C4
100
AcDbEntity
  8
15000_BACK
370
    25
390
0
  6
CONTINUOUS
 62
     7
100
AcDbCircle
 10
223.646416
 20
130.099995
 30
0.0
 40
0.2
100
AcDbArc
 50
209.999907
 51
270.000002
  0
ARC
  5
15C5
100
AcDbEntity
  8
15000_BACK
370
    25
390
0
  6
CONTINUOUS
 62
     7
100
AcDbCircle
 10
224.300006
 20
127.49402
 30
0.0
 40
0.4
100
AcDbArc
 50
0.0
 51
93.42268
  0
ARC
  5
15C6
100
AcDbEntity
  8
15000_BACK
370
    25
390
0
  6
CONTINUOUS
 62
     7
100
AcDbCircle
 10
224.500004
 20
105.699995
 30
0.0
 40
9.799998
100
AcDbArc
 50
147.880255
 51
209.495122
  0
LINE
  5
15C7
100
AcDbEntity
  8
15000_BACK
370
    25
390
0
  6
CONTINUOUS
 62
     7
100
AcDbLine
 10
221.870107
 20
97.004356
 30
0.0
 11
221.764362
 21
96.706533
 31
0.0
  0
LINE
  5
15C8
100
AcDbEntity
  8
15000_BACK
370
    25
390
0
  6
CONTINUOUS
 62
     7
100
AcDbLine
 10
227.23565
 20
96.706533
 30
0.0
 11
227.129905
 21
97.004356
 31
0.0
  0
POLYLINE
  5
15C9
100
AcDbEntity
  8
15000_BACK
370
    25
390
0
  6
CONTINUOUS
 62
     7
100
AcDb2dPolyline
 66
     1
 10
0.0
 20
0.0
 30
0.0
  0
VERTEX
  5
15CA
100
AcDbEntity
  8
15000_BACK
370
    25
390
0
  6
CONTINUOUS
 62
     7
100
AcDbVertex
100
AcDb2dVertex
 10
221.940162
 20
97.325287
 30
0.0
  0
VERTEX
  5
15CB
100
AcDbEntity
  8
15000_BACK
370
    25
390
0
  6
CONTINUOUS
 62
     7
100
AcDbVertex
100
AcDb2dVertex
 10
221.75007
 20
96.889999
 30
0.0
  0
VERTEX
  5
15CC
100
AcDbEntity
  8
15000_BACK
370
    25
390
0
  6
CONTINUOUS
 62
     7
100
AcDbVertex
100
AcDb2dVertex
 10
221.635675
 20
96.42975
 30
0.0
  0
SEQEND
  5
15CD
100
AcDbEntity
  8
15000_BACK
370
    25
390
0
  6
CONTINUOUS
 62
     7
  0
POLYLINE
  5
15CE
100
AcDbEntity
  8
15000_BACK
370
    25
390
0
  6
CONTINUOUS
 62
     7
100
AcDb2dPolyline
 66
     1
 10
0.0
 20
0.0
 30
0.0
  0
VERTEX
  5
15CF
100
AcDbEntity
  8
15000_BACK
370
    25
390
0
  6
CONTINUOUS
 62
     7
100
AcDbVertex
100
AcDb2dVertex
 10
227.364337
 20
96.429752
 30
0.0
  0
VERTEX
  5
15D0
100
AcDbEntity
  8
15000_BACK
370
    25
390
0
  6
CONTINUOUS
 62
     7
100
AcDbVertex
100
AcDb2dVertex
 10
227.249942
 20
96.89
 30
0.0
  0
VERTEX
  5
15D1
100
AcDbEntity
  8
15000_BACK
370
    25
390
0
  6
CONTINUOUS
 62
     7
100
AcDbVertex
100
AcDb2dVertex
 10
227.05985
 20
97.325287
 30
0.0
  0
SEQEND
  5
15D2
100
AcDbEntity
  8
15000_BACK
370
    25
390
0
  6
CONTINUOUS
 62
     7
  0
LINE
  5
15D3
100
AcDbEntity
  8
15000_BACK
370
    25
390
0
  6
CONTINUOUS
 62
     7
100
AcDbLine
 10
221.764362
 20
96.706533
 30
0.0
 11
221.725086
 21
96.177834
 31
0.0
  0
LINE
  5
15D4
100
AcDbEntity
  8
15000_BACK
370
    25
390
0
  6
CONTINUOUS
 62
     7
100
AcDbLine
 10
227.274925
 20
96.177822
 30
0.0
 11
227.23565
 21
96.706533
 31
0.0
  0
LINE
  5
15D5
100
AcDbEntity
  8
15000_BACK
370
    25
390
0
  6
CONTINUOUS
 62
     7
100
AcDbLine
 10
222.052483
 20
97.525081
 30
0.0
 11
221.870107
 21
97.004355
 31
0.0
  0
LINE
  5
15D6
100
AcDbEntity
  8
15000_BACK
370
    25
390
0
  6
CONTINUOUS
 62
     7
100
AcDbLine
 10
227.129905
 20
97.004355
 30
0.0
 11
226.947529
 21
97.525081
 31
0.0
  0
POLYLINE
  5
15D7
100
AcDbEntity
  8
15000_BACK
370
    25
390
0
  6
CONTINUOUS
 62
     7
100
AcDb2dPolyline
 66
     1
 10
0.0
 20
0.0
 30
0.0
  0
VERTEX
  5
15D8
100
AcDbEntity
  8
15000_BACK
370
    25
390
0
  6
CONTINUOUS
 62
     7
100
AcDbVertex
100
AcDb2dVertex
 10
227.463815
 20
96.863693
 30
0.0
  0
VERTEX
  5
15D9
100
AcDbEntity
  8
15000_BACK
370
    25
390
0
  6
CONTINUOUS
 62
     7
100
AcDbVertex
100
AcDb2dVertex
 10
227.310148
 20
97.422566
 30
0.0
  0
VERTEX
  5
15DA
100
AcDbEntity
  8
15000_BACK
370
    25
390
0
  6
CONTINUOUS
 62
     7
100
AcDbVertex
100
AcDb2dVertex
 10
227.041995
 20
97.94061
 30
0.0
  0
VERTEX
  5
15DB
100
AcDbEntity
  8
15000_BACK
370
    25
390
0
  6
CONTINUOUS
 62
     7
100
AcDbVertex
100
AcDb2dVertex
 10
226.670281
 20
98.39672
 30
0.0
  0
VERTEX
  5
15DC
100
AcDbEntity
  8
15000_BACK
370
    25
390
0
  6
CONTINUOUS
 62
     7
100
AcDbVertex
100
AcDb2dVertex
 10
226.210148
 20
98.772314
 30
0.0
  0
VERTEX
  5
15DD
100
AcDbEntity
  8
15000_BACK
370
    25
390
0
  6
CONTINUOUS
 62
     7
100
AcDbVertex
100
AcDb2dVertex
 10
225.680344
 20
99.05209
 30
0.0
  0
VERTEX
  5
15DE
100
AcDbEntity
  8
15000_BACK
370
    25
390
0
  6
CONTINUOUS
 62
     7
100
AcDbVertex
100
AcDb2dVertex
 10
225.102452
 20
99.224649
 30
0.0
  0
VERTEX
  5
15DF
100
AcDbEntity
  8
15000_BACK
370
    25
390
0
  6
CONTINUOUS
 62
     7
100
AcDbVertex
100
AcDb2dVertex
 10
224.500016
 20
99.282962
 30
0.0
  0
VERTEX
  5
15E0
100
AcDbEntity
  8
15000_BACK
370
    25
390
0
  6
CONTINUOUS
 62
     7
100
AcDbVertex
100
AcDb2dVertex
 10
223.89758
 20
99.224653
 30
0.0
  0
VERTEX
  5
15E1
100
AcDbEntity
  8
15000_BACK
370
    25
390
0
  6
CONTINUOUS
 62
     7
100
AcDbVertex
100
AcDb2dVertex
 10
223.319687
 20
99.052097
 30
0.0
  0
VERTEX
  5
15E2
100
AcDbEntity
  8
15000_BACK
370
    25
390
0
  6
CONTINUOUS
 62
     7
100
AcDbVertex
100
AcDb2dVertex
 10
222.78988
 20
98.772325
 30
0.0
  0
VERTEX
  5
15E3
100
AcDbEntity
  8
15000_BACK
370
    25
390
0
  6
CONTINUOUS
 62
     7
100
AcDbVertex
100
AcDb2dVertex
 10
222.329745
 20
98.396734
 30
0.0
  0
VERTEX
  5
15E4
100
AcDbEntity
  8
15000_BACK
370
    25
390
0
  6
CONTINUOUS
 62
     7
100
AcDbVertex
100
AcDb2dVertex
 10
221.958027
 20
97.940626
 30
0.0
  0
VERTEX
  5
15E5
100
AcDbEntity
  8
15000_BACK
370
    25
390
0
  6
CONTINUOUS
 62
     7
100
AcDbVertex
100
AcDb2dVertex
 10
221.689871
 20
97.422584
 30
0.0
  0
VERTEX
  5
15E6
100
AcDbEntity
  8
15000_BACK
370
    25
390
0
  6
CONTINUOUS
 62
     7
100
AcDbVertex
100
AcDb2dVertex
 10
221.5362
 20
96.863712
 30
0.0
  0
SEQEND
  5
15E7
100
AcDbEntity
  8
15000_BACK
370
    25
390
0
  6
CONTINUOUS
 62
     7
  0
LINE
  5
15E8
100
AcDbEntity
  8
15000_BACK
370
    25
390
0
  6
CONTINUOUS
 62
     7
100
AcDbLine
 10
226.698957
 20
95.26338
 30
0.0
 11
226.86855
 21
95.64684
 31
0.0
  0
LINE
  5
15E9
100
AcDbEntity
  8
15000_BACK
370
    25
390
0
  6
CONTINUOUS
 62
     7
100
AcDbLine
 10
226.350134
 20
94.778854
 30
0.0
 11
226.662907
 21
95.199996
 31
0.0
  0
LINE
  5
15EA
100
AcDbEntity
  8
15000_BACK
370
    25
390
0
  6
CONTINUOUS
 62
     7
100
AcDbLine
 10
222.131462
 20
95.64684
 30
0.0
 11
222.301063
 21
95.263365
 31
0.0
  0
POLYLINE
  5
15EB
100
AcDbEntity
  8
15000_BACK
370
    25
390
0
  6
CONTINUOUS
 62
     7
100
AcDb2dPolyline
 66
     1
 10
0.0
 20
0.0
 30
0.0
  0
VERTEX
  5
15EC
100
AcDbEntity
  8
15000_BACK
370
    25
390
0
  6
CONTINUOUS
 62
     7
100
AcDbVertex
100
AcDb2dVertex
 10
226.916698
 20
97.064963
 30
0.0
  0
VERTEX
  5
15ED
100
AcDbEntity
  8
15000_BACK
370
    25
390
0
  6
CONTINUOUS
 62
     7
100
AcDbVertex
100
AcDb2dVertex
 10
226.739343
 20
97.529272
 30
0.0
  0
VERTEX
  5
15EE
100
AcDbEntity
  8
15000_BACK
370
    25
390
0
  6
CONTINUOUS
 62
     7
100
AcDbVertex
100
AcDb2dVertex
 10
226.471075
 20
97.949142
 30
0.0
  0
VERTEX
  5
15EF
100
AcDbEntity
  8
15000_BACK
370
    25
390
0
  6
CONTINUOUS
 62
     7
100
AcDbVertex
100
AcDb2dVertex
 10
226.122784
 20
98.307528
 30
0.0
  0
VERTEX
  5
15F0
100
AcDbEntity
  8
15000_BACK
370
    25
390
0
  6
CONTINUOUS
 62
     7
100
AcDbVertex
100
AcDb2dVertex
 10
225.708611
 20
98.589879
 30
0.0
  0
VERTEX
  5
15F1
100
AcDbEntity
  8
15000_BACK
370
    25
390
0
  6
CONTINUOUS
 62
     7
100
AcDbVertex
100
AcDb2dVertex
 10
225.24537
 20
98.784733
 30
0.0
  0
VERTEX
  5
15F2
100
AcDbEntity
  8
15000_BACK
370
    25
390
0
  6
CONTINUOUS
 62
     7
100
AcDbVertex
100
AcDb2dVertex
 10
224.751869
 20
98.884179
 30
0.0
  0
VERTEX
  5
15F3
100
AcDbEntity
  8
15000_BACK
370
    25
390
0
  6
CONTINUOUS
 62
     7
100
AcDbVertex
100
AcDb2dVertex
 10
224.248143
 20
98.884179
 30
0.0
  0
VERTEX
  5
15F4
100
AcDbEntity
  8
15000_BACK
370
    25
390
0
  6
CONTINUOUS
 62
     7
100
AcDbVertex
100
AcDb2dVertex
 10
223.754642
 20
98.784733
 30
0.0
  0
VERTEX
  5
15F5
100
AcDbEntity
  8
15000_BACK
370
    25
390
0
  6
CONTINUOUS
 62
     7
100
AcDbVertex
100
AcDb2dVertex
 10
223.291401
 20
98.589879
 30
0.0
  0
VERTEX
  5
15F6
100
AcDbEntity
  8
15000_BACK
370
    25
390
0
  6
CONTINUOUS
 62
     7
100
AcDbVertex
100
AcDb2dVertex
 10
222.877228
 20
98.307528
 30
0.0
  0
VERTEX
  5
15F7
100
AcDbEntity
  8
15000_BACK
370
    25
390
0
  6
CONTINUOUS
 62
     7
100
AcDbVertex
100
AcDb2dVertex
 10
222.528937
 20
97.949142
 30
0.0
  0
VERTEX
  5
15F8
100
AcDbEntity
  8
15000_BACK
370
    25
390
0
  6
CONTINUOUS
 62
     7
100
AcDbVertex
100
AcDb2dVertex
 10
222.260669
 20
97.529272
 30
0.0
  0
VERTEX
  5
15F9
100
AcDbEntity
  8
15000_BACK
370
    25
390
0
  6
CONTINUOUS
 62
     7
100
AcDbVertex
100
AcDb2dVertex
 10
222.083314
 20
97.064963
 30
0.0
  0
SEQEND
  5
15FA
100
AcDbEntity
  8
15000_BACK
370
    25
390
0
  6
CONTINUOUS
 62
     7
  0
POLYLINE
  5
15FB
100
AcDbEntity
  8
15000_BACK
370
    25
390
0
  6
CONTINUOUS
 62
     7
100
AcDb2dPolyline
 66
     1
 10
0.0
 20
0.0
 30
0.0
  0
VERTEX
  5
15FC
100
AcDbEntity
  8
15000_BACK
370
    25
390
0
  6
CONTINUOUS
 62
     7
100
AcDbVertex
100
AcDb2dVertex
 10
224.500006
 20
94.13053
 30
0.0
  0
VERTEX
  5
15FD
100
AcDbEntity
  8
15000_BACK
370
    25
390
0
  6
CONTINUOUS
 62
     7
100
AcDbVertex
100
AcDb2dVertex
 10
225.143435
 20
94.201419
 30
0.0
  0
VERTEX
  5
15FE
100
AcDbEntity
  8
15000_BACK
370
    25
390
0
  6
CONTINUOUS
 62
     7
100
AcDbVertex
100
AcDb2dVertex
 10
225.756917
 20
94.410788
 30
0.0
  0
VERTEX
  5
15FF
100
AcDbEntity
  8
15000_BACK
370
    25
390
0
  6
CONTINUOUS
 62
     7
100
AcDbVertex
100
AcDb2dVertex
 10
226.311901
 20
94.748892
 30
0.0
  0
VERTEX
  5
1600
100
AcDbEntity
  8
15000_BACK
370
    25
390
0
  6
CONTINUOUS
 62
     7
100
AcDbVertex
100
AcDb2dVertex
 10
226.782556
 20
95.199995
 30
0.0
  0
SEQEND
  5
1601
100
AcDbEntity
  8
15000_BACK
370
    25
390
0
  6
CONTINUOUS
 62
     7
  0
POLYLINE
  5
1602
100
AcDbEntity
  8
15000_BACK
370
    25
390
0
  6
CONTINUOUS
 62
     7
100
AcDb2dPolyline
 66
     1
 10
0.0
 20
0.0
 30
0.0
  0
VERTEX
  5
1603
100
AcDbEntity
  8
15000_BACK
370
    25
390
0
  6
CONTINUOUS
 62
     7
100
AcDbVertex
100
AcDb2dVertex
 10
226.639425
 20
95.199995
 30
0.0
  0
VERTEX
  5
1604
100
AcDbEntity
  8
15000_BACK
370
    25
390
0
  6
CONTINUOUS
 62
     7
100
AcDbVertex
100
AcDb2dVertex
 10
227.008101
 20
95.664067
 30
0.0
  0
VERTEX
  5
1605
100
AcDbEntity
  8
15000_BACK
370
    25
390
0
  6
CONTINUOUS
 62
     7
100
AcDbVertex
100
AcDb2dVertex
 10
227.280691
 20
96.192172
 30
0.0
  0
VERTEX
  5
1606
100
AcDbEntity
  8
15000_BACK
370
    25
390
0
  6
CONTINUOUS
 62
     7
100
AcDbVertex
100
AcDb2dVertex
 10
227.446753
 20
96.764079
 30
0.0
  0
VERTEX
  5
1607
100
AcDbEntity
  8
15000_BACK
370
    25
390
0
  6
CONTINUOUS
 62
     7
100
AcDbVertex
100
AcDb2dVertex
 10
227.499925
 20
97.357877
 30
0.0
  0
VERTEX
  5
1608
100
AcDbEntity
  8
15000_BACK
370
    25
390
0
  6
CONTINUOUS
 62
     7
100
AcDbVertex
100
AcDb2dVertex
 10
227.43817
 20
97.950818
 30
0.0
  0
VERTEX
  5
1609
100
AcDbEntity
  8
15000_BACK
370
    25
390
0
  6
CONTINUOUS
 62
     7
100
AcDbVertex
100
AcDb2dVertex
 10
227.263853
 20
98.520186
 30
0.0
  0
VERTEX
  5
160A
100
AcDbEntity
  8
15000_BACK
370
    25
390
0
  6
CONTINUOUS
 62
     7
100
AcDbVertex
100
AcDb2dVertex
 10
226.983652
 20
99.044169
 30
0.0
  0
VERTEX
  5
160B
100
AcDbEntity
  8
15000_BACK
370
    25
390
0
  6
CONTINUOUS
 62
     7
100
AcDbVertex
100
AcDb2dVertex
 10
226.608303
 20
99.502692
 30
0.0
  0
VERTEX
  5
160C
100
AcDbEntity
  8
15000_BACK
370
    25
390
0
  6
CONTINUOUS
 62
     7
100
AcDbVertex
100
AcDb2dVertex
 10
226.152185
 20
99.878191
 30
0.0
  0
VERTEX
  5
160D
100
AcDbEntity
  8
15000_BACK
370
    25
390
0
  6
CONTINUOUS
 62
     7
100
AcDbVertex
100
AcDb2dVertex
 10
225.632772
 20
100.156278
 30
0.0
  0
VERTEX
  5
160E
100
AcDbEntity
  8
15000_BACK
370
    25
390
0
  6
CONTINUOUS
 62
     7
100
AcDbVertex
100
AcDb2dVertex
 10
225.069962
 20
100.326302
 30
0.0
  0
VERTEX
  5
160F
100
AcDbEntity
  8
15000_BACK
370
    25
390
0
  6
CONTINUOUS
 62
     7
100
AcDbVertex
100
AcDb2dVertex
 10
224.485317
 20
100.381747
 30
0.0
  0
VERTEX
  5
1610
100
AcDbEntity
  8
15000_BACK
370
    25
390
0
  6
CONTINUOUS
 62
     7
100
AcDbVertex
100
AcDb2dVertex
 10
223.901235
 20
100.320491
 30
0.0
  0
VERTEX
  5
1611
100
AcDbEntity
  8
15000_BACK
370
    25
390
0
  6
CONTINUOUS
 62
     7
100
AcDbVertex
100
AcDb2dVertex
 10
223.340092
 20
100.14488
 30
0.0
  0
VERTEX
  5
1612
100
AcDbEntity
  8
15000_BACK
370
    25
390
0
  6
CONTINUOUS
 62
     7
100
AcDbVertex
100
AcDb2dVertex
 10
222.823385
 20
99.86164
 30
0.0
  0
VERTEX
  5
1613
100
AcDbEntity
  8
15000_BACK
370
    25
390
0
  6
CONTINUOUS
 62
     7
100
AcDbVertex
100
AcDb2dVertex
 10
222.37091
 20
99.481625
 30
0.0
  0
VERTEX
  5
1614
100
AcDbEntity
  8
15000_BACK
370
    25
390
0
  6
CONTINUOUS
 62
     7
100
AcDbVertex
100
AcDb2dVertex
 10
222.000001
 20
99.019391
 30
0.0
  0
VERTEX
  5
1615
100
AcDbEntity
  8
15000_BACK
370
    25
390
0
  6
CONTINUOUS
 62
     7
100
AcDbVertex
100
AcDb2dVertex
 10
221.724867
 20
98.492647
 30
0.0
  0
VERTEX
  5
1616
100
AcDbEntity
  8
15000_BACK
370
    25
390
0
  6
CONTINUOUS
 62
     7
100
AcDbVertex
100
AcDb2dVertex
 10
221.556049
 20
97.921573
 30
0.0
  0
VERTEX
  5
1617
100
AcDbEntity
  8
15000_BACK
370
    25
390
0
  6
CONTINUOUS
 62
     7
100
AcDbVertex
100
AcDb2dVertex
 10
221.500015
 20
97.328046
 30
0.0
  0
VERTEX
  5
1618
100
AcDbEntity
  8
15000_BACK
370
    25
390
0
  6
CONTINUOUS
 62
     7
100
AcDbVertex
100
AcDb2dVertex
 10
221.558911
 20
96.734805
 30
0.0
  0
VERTEX
  5
1619
100
AcDbEntity
  8
15000_BACK
370
    25
390
0
  6
CONTINUOUS
 62
     7
100
AcDbVertex
100
AcDb2dVertex
 10
221.73048
 20
96.164578
 30
0.0
  0
VERTEX
  5
161A
100
AcDbEntity
  8
15000_BACK
370
    25
390
0
  6
CONTINUOUS
 62
     7
100
AcDbVertex
100
AcDb2dVertex
 10
222.00815
 20
95.639208
 30
0.0
  0
VERTEX
  5
161B
100
AcDbEntity
  8
15000_BACK
370
    25
390
0
  6
CONTINUOUS
 62
     7
100
AcDbVertex
100
AcDb2dVertex
 10
222.381284
 20
95.178824
 30
0.0
  0
VERTEX
  5
161C
100
AcDbEntity
  8
15000_BACK
370
    25
390
0
  6
CONTINUOUS
 62
     7
100
AcDbVertex
100
AcDb2dVertex
 10
222.835586
 20
94.801062
 30
0.0
  0
VERTEX
  5
161D
100
AcDbEntity
  8
15000_BACK
370
    25
390
0
  6
CONTINUOUS
 62
     7
100
AcDbVertex
100
AcDb2dVertex
 10
223.353652
 20
94.520395
 30
0.0
  0
VERTEX
  5
161E
100
AcDbEntity
  8
15000_BACK
370
    25
390
0
  6
CONTINUOUS
 62
     7
100
AcDbVertex
100
AcDb2dVertex
 10
223.915635
 20
94.347576
 30
0.0
  0
VERTEX
  5
161F
100
AcDbEntity
  8
15000_BACK
370
    25
390
0
  6
CONTINUOUS
 62
     7
100
AcDbVertex
100
AcDb2dVertex
 10
224.500006
 20
94.289224
 30
0.0
  0
SEQEND
  5
1620
100
AcDbEntity
  8
15000_BACK
370
    25
390
0
  6
CONTINUOUS
 62
     7
  0
ARC
  5
1621
100
AcDbEntity
  8
15000_BACK
370
    25
390
0
  6
CONTINUOUS
 62
     7
100
AcDbCircle
 10
224.500006
 20
105.899995
 30
0.0
 40
8.7
100
AcDbArc
 50
124.278684
 51
235.721336
  0
ARC
  5
1622
100
AcDbEntity
  8
15000_BACK
370
    25
390
0
  6
CONTINUOUS
 62
     7
100
AcDbCircle
 10
224.500006
 20
105.899995
 30
0.0
 40
8.7
100
AcDbArc
 50
0.0
 51
55.721336
  0
ARC
  5
1623
100
AcDbEntity
  8
15000_BACK
370
    25
390
0
  6
CONTINUOUS
 62
     7
100
AcDbCircle
 10
224.500006
 20
105.899995
 30
0.0
 40
8.7
100
AcDbArc
 50
304.278646
 51
0.0
  0
ARC
  5
1624
100
AcDbEntity
  8
15000_BACK
370
    25
390
0
  6
CONTINUOUS
 62
     7
100
AcDbCircle
 10
224.500006
 20
105.899995
 30
0.0
 40
9.75
100
AcDbArc
 50
148.351347
 51
166.091497
  0
ARC
  5
1625
100
AcDbEntity
  8
15000_BACK
370
    25
390
0
  6
CONTINUOUS
 62
     7
100
AcDbCircle
 10
224.500006
 20
105.899995
 30
0.0
 40
9.75
100
AcDbArc
 50
13.910506
 51
14.250721
  0
ARC
  5
1626
100
AcDbEntity
  8
15000_BACK
370
    25
390
0
  6
CONTINUOUS
 62
     7
100
AcDbCircle
 10
224.500006
 20
105.899995
 30
0.0
 40
9.9
100
AcDbArc
 50
210.502644
 51
240.333607
  0
ARC
  5
1627
100
AcDbEntity
  8
15000_BACK
370
    25
390
0
  6
CONTINUOUS
 62
     7
100
AcDbCircle
 10
224.500006
 20
105.899995
 30
0.0
 40
9.9
100
AcDbArc
 50
299.666398
 51
329.497356
  0
ARC
  5
1628
100
AcDbEntity
  8
15000_BACK
370
    25
390
0
  6
CONTINUOUS
 62
     7
100
AcDbCircle
 10
224.500006
 20
105.899995
 30
0.0
 40
9.9
100
AcDbArc
 50
33.030151
 51
60.33355
  0
ARC
  5
1629
100
AcDbEntity
  8
15000_BACK
370
    25
390
0
  6
CONTINUOUS
 62
     7
100
AcDbCircle
 10
224.500006
 20
105.899995
 30
0.0
 40
9.9
100
AcDbArc
 50
119.666385
 51
146.969849
  0
ARC
  5
162A
100
AcDbEntity
  8
15000_BACK
370
    25
390
0
  6
CONTINUOUS
 62
     7
100
AcDbCircle
 10
224.500006
 20
105.899995
 30
0.0
 40
10.15
100
AcDbArc
 50
148.564411
 51
211.435589
  0
ARC
  5
162B
100
AcDbEntity
  8
15000_BACK
370
    25
390
0
  6
CONTINUOUS
 62
     7
100
AcDbCircle
 10
224.500006
 20
105.899995
 30
0.0
 40
10.15
100
AcDbArc
 50
328.564411
 51
342.808484
  0
ARC
  5
162C
100
AcDbEntity
  8
15000_BACK
370
    25
390
0
  6
CONTINUOUS
 62
     7
100
AcDbCircle
 10
224.500006
 20
105.899995
 30
0.0
 40
10.15
100
AcDbArc
 50
17.191509
 51
31.435589
  0
ARC
  5
162D
100
AcDbEntity
  8
15000_BACK
370
    25
390
0
  6
CONTINUOUS
 62
     7
100
AcDbCircle
 10
224.500006
 20
105.899995
 30
0.0
 40
10.15
100
AcDbArc
 50
342.808484
 51
348.635874
  0
ARC
  5
162E
100
AcDbEntity
  8
15000_BACK
370
    25
390
0
  6
CONTINUOUS
 62
     7
100
AcDbCircle
 10
224.500006
 20
105.899995
 30
0.0
 40
10.15
100
AcDbArc
 50
348.635874
 51
11.364126
  0
ARC
  5
162F
100
AcDbEntity
  8
15000_BACK
370
    25
390
0
  6
CONTINUOUS
 62
     7
100
AcDbCircle
 10
224.500006
 20
105.899995
 30
0.0
 40
10.15
100
AcDbArc
 50
11.364126
 51
17.191509
  0
ARC
  5
1630
100
AcDbEntity
  8
15000_BACK
370
    25
390
0
  6
CONTINUOUS
 62
     7
100
AcDbCircle
 10
224.500006
 20
105.899995
 30
0.0
 40
11.0
100
AcDbArc
 50
38.066353
 51
63.547554
  0
ARC
  5
1631
100
AcDbEntity
  8
15000_BACK
370
    25
390
0
  6
CONTINUOUS
 62
     7
100
AcDbCircle
 10
224.500006
 20
105.899995
 30
0.0
 40
11.0
100
AcDbArc
 50
297.103518
 51
318.985669
  0
ARC
  5
1632
100
AcDbEntity
  8
15000_BACK
370
    25
390
0
  6
CONTINUOUS
 62
     7
100
AcDbCircle
 10
224.500006
 20
105.899995
 30
0.0
 40
11.0
100
AcDbArc
 50
296.452461
 51
297.103518
  0
ARC
  5
1633
100
AcDbEntity
  8
15000_BACK
370
    25
390
0
  6
CONTINUOUS
 62
     7
100
AcDbCircle
 10
224.500006
 20
105.899995
 30
0.0
 40
11.0
100
AcDbArc
 50
116.452388
 51
118.645159
  0
ARC
  5
1634
100
AcDbEntity
  8
15000_BACK
370
    25
390
0
  6
CONTINUOUS
 62
     7
100
AcDbCircle
 10
224.500006
 20
105.899995
 30
0.0
 40
11.0
100
AcDbArc
 50
221.014331
 51
243.547599
  0
ARC
  5
1635
100
AcDbEntity
  8
15000_BACK
370
    25
390
0
  6
CONTINUOUS
 62
     7
100
AcDbCircle
 10
224.500006
 20
105.899995
 30
0.0
 40
11.0
100
AcDbArc
 50
218.066552
 51
221.014331
  0
ARC
  5
1636
100
AcDbEntity
  8
15000_BACK
370
    25
390
0
  6
CONTINUOUS
 62
     7
100
AcDbCircle
 10
224.500006
 20
105.899995
 30
0.0
 40
11.0
100
AcDbArc
 50
118.645159
 51
138.985669
  0
ARC
  5
1637
100
AcDbEntity
  8
15000_BACK
370
    25
390
0
  6
CONTINUOUS
 62
     7
100
AcDbCircle
 10
224.500006
 20
105.899995
 30
0.0
 40
11.2
100
AcDbArc
 50
219.354536
 51
244.055537
  0
ARC
  5
1638
100
AcDbEntity
  8
15000_BACK
370
    25
390
0
  6
CONTINUOUS
 62
     7
100
AcDbCircle
 10
224.500006
 20
105.899995
 30
0.0
 40
11.2
100
AcDbArc
 50
295.944461
 51
320.645464
  0
ARC
  5
1639
100
AcDbEntity
  8
15000_BACK
370
    25
390
0
  6
CONTINUOUS
 62
     7
100
AcDbCircle
 10
224.500006
 20
105.899995
 30
0.0
 40
11.2
100
AcDbArc
 50
115.944495
 51
140.645464
  0
ARC
  5
163A
100
AcDbEntity
  8
15000_BACK
370
    25
390
0
  6
CONTINUOUS
 62
     7
100
AcDbCircle
 10
224.500006
 20
105.899995
 30
0.0
 40
11.2
100
AcDbArc
 50
39.354536
 51
64.055504
  0
ARC
  5
163B
100
AcDbEntity
  8
15000_BACK
370
    25
390
0
  6
CONTINUOUS
 62
     7
100
AcDbCircle
 10
224.500006
 20
105.899995
 30
0.0
 40
14.3
100
AcDbArc
 50
342.658558
 51
344.057631
  0
ARC
  5
163C
100
AcDbEntity
  8
15000_BACK
370
    25
390
0
  6
CONTINUOUS
 62
     7
100
AcDbCircle
 10
224.500006
 20
105.899995
 30
0.0
 40
14.3
100
AcDbArc
 50
15.942369
 51
17.341442
  0
ARC
  5
163D
100
AcDbEntity
  8
15000_BACK
370
    25
390
0
  6
CONTINUOUS
 62
     7
100
AcDbCircle
 10
224.500006
 20
105.899995
 30
0.0
 40
14.3
100
AcDbArc
 50
162.658558
 51
164.057631
  0
ARC
  5
163E
100
AcDbEntity
  8
15000_BACK
370
    25
390
0
  6
CONTINUOUS
 62
     7
100
AcDbCircle
 10
224.500006
 20
105.899995
 30
0.0
 40
14.3
100
AcDbArc
 50
195.942369
 51
197.341442
  0
ARC
  5
163F
100
AcDbEntity
  8
15000_BACK
370
    25
390
0
  6
CONTINUOUS
 62
     7
100
AcDbCircle
 10
224.500006
 20
105.899995
 30
0.0
 40
14.9
100
AcDbArc
 50
336.363524
 51
337.341764
  0
ARC
  5
1640
100
AcDbEntity
  8
15000_BACK
370
    25
390
0
  6
CONTINUOUS
 62
     7
100
AcDbCircle
 10
224.500006
 20
105.899995
 30
0.0
 40
14.9
100
AcDbArc
 50
202.65834
 51
203.636602
  0
POLYLINE
  5
1641
100
AcDbEntity
  8
15000_BACK
370
    25
390
0
  6
CONTINUOUS
 62
     7
100
AcDb2dPolyline
 66
     1
 10
0.0
 20
0.0
 30
0.0
 70
     1
  0
VERTEX
  5
1642
100
AcDbEntity
  8
15000_BACK
370
    25
390
0
  6
CONTINUOUS
 62
     7
100
AcDbVertex
100
AcDb2dVertex
 10
224.500006
 20
117.510766
 30
0.0
  0
VERTEX
  5
1643
100
AcDbEntity
  8
15000_BACK
370
    25
390
0
  6
CONTINUOUS
 62
     7
100
AcDbVertex
100
AcDb2dVertex
 10
223.914735
 20
117.452233
 30
0.0
  0
VERTEX
  5
1644
100
AcDbEntity
  8
15000_BACK
370
    25
390
0
  6
CONTINUOUS
 62
     7
100
AcDbVertex
100
AcDb2dVertex
 10
223.351956
 20
117.278882
 30
0.0
  0
VERTEX
  5
1645
100
AcDbEntity
  8
15000_BACK
370
    25
390
0
  6
CONTINUOUS
 62
     7
100
AcDbVertex
100
AcDb2dVertex
 10
222.833295
 20
116.997375
 30
0.0
  0
VERTEX
  5
1646
100
AcDbEntity
  8
15000_BACK
370
    25
390
0
  6
CONTINUOUS
 62
     7
100
AcDbVertex
100
AcDb2dVertex
 10
222.378686
 20
116.618531
 30
0.0
  0
VERTEX
  5
1647
100
AcDbEntity
  8
15000_BACK
370
    25
390
0
  6
CONTINUOUS
 62
     7
100
AcDbVertex
100
AcDb2dVertex
 10
222.005597
 20
116.156908
 30
0.0
  0
VERTEX
  5
1648
100
AcDbEntity
  8
15000_BACK
370
    25
390
0
  6
CONTINUOUS
 62
     7
100
AcDbVertex
100
AcDb2dVertex
 10
221.728367
 20
115.630247
 30
0.0
  0
VERTEX
  5
1649
100
AcDbEntity
  8
15000_BACK
370
    25
390
0
  6
CONTINUOUS
 62
     7
100
AcDbVertex
100
AcDb2dVertex
 10
221.55765
 20
115.058786
 30
0.0
  0
VERTEX
  5
164A
100
AcDbEntity
  8
15000_BACK
370
    25
390
0
  6
CONTINUOUS
 62
     7
100
AcDbVertex
100
AcDb2dVertex
 10
221.500006
 20
114.464486
 30
0.0
  0
VERTEX
  5
164B
100
AcDbEntity
  8
15000_BACK
370
    25
390
0
  6
CONTINUOUS
 62
     7
100
AcDbVertex
100
AcDb2dVertex
 10
221.55765
 20
113.870186
 30
0.0
  0
VERTEX
  5
164C
100
AcDbEntity
  8
15000_BACK
370
    25
390
0
  6
CONTINUOUS
 62
     7
100
AcDbVertex
100
AcDb2dVertex
 10
221.728367
 20
113.298725
 30
0.0
  0
VERTEX
  5
164D
100
AcDbEntity
  8
15000_BACK
370
    25
390
0
  6
CONTINUOUS
 62
     7
100
AcDbVertex
100
AcDb2dVertex
 10
222.005597
 20
112.772064
 30
0.0
  0
VERTEX
  5
164E
100
AcDbEntity
  8
15000_BACK
370
    25
390
0
  6
CONTINUOUS
 62
     7
100
AcDbVertex
100
AcDb2dVertex
 10
222.378686
 20
112.310441
 30
0.0
  0
VERTEX
  5
164F
100
AcDbEntity
  8
15000_BACK
370
    25
390
0
  6
CONTINUOUS
 62
     7
100
AcDbVertex
100
AcDb2dVertex
 10
222.833295
 20
111.931597
 30
0.0
  0
VERTEX
  5
1650
100
AcDbEntity
  8
15000_BACK
370
    25
390
0
  6
CONTINUOUS
 62
     7
100
AcDbVertex
100
AcDb2dVertex
 10
223.351956
 20
111.65009
 30
0.0
  0
VERTEX
  5
1651
100
AcDbEntity
  8
15000_BACK
370
    25
390
0
  6
CONTINUOUS
 62
     7
100
AcDbVertex
100
AcDb2dVertex
 10
223.914735
 20
111.476739
 30
0.0
  0
VERTEX
  5
1652
100
AcDbEntity
  8
15000_BACK
370
    25
390
0
  6
CONTINUOUS
 62
     7
100
AcDbVertex
100
AcDb2dVertex
 10
224.500006
 20
111.418206
 30
0.0
  0
VERTEX
  5
1653
100
AcDbEntity
  8
15000_BACK
370
    25
390
0
  6
CONTINUOUS
 62
     7
100
AcDbVertex
100
AcDb2dVertex
 10
225.085277
 20
111.476739
 30
0.0
  0
VERTEX
  5
1654
100
AcDbEntity
  8
15000_BACK
370
    25
390
0
  6
CONTINUOUS
 62
     7
100
AcDbVertex
100
AcDb2dVertex
 10
225.648056
 20
111.65009
 30
0.0
  0
VERTEX
  5
1655
100
AcDbEntity
  8
15000_BACK
370
    25
390
0
  6
CONTINUOUS
 62
     7
100
AcDbVertex
100
AcDb2dVertex
 10
226.166717
 20
111.931597
 30
0.0
  0
VERTEX
  5
1656
100
AcDbEntity
  8
15000_BACK
370
    25
390
0
  6
CONTINUOUS
 62
     7
100
AcDbVertex
100
AcDb2dVertex
 10
226.621326
 20
112.310441
 30
0.0
  0
VERTEX
  5
1657
100
AcDbEntity
  8
15000_BACK
370
    25
390
0
  6
CONTINUOUS
 62
     7
100
AcDbVertex
100
AcDb2dVertex
 10
226.994415
 20
112.772064
 30
0.0
  0
VERTEX
  5
1658
100
AcDbEntity
  8
15000_BACK
370
    25
390
0
  6
CONTINUOUS
 62
     7
100
AcDbVertex
100
AcDb2dVertex
 10
227.271645
 20
113.298725
 30
0.0
  0
VERTEX
  5
1659
100
AcDbEntity
  8
15000_BACK
370
    25
390
0
  6
CONTINUOUS
 62
     7
100
AcDbVertex
100
AcDb2dVertex
 10
227.442362
 20
113.870186
 30
0.0
  0
VERTEX
  5
165A
100
AcDbEntity
  8
15000_BACK
370
    25
390
0
  6
CONTINUOUS
 62
     7
100
AcDbVertex
100
AcDb2dVertex
 10
227.500006
 20
114.464486
 30
0.0
  0
VERTEX
  5
165B
100
AcDbEntity
  8
15000_BACK
370
    25
390
0
  6
CONTINUOUS
 62
     7
100
AcDbVertex
100
AcDb2dVertex
 10
227.442362
 20
115.058786
 30
0.0
  0
VERTEX
  5
165C
100
AcDbEntity
  8
15000_BACK
370
    25
390
0
  6
CONTINUOUS
 62
     7
100
AcDbVertex
100
AcDb2dVertex
 10
227.271645
 20
115.630247
 30
0.0
  0
VERTEX
  5
165D
100
AcDbEntity
  8
15000_BACK
370
    25
390
0
  6
CONTINUOUS
 62
     7
100
AcDbVertex
100
AcDb2dVertex
 10
226.994415
 20
116.156908
 30
0.0
  0
VERTEX
  5
165E
100
AcDbEntity
  8
15000_BACK
370
    25
390
0
  6
CONTINUOUS
 62
     7
100
AcDbVertex
100
AcDb2dVertex
 10
226.621326
 20
116.618531
 30
0.0
  0
VERTEX
  5
165F
100
AcDbEntity
  8
15000_BACK
370
    25
390
0
  6
CONTINUOUS
 62
     7
100
AcDbVertex
100
AcDb2dVertex
 10
226.166717
 20
116.997375
 30
0.0
  0
VERTEX
  5
1660
100
AcDbEntity
  8
15000_BACK
370
    25
390
0
  6
CONTINUOUS
 62
     7
100
AcDbVertex
100
AcDb2dVertex
 10
225.648056
 20
117.278882
 30
0.0
  0
VERTEX
  5
1661
100
AcDbEntity
  8
15000_BACK
370
    25
390
0
  6
CONTINUOUS
 62
     7
100
AcDbVertex
100
AcDb2dVertex
 10
225.085277
 20
117.452233
 30
0.0
  0
SEQEND
  5
1662
100
AcDbEntity
  8
15000_BACK
370
    25
390
0
  6
CONTINUOUS
 62
     7
  0
LINE
  5
1663
100
AcDbEntity
  8
15000_BACK
370
    25
390
0
  6
CONTINUOUS
 62
     7
100
AcDbLine
 10
222.301068
 20
116.536633
 30
0.0
 11
222.131462
 21
116.15315
 31
0.0
  0
LINE
  5
1664
100
AcDbEntity
  8
15000_BACK
370
    25
390
0
  6
CONTINUOUS
 62
     7
100
AcDbLine
 10
226.86855
 20
116.15315
 30
0.0
 11
226.698939
 21
116.536644
 31
0.0
  0
POLYLINE
  5
1665
100
AcDbEntity
  8
15000_BACK
370
    25
390
0
  6
CONTINUOUS
 62
     7
100
AcDb2dPolyline
 66
     1
 10
0.0
 20
0.0
 30
0.0
  0
VERTEX
  5
1666
100
AcDbEntity
  8
15000_BACK
370
    25
390
0
  6
CONTINUOUS
 62
     7
100
AcDbVertex
100
AcDb2dVertex
 10
222.083314
 20
114.735027
 30
0.0
  0
VERTEX
  5
1667
100
AcDbEntity
  8
15000_BACK
370
    25
390
0
  6
CONTINUOUS
 62
     7
100
AcDbVertex
100
AcDb2dVertex
 10
222.260669
 20
114.270718
 30
0.0
  0
VERTEX
  5
1668
100
AcDbEntity
  8
15000_BACK
370
    25
390
0
  6
CONTINUOUS
 62
     7
100
AcDbVertex
100
AcDb2dVertex
 10
222.528937
 20
113.850848
 30
0.0
  0
VERTEX
  5
1669
100
AcDbEntity
  8
15000_BACK
370
    25
390
0
  6
CONTINUOUS
 62
     7
100
AcDbVertex
100
AcDb2dVertex
 10
222.877228
 20
113.492462
 30
0.0
  0
VERTEX
  5
166A
100
AcDbEntity
  8
15000_BACK
370
    25
390
0
  6
CONTINUOUS
 62
     7
100
AcDbVertex
100
AcDb2dVertex
 10
223.291401
 20
113.210111
 30
0.0
  0
VERTEX
  5
166B
100
AcDbEntity
  8
15000_BACK
370
    25
390
0
  6
CONTINUOUS
 62
     7
100
AcDbVertex
100
AcDb2dVertex
 10
223.754642
 20
113.015257
 30
0.0
  0
VERTEX
  5
166C
100
AcDbEntity
  8
15000_BACK
370
    25
390
0
  6
CONTINUOUS
 62
     7
100
AcDbVertex
100
AcDb2dVertex
 10
224.248143
 20
112.915811
 30
0.0
  0
VERTEX
  5
166D
100
AcDbEntity
  8
15000_BACK
370
    25
390
0
  6
CONTINUOUS
 62
     7
100
AcDbVertex
100
AcDb2dVertex
 10
224.751869
 20
112.915811
 30
0.0
  0
VERTEX
  5
166E
100
AcDbEntity
  8
15000_BACK
370
    25
390
0
  6
CONTINUOUS
 62
     7
100
AcDbVertex
100
AcDb2dVertex
 10
225.24537
 20
113.015257
 30
0.0
  0
VERTEX
  5
166F
100
AcDbEntity
  8
15000_BACK
370
    25
390
0
  6
CONTINUOUS
 62
     7
100
AcDbVertex
100
AcDb2dVertex
 10
225.708611
 20
113.210111
 30
0.0
  0
VERTEX
  5
1670
100
AcDbEntity
  8
15000_BACK
370
    25
390
0
  6
CONTINUOUS
 62
     7
100
AcDbVertex
100
AcDb2dVertex
 10
226.122784
 20
113.492462
 30
0.0
  0
VERTEX
  5
1671
100
AcDbEntity
  8
15000_BACK
370
    25
390
0
  6
CONTINUOUS
 62
     7
100
AcDbVertex
100
AcDb2dVertex
 10
226.471075
 20
113.850848
 30
0.0
  0
VERTEX
  5
1672
100
AcDbEntity
  8
15000_BACK
370
    25
390
0
  6
CONTINUOUS
 62
     7
100
AcDbVertex
100
AcDb2dVertex
 10
226.739343
 20
114.270718
 30
0.0
  0
VERTEX
  5
1673
100
AcDbEntity
  8
15000_BACK
370
    25
390
0
  6
CONTINUOUS
 62
     7
100
AcDbVertex
100
AcDb2dVertex
 10
226.916698
 20
114.735027
 30
0.0
  0
SEQEND
  5
1674
100
AcDbEntity
  8
15000_BACK
370
    25
390
0
  6
CONTINUOUS
 62
     7
  0
POLYLINE
  5
1675
100
AcDbEntity
  8
15000_BACK
370
    25
390
0
  6
CONTINUOUS
 62
     7
100
AcDb2dPolyline
 66
     1
 10
0.0
 20
0.0
 30
0.0
  0
VERTEX
  5
1676
100
AcDbEntity
  8
15000_BACK
370
    25
390
0
  6
CONTINUOUS
 62
     7
100
AcDbVertex
100
AcDb2dVertex
 10
221.536198
 20
114.936291
 30
0.0
  0
VERTEX
  5
1677
100
AcDbEntity
  8
15000_BACK
370
    25
390
0
  6
CONTINUOUS
 62
     7
100
AcDbVertex
100
AcDb2dVertex
 10
221.689866
 20
114.377418
 30
0.0
  0
VERTEX
  5
1678
100
AcDbEntity
  8
15000_BACK
370
    25
390
0
  6
CONTINUOUS
 62
     7
100
AcDbVertex
100
AcDb2dVertex
 10
221.958021
 20
113.859374
 30
0.0
  0
VERTEX
  5
1679
100
AcDbEntity
  8
15000_BACK
370
    25
390
0
  6
CONTINUOUS
 62
     7
100
AcDbVertex
100
AcDb2dVertex
 10
222.329737
 20
113.403265
 30
0.0
  0
VERTEX
  5
167A
100
AcDbEntity
  8
15000_BACK
370
    25
390
0
  6
CONTINUOUS
 62
     7
100
AcDbVertex
100
AcDb2dVertex
 10
222.78987
 20
113.027672
 30
0.0
  0
VERTEX
  5
167B
100
AcDbEntity
  8
15000_BACK
370
    25
390
0
  6
CONTINUOUS
 62
     7
100
AcDbVertex
100
AcDb2dVertex
 10
223.319676
 20
112.747897
 30
0.0
  0
VERTEX
  5
167C
100
AcDbEntity
  8
15000_BACK
370
    25
390
0
  6
CONTINUOUS
 62
     7
100
AcDbVertex
100
AcDb2dVertex
 10
223.897568
 20
112.575339
 30
0.0
  0
VERTEX
  5
167D
100
AcDbEntity
  8
15000_BACK
370
    25
390
0
  6
CONTINUOUS
 62
     7
100
AcDbVertex
100
AcDb2dVertex
 10
224.500004
 20
112.517028
 30
0.0
  0
VERTEX
  5
167E
100
AcDbEntity
  8
15000_BACK
370
    25
390
0
  6
CONTINUOUS
 62
     7
100
AcDbVertex
100
AcDb2dVertex
 10
225.102441
 20
112.575339
 30
0.0
  0
VERTEX
  5
167F
100
AcDbEntity
  8
15000_BACK
370
    25
390
0
  6
CONTINUOUS
 62
     7
100
AcDbVertex
100
AcDb2dVertex
 10
225.680333
 20
112.747896
 30
0.0
  0
VERTEX
  5
1680
100
AcDbEntity
  8
15000_BACK
370
    25
390
0
  6
CONTINUOUS
 62
     7
100
AcDbVertex
100
AcDb2dVertex
 10
226.210139
 20
113.02767
 30
0.0
  0
VERTEX
  5
1681
100
AcDbEntity
  8
15000_BACK
370
    25
390
0
  6
CONTINUOUS
 62
     7
100
AcDbVertex
100
AcDb2dVertex
 10
226.670273
 20
113.403262
 30
0.0
  0
VERTEX
  5
1682
100
AcDbEntity
  8
15000_BACK
370
    25
390
0
  6
CONTINUOUS
 62
     7
100
AcDbVertex
100
AcDb2dVertex
 10
227.04199
 20
113.859371
 30
0.0
  0
VERTEX
  5
1683
100
AcDbEntity
  8
15000_BACK
370
    25
390
0
  6
CONTINUOUS
 62
     7
100
AcDbVertex
100
AcDb2dVertex
 10
227.310145
 20
114.377415
 30
0.0
  0
VERTEX
  5
1684
100
AcDbEntity
  8
15000_BACK
370
    25
390
0
  6
CONTINUOUS
 62
     7
100
AcDbVertex
100
AcDb2dVertex
 10
227.463814
 20
114.936288
 30
0.0
  0
SEQEND
  5
1685
100
AcDbEntity
  8
15000_BACK
370
    25
390
0
  6
CONTINUOUS
 62
     7
  0
LINE
  5
1686
100
AcDbEntity
  8
15000_BACK
370
    25
390
0
  6
CONTINUOUS
 62
     7
100
AcDbLine
 10
226.947529
 20
114.274909
 30
0.0
 11
227.129905
 21
114.795635
 31
0.0
  0
LINE
  5
1687
100
AcDbEntity
  8
15000_BACK
370
    25
390
0
  6
CONTINUOUS
 62
     7
100
AcDbLine
 10
221.870107
 20
114.795635
 30
0.0
 11
222.052483
 21
114.274909
 31
0.0
  0
LINE
  5
1688
100
AcDbEntity
  8
15000_BACK
370
    25
390
0
  6
CONTINUOUS
 62
     7
100
AcDbLine
 10
227.23565
 20
115.093457
 30
0.0
 11
227.274925
 21
115.622187
 31
0.0
  0
LINE
  5
1689
100
AcDbEntity
  8
15000_BACK
370
    25
390
0
  6
CONTINUOUS
 62
     7
100
AcDbLine
 10
221.725086
 20
115.622165
 30
0.0
 11
221.764362
 21
115.093457
 31
0.0
  0
POLYLINE
  5
168A
100
AcDbEntity
  8
15000_BACK
370
    25
390
0
  6
CONTINUOUS
 62
     7
100
AcDb2dPolyline
 66
     1
 10
0.0
 20
0.0
 30
0.0
  0
VERTEX
  5
168B
100
AcDbEntity
  8
15000_BACK
370
    25
390
0
  6
CONTINUOUS
 62
     7
100
AcDbVertex
100
AcDb2dVertex
 10
227.05985
 20
114.474703
 30
0.0
  0
VERTEX
  5
168C
100
AcDbEntity
  8
15000_BACK
370
    25
390
0
  6
CONTINUOUS
 62
     7
100
AcDbVertex
100
AcDb2dVertex
 10
227.249945
 20
114.909997
 30
0.0
  0
VERTEX
  5
168D
100
AcDbEntity
  8
15000_BACK
370
    25
390
0
  6
CONTINUOUS
 62
     7
100
AcDbVertex
100
AcDb2dVertex
 10
227.36434
 20
115.370254
 30
0.0
  0
SEQEND
  5
168E
100
AcDbEntity
  8
15000_BACK
370
    25
390
0
  6
CONTINUOUS
 62
     7
  0
POLYLINE
  5
168F
100
AcDbEntity
  8
15000_BACK
370
    25
390
0
  6
CONTINUOUS
 62
     7
100
AcDb2dPolyline
 66
     1
 10
0.0
 20
0.0
 30
0.0
  0
VERTEX
  5
1690
100
AcDbEntity
  8
15000_BACK
370
    25
390
0
  6
CONTINUOUS
 62
     7
100
AcDbVertex
100
AcDb2dVertex
 10
221.635674
 20
115.370247
 30
0.0
  0
VERTEX
  5
1691
100
AcDbEntity
  8
15000_BACK
370
    25
390
0
  6
CONTINUOUS
 62
     7
100
AcDbVertex
100
AcDb2dVertex
 10
221.750068
 20
114.909994
 30
0.0
  0
VERTEX
  5
1692
100
AcDbEntity
  8
15000_BACK
370
    25
390
0
  6
CONTINUOUS
 62
     7
100
AcDbVertex
100
AcDb2dVertex
 10
221.940162
 20
114.474703
 30
0.0
  0
SEQEND
  5
1693
100
AcDbEntity
  8
15000_BACK
370
    25
390
0
  6
CONTINUOUS
 62
     7
  0
LINE
  5
1694
100
AcDbEntity
  8
15000_BACK
370
    25
390
0
  6
CONTINUOUS
 62
     7
100
AcDbLine
 10
227.129905
 20
114.795634
 30
0.0
 11
227.23565
 21
115.093457
 31
0.0
  0
LINE
  5
1695
100
AcDbEntity
  8
15000_BACK
370
    25
390
0
  6
CONTINUOUS
 62
     7
100
AcDbLine
 10
221.764362
 20
115.093457
 30
0.0
 11
221.870107
 21
114.795634
 31
0.0
  0
ARC
  5
1696
100
AcDbEntity
  8
15000_BACK
370
    25
390
0
  6
CONTINUOUS
 62
     7
100
AcDbCircle
 10
224.500006
 20
124.149995
 30
0.0
 40
2.45
100
AcDbArc
 50
309.394423
 51
230.605577
  0
ARC
  5
1697
100
AcDbEntity
  8
15000_BACK
370
    25
390
0
  6
CONTINUOUS
 62
     7
100
AcDbCircle
 10
224.500006
 20
124.149995
 30
0.0
 40
2.95
100
AcDbArc
 50
320.072903
 51
47.087487
  0
ARC
  5
1698
100
AcDbEntity
  8
15000_BACK
370
    25
390
0
  6
CONTINUOUS
 62
     7
100
AcDbCircle
 10
224.500006
 20
124.149995
 30
0.0
 40
2.95
100
AcDbArc
 50
86.112558
 51
180.0
  0
ARC
  5
1699
100
AcDbEntity
  8
15000_BACK
370
    25
390
0
  6
CONTINUOUS
 62
     7
100
AcDbCircle
 10
224.500006
 20
124.149995
 30
0.0
 40
2.95
100
AcDbArc
 50
180.0
 51
219.927097
  0
ARC
  5
169A
100
AcDbEntity
  8
15000_BACK
370
    25
390
0
  6
CONTINUOUS
 62
     7
100
AcDbCircle
 10
224.500006
 20
124.149995
 30
0.0
 40
3.75
100
AcDbArc
 50
93.422679
 51
176.942763
  0
ARC
  5
169B
100
AcDbEntity
  8
15000_BACK
370
    25
390
0
  6
CONTINUOUS
 62
     7
100
AcDbCircle
 10
224.500008
 20
105.699995
 30
0.0
 40
9.799998
100
AcDbArc
 50
330.504878
 51
32.119745
  0
ARC
  5
169C
100
AcDbEntity
  8
15000_BACK
370
    25
390
0
  6
CONTINUOUS
 62
     7
100
AcDbCircle
 10
225.353596
 20
130.099995
 30
0.0
 40
0.2
100
AcDbArc
 50
269.999998
 51
330.000093
  0
ARC
  5
169D
100
AcDbEntity
  8
15000_BACK
370
    25
390
0
  6
CONTINUOUS
 62
     7
100
AcDbCircle
 10
225.700006
 20
129.899995
 30
0.0
 40
0.2
100
AcDbArc
 50
89.999987
 51
149.999906
  0
ARC
  5
169E
100
AcDbEntity
  8
15000_BACK
370
    25
390
0
  6
CONTINUOUS
 62
     7
100
AcDbCircle
 10
228.303715
 20
79.003862
 30
0.0
 40
50.000002
100
AcDbArc
 50
83.975785
 51
89.798686
  0
ARC
  5
169F
100
AcDbEntity
  8
15000_BACK
370
    25
390
0
  6
CONTINUOUS
 62
     7
100
AcDbCircle
 10
228.477637
 20
128.503557
 30
0.0
 40
0.5
100
AcDbArc
 50
89.798689
 51
110.809534
  0
ARC
  5
16A0
100
AcDbEntity
  8
15000_BACK
370
    25
390
0
  6
CONTINUOUS
 62
     7
100
AcDbCircle
 10
229.162206
 20
123.492718
 30
0.0
 40
3.3
100
AcDbArc
 50
31.923287
 51
57.179099
  0
LINE
  5
16A1
100
AcDbEntity
  8
15000_BACK
370
    25
390
0
  6
CONTINUOUS
 62
     7
100
AcDbLine
 10
229.400006
 20
90.8744
 30
0.0
 11
229.398388
 21
90.877649
 31
0.0
  0
ARC
  5
16A2
100
AcDbEntity
  8
15000_BACK
370
    25
390
0
  6
CONTINUOUS
 62
     7
100
AcDbCircle
 10
229.200006
 20
103.099995
 30
0.0
 40
0.2
100
AcDbArc
 50
269.999945
 51
0.00015
  0
ARC
  5
16A3
100
AcDbEntity
  8
15000_BACK
370
    25
390
0
  6
CONTINUOUS
 62
     7
100
AcDbCircle
 10
229.200006
 20
108.699996
 30
0.0
 40
0.2
100
AcDbArc
 50
359.999882
 51
90.000055
  0
LINE
  5
16A4
100
AcDbEntity
  8
15000_BACK
370
    25
390
0
  6
CONTINUOUS
 62
     7
100
AcDbLine
 10
229.398388
 20
120.922341
 30
0.0
 11
229.400006
 21
120.92559
 31
0.0
  0
ARC
  5
16A5
100
AcDbEntity
  8
15000_BACK
370
    25
390
0
  6
CONTINUOUS
 62
     7
100
AcDbCircle
 10
230.000006
 20
122.399995
 30
0.0
 40
4.8
100
AcDbArc
 50
26.804911
 51
55.492624
  0
ARC
  5
16A6
100
AcDbEntity
  8
15000_BACK
370
    25
390
0
  6
CONTINUOUS
 62
     7
100
AcDbCircle
 10
230.000006
 20
122.399995
 30
0.0
 40
5.65
100
AcDbArc
 50
19.218481
 51
86.446672
  0
ARC
  5
16A7
100
AcDbEntity
  8
15000_BACK
370
    25
390
0
  6
CONTINUOUS
 62
     7
100
AcDbCircle
 10
230.340851
 20
127.889423
 30
0.0
 40
0.15
100
AcDbArc
 50
86.434632
 51
228.000031
  0
ARC
  5
16A8
100
AcDbEntity
  8
15000_BACK
370
    25
390
0
  6
CONTINUOUS
 62
     7
100
AcDbCircle
 10
233.393731
 20
127.236028
 30
0.0
 40
1.5
100
AcDbArc
 50
15.999993
 51
83.975794
  0
LINE
  5
16A9
100
AcDbEntity
  8
90000_FRAME
370
    13
  6
CONTINUOUS
 62
     7
100
AcDbLine
 10
292.0
 20
205.0
 30
0.0
 11
5.0
 21
205.0
 31
0.0
  0
LINE
  5
16AA
100
AcDbEntity
  8
91000_TIP
370
    13
  6
CONTINUOUS
 62
     7
100
AcDbLine
 10
123.379461
 20
21.210091
 30
0.0
 11
133.379461
 21
23.710091
 31
0.0
  0
LINE
  5
16AB
100
AcDbEntity
  8
91000_TIP
370
    13
  6
CONTINUOUS
 62
     7
100
AcDbLine
 10
122.09995
 20
18.710091
 30
0.0
 11
145.70194
 21
18.710091
 31
0.0
  0
LINE
  5
16AC
100
AcDbEntity
  8
91000_TIP
370
    13
  6
CONTINUOUS
 62
     7
100
AcDbLine
 10
123.379461
 20
16.210091
 30
0.0
 11
133.379461
 21
13.710091
 31
0.0
  0
LINE
  5
16AD
100
AcDbEntity
  8
91000_TIP
370
    13
  6
CONTINUOUS
 62
     7
100
AcDbLine
 10
123.379461
 20
21.210091
 30
0.0
 11
123.379461
 21
16.210091
 31
0.0
  0
LINE
  5
16AE
100
AcDbEntity
  8
91000_TIP
370
    13
  6
CONTINUOUS
 62
     7
100
AcDbLine
 10
133.379461
 20
23.710091
 30
0.0
 11
133.379461
 21
13.710091
 31
0.0
  0
LINE
  5
16AF
100
AcDbEntity
  8
91000_TIP
370
    13
  6
CONTINUOUS
 62
     7
100
AcDbLine
 10
139.87946
 20
12.98861
 30
0.0
 11
139.87946
 21
24.271996
 31
0.0
  0
CIRCLE
  5
16B0
100
AcDbEntity
  8
91000_TIP
370
    13
  6
CONTINUOUS
 62
     7
100
AcDbCircle
 10
139.87946
 20
18.710091
 30
0.0
 40
5.0
  0
CIRCLE
  5
16B1
100
AcDbEntity
  8
91000_TIP
370
    13
  6
CONTINUOUS
 62
     7
100
AcDbCircle
 10
139.87946
 20
18.710091
 30
0.0
 40
2.5
  0
TEXT
  5
16B2
100
AcDbEntity
  8
90000_FRAME
370
    13
  6
CONTINUOUS
 62
     7
100
AcDbText
 10
152.559541
 20
29.777704
 30
0.0
 40
2.2
  1
All dimensions are in millimeters (mm)
 41
0.961374
100
AcDbText
  0
TEXT
  5
16B3
100
AcDbEntity
  8
90000_FRAME
370
    13
  6
CONTINUOUS
 62
     7
100
AcDbText
 10
152.559541
 20
32.906727
 30
0.0
 40
2.2
  1
Alle Bemassungswerte sind in Millimeter (mm) angegeben.
 41
0.825144
100
AcDbText
  0
LINE
  5
16B4
100
AcDbEntity
  8
90000_FRAME
370
    13
  6
CONTINUOUS
 62
     7
100
AcDbLine
 10
292.0
 20
5.0
 30
0.0
 11
5.0
 21
5.0
 31
0.0
  0
TEXT
  5
16B5
100
AcDbEntity
  8
90000_FRAME
370
    13
  6
CONTINUOUS
 62
     7
100
AcDbText
 10
203.448083
 20
22.703142
 30
0.0
 40
3.0
  1
3SU115(2,3,6)-6AA.0-1AA0
 41
0.784213
100
AcDbText
  0
TEXT
  5
16B6
100
AcDbEntity
  8
90000_FRAME
370
    13
  6
CONTINUOUS
 62
     7
100
AcDbText
 10
245.16
 20
11.9
 30
0.0
 40
2.2
  1
Massstab/Scale: 1:1
 41
0.9
100
AcDbText
  0
TEXT
  5
16B7
100
AcDbEntity
  8
90000_FRAME
370
    13
  6
CONTINUOUS
 62
     7
100
AcDbText
 10
203.295928
 20
11.9
 30
0.0
 40
2.2
  1
Format/Size: DIN A4
 41
0.803258
100
AcDbText
  0
LINE
  5
16B8
100
AcDbEntity
  8
90000_FRAME
370
    13
  6
CONTINUOUS
 62
     7
100
AcDbLine
 10
287.0
 20
10.0
 30
0.0
 11
287.0
 21
28.0
 31
0.0
  0
LINE
  5
16B9
100
AcDbEntity
  8
90000_FRAME
370
    13
  6
CONTINUOUS
 62
     7
100
AcDbLine
 10
244.5
 20
10.0
 30
0.0
 11
244.5
 21
16.0
 31
0.0
  0
LINE
  5
16BA
100
AcDbEntity
  8
90000_FRAME
370
    13
  6
CONTINUOUS
 62
     7
100
AcDbLine
 10
202.0
 20
10.0
 30
0.0
 11
202.0
 21
28.0
 31
0.0
  0
LINE
  5
16BB
100
AcDbEntity
  8
90000_FRAME
370
    13
  6
CONTINUOUS
 62
     7
100
AcDbLine
 10
152.0
 20
28.0
 30
0.0
 11
287.0
 21
28.0
 31
0.0
  0
LINE
  5
16BC
100
AcDbEntity
  8
90000_FRAME
370
    13
  6
CONTINUOUS
 62
     7
100
AcDbLine
 10
202.0
 20
16.0
 30
0.0
 11
287.0
 21
16.0
 31
0.0
  0
LINE
  5
16BD
100
AcDbEntity
  8
90000_FRAME
370
    13
  6
CONTINUOUS
 62
     7
100
AcDbLine
 10
152.0
 20
10.0
 30
0.0
 11
152.0
 21
28.0
 31
0.0
  0
LINE
  5
16BE
100
AcDbEntity
  8
90000_FRAME
370
    13
  6
CONTINUOUS
 62
     7
100
AcDbLine
 10
152.0
 20
10.0
 30
0.0
 11
287.0
 21
10.0
 31
0.0
  0
LINE
  5
16BF
100
AcDbEntity
  8
90000_FRAME
370
    13
  6
CONTINUOUS
 62
     7
100
AcDbLine
 10
166.186201
 20
21.414548
 30
0.0
 11
166.186201
 21
16.661279
 31
0.0
  0
LINE
  5
16C0
100
AcDbEntity
  8
90000_FRAME
370
    13
  6
CONTINUOUS
 62
     7
100
AcDbLine
 10
167.612181
 20
21.414548
 30
0.0
 11
167.612181
 21
16.661279
 31
0.0
  0
LINE
  5
16C1
100
AcDbEntity
  8
90000_FRAME
370
    13
  6
CONTINUOUS
 62
     7
100
AcDbLine
 10
166.186201
 20
16.661279
 30
0.0
 11
167.612181
 21
16.661279
 31
0.0
  0
LINE
  5
16C2
100
AcDbEntity
  8
90000_FRAME
370
    13
  6
CONTINUOUS
 62
     7
100
AcDbLine
 10
166.186201
 20
21.414548
 30
0.0
 11
167.612181
 21
21.414548
 31
0.0
  0
LINE
  5
16C3
100
AcDbEntity
  8
90000_FRAME
370
    13
  6
CONTINUOUS
 62
     7
100
AcDbLine
 10
168.705433
 20
21.414548
 30
0.0
 11
168.705433
 21
16.661279
 31
0.0
  0
LINE
  5
16C4
100
AcDbEntity
  8
90000_FRAME
370
    13
  6
CONTINUOUS
 62
     7
100
AcDbLine
 10
168.705433
 20
16.661279
 30
0.0
 11
172.270385
 21
16.661279
 31
0.0
  0
LINE
  5
16C5
100
AcDbEntity
  8
90000_FRAME
370
    13
  6
CONTINUOUS
 62
     7
100
AcDbLine
 10
172.270385
 20
17.5644
 30
0.0
 11
170.083881
 21
17.5644
 31
0.0
  0
LINE
  5
16C6
100
AcDbEntity
  8
90000_FRAME
370
    13
  6
CONTINUOUS
 62
     7
100
AcDbLine
 10
172.222852
 20
20.535193
 30
0.0
 11
170.083881
 21
20.535193
 31
0.0
  0
LINE
  5
16C7
100
AcDbEntity
  8
90000_FRAME
370
    13
  6
CONTINUOUS
 62
     7
100
AcDbLine
 10
172.222852
 20
21.414548
 30
0.0
 11
172.222852
 21
20.535193
 31
0.0
  0
LINE
  5
16C8
100
AcDbEntity
  8
90000_FRAME
370
    13
  6
CONTINUOUS
 62
     7
100
AcDbLine
 10
171.937656
 20
18.681418
 30
0.0
 11
170.083881
 21
18.681418
 31
0.0
  0
LINE
  5
16C9
100
AcDbEntity
  8
90000_FRAME
370
    13
  6
CONTINUOUS
 62
     7
100
AcDbLine
 10
171.937656
 20
19.465708
 30
0.0
 11
170.083881
 21
19.465708
 31
0.0
  0
LINE
  5
16CA
100
AcDbEntity
  8
90000_FRAME
370
    13
  6
CONTINUOUS
 62
     7
100
AcDbLine
 10
170.083881
 20
20.535193
 30
0.0
 11
170.083881
 21
19.465708
 31
0.0
  0
LINE
  5
16CB
100
AcDbEntity
  8
90000_FRAME
370
    13
  6
CONTINUOUS
 62
     7
100
AcDbLine
 10
170.083881
 20
18.681418
 30
0.0
 11
170.083881
 21
17.5644
 31
0.0
  0
LINE
  5
16CC
100
AcDbEntity
  8
90000_FRAME
370
    13
  6
CONTINUOUS
 62
     7
100
AcDbLine
 10
173.078441
 20
16.661279
 30
0.0
 11
173.078441
 21
21.414548
 31
0.0
  0
LINE
  5
16CD
100
AcDbEntity
  8
90000_FRAME
370
    13
  6
CONTINUOUS
 62
     7
100
AcDbLine
 10
173.078441
 20
16.661279
 30
0.0
 11
174.029094
 21
16.661279
 31
0.0
  0
LINE
  5
16CE
100
AcDbEntity
  8
90000_FRAME
370
    13
  6
CONTINUOUS
 62
     7
100
AcDbLine
 10
178.924962
 20
21.414548
 30
0.0
 11
178.924962
 21
16.661279
 31
0.0
  0
LINE
  5
16CF
100
AcDbEntity
  8
90000_FRAME
370
    13
  6
CONTINUOUS
 62
     7
100
AcDbLine
 10
178.924962
 20
16.661279
 30
0.0
 11
177.546514
 21
16.661279
 31
0.0
  0
LINE
  5
16D0
100
AcDbEntity
  8
90000_FRAME
370
    13
  6
CONTINUOUS
 62
     7
100
AcDbLine
 10
175.36001
 20
16.613746
 30
0.0
 11
176.215598
 21
16.613746
 31
0.0
  0
LINE
  5
16D1
100
AcDbEntity
  8
90000_FRAME
370
    13
  6
CONTINUOUS
 62
     7
100
AcDbLine
 10
175.36001
 20
16.613746
 30
0.0
 11
174.029094
 21
19.703371
 31
0.0
  0
LINE
  5
16D2
100
AcDbEntity
  8
90000_FRAME
370
    13
  6
CONTINUOUS
 62
     7
100
AcDbLine
 10
174.029094
 20
16.661279
 30
0.0
 11
174.029094
 21
19.703371
 31
0.0
  0
LINE
  5
16D3
100
AcDbEntity
  8
90000_FRAME
370
    13
  6
CONTINUOUS
 62
     7
100
AcDbLine
 10
177.546514
 20
19.750904
 30
0.0
 11
176.215598
 21
16.613746
 31
0.0
  0
LINE
  5
16D4
100
AcDbEntity
  8
90000_FRAME
370
    13
  6
CONTINUOUS
 62
     7
100
AcDbLine
 10
174.789618
 20
21.414548
 30
0.0
 11
173.078441
 21
21.414548
 31
0.0
  0
LINE
  5
16D5
100
AcDbEntity
  8
90000_FRAME
370
    13
  6
CONTINUOUS
 62
     7
100
AcDbLine
 10
177.213785
 20
21.414548
 30
0.0
 11
176.025468
 21
18.515054
 31
0.0
  0
LINE
  5
16D6
100
AcDbEntity
  8
90000_FRAME
370
    13
  6
CONTINUOUS
 62
     7
100
AcDbLine
 10
177.546514
 20
19.750904
 30
0.0
 11
177.546514
 21
16.661279
 31
0.0
  0
LINE
  5
16D7
100
AcDbEntity
  8
90000_FRAME
370
    13
  6
CONTINUOUS
 62
     7
100
AcDbLine
 10
180.018214
 20
21.414548
 30
0.0
 11
180.018214
 21
16.661279
 31
0.0
  0
LINE
  5
16D8
100
AcDbEntity
  8
90000_FRAME
370
    13
  6
CONTINUOUS
 62
     7
100
AcDbLine
 10
180.018214
 20
16.661279
 30
0.0
 11
183.583165
 21
16.661279
 31
0.0
  0
LINE
  5
16D9
100
AcDbEntity
  8
90000_FRAME
370
    13
  6
CONTINUOUS
 62
     7
100
AcDbLine
 10
183.583165
 20
17.5644
 30
0.0
 11
181.396662
 21
17.5644
 31
0.0
  0
LINE
  5
16DA
100
AcDbEntity
  8
90000_FRAME
370
    13
  6
CONTINUOUS
 62
     7
100
AcDbLine
 10
183.583165
 20
17.5644
 30
0.0
 11
183.583165
 21
16.661279
 31
0.0
  0
LINE
  5
16DB
100
AcDbEntity
  8
90000_FRAME
370
    13
  6
CONTINUOUS
 62
     7
100
AcDbLine
 10
183.250437
 20
19.465708
 30
0.0
 11
183.250437
 21
18.681418
 31
0.0
  0
LINE
  5
16DC
100
AcDbEntity
  8
90000_FRAME
370
    13
  6
CONTINUOUS
 62
     7
100
AcDbLine
 10
183.250437
 20
19.465708
 30
0.0
 11
181.396662
 21
19.465708
 31
0.0
  0
LINE
  5
16DD
100
AcDbEntity
  8
90000_FRAME
370
    13
  6
CONTINUOUS
 62
     7
100
AcDbLine
 10
181.396662
 20
20.535193
 30
0.0
 11
181.396662
 21
19.465708
 31
0.0
  0
LINE
  5
16DE
100
AcDbEntity
  8
90000_FRAME
370
    13
  6
CONTINUOUS
 62
     7
100
AcDbLine
 10
181.396662
 20
18.681418
 30
0.0
 11
181.396662
 21
17.5644
 31
0.0
  0
LINE
  5
16DF
100
AcDbEntity
  8
90000_FRAME
370
    13
  6
CONTINUOUS
 62
     7
100
AcDbLine
 10
184.367455
 20
16.661279
 30
0.0
 11
184.367455
 21
21.414548
 31
0.0
  0
LINE
  5
16E0
100
AcDbEntity
  8
90000_FRAME
370
    13
  6
CONTINUOUS
 62
     7
100
AcDbLine
 10
188.550332
 20
21.414548
 30
0.0
 11
188.550332
 21
16.661279
 31
0.0
  0
LINE
  5
16E1
100
AcDbEntity
  8
90000_FRAME
370
    13
  6
CONTINUOUS
 62
     7
100
AcDbLine
 10
184.367455
 20
16.661279
 30
0.0
 11
185.318109
 21
16.661279
 31
0.0
  0
LINE
  5
16E2
100
AcDbEntity
  8
90000_FRAME
370
    13
  6
CONTINUOUS
 62
     7
100
AcDbLine
 10
188.550332
 20
21.414548
 30
0.0
 11
187.599678
 21
21.414548
 31
0.0
  0
LINE
  5
16E3
100
AcDbEntity
  8
90000_FRAME
370
    13
  6
CONTINUOUS
 62
     7
100
AcDbLine
 10
185.912267
 20
21.414548
 30
0.0
 11
184.367455
 21
21.414548
 31
0.0
  0
LINE
  5
16E4
100
AcDbEntity
  8
90000_FRAME
370
    13
  6
CONTINUOUS
 62
     7
100
AcDbLine
 10
188.550332
 20
16.661279
 30
0.0
 11
187.029285
 21
16.661279
 31
0.0
  0
LINE
  5
16E5
100
AcDbEntity
  8
90000_FRAME
370
    13
  6
CONTINUOUS
 62
     7
100
AcDbLine
 10
187.029285
 20
16.661279
 30
0.0
 11
185.318109
 21
19.703371
 31
0.0
  0
LINE
  5
16E6
100
AcDbEntity
  8
90000_FRAME
370
    13
  6
CONTINUOUS
 62
     7
100
AcDbLine
 10
185.912267
 20
21.414548
 30
0.0
 11
187.599678
 21
18.467521
 31
0.0
  0
LINE
  5
16E7
100
AcDbEntity
  8
90000_FRAME
370
    13
  6
CONTINUOUS
 62
     7
100
AcDbLine
 10
187.599678
 20
21.414548
 30
0.0
 11
187.599678
 21
18.467521
 31
0.0
  0
LINE
  5
16E8
100
AcDbEntity
  8
90000_FRAME
370
    13
  6
CONTINUOUS
 62
     7
100
AcDbLine
 10
185.318109
 20
16.661279
 30
0.0
 11
185.318109
 21
19.703371
 31
0.0
  0
LINE
  5
16E9
100
AcDbEntity
  8
90000_FRAME
370
    13
  6
CONTINUOUS
 62
     7
100
AcDbLine
 10
189.358387
 20
16.756344
 30
0.0
 11
189.358387
 21
17.706998
 31
0.0
  0
LINE
  5
16EA
100
AcDbEntity
  8
90000_FRAME
370
    13
  6
CONTINUOUS
 62
     7
100
AcDbLine
 10
192.685676
 20
20.416361
 30
0.0
 11
192.685676
 21
21.367015
 31
0.0
  0
ARC
  5
16EB
100
AcDbEntity
  8
90000_FRAME
370
    13
  6
CONTINUOUS
 62
     7
100
AcDbCircle
 10
191.063028
 20
18.618437
 30
0.0
 40
1.111619
100
AcDbArc
 50
277.709996
 51
295.688493
  0
ARC
  5
16EC
100
AcDbEntity
  8
90000_FRAME
370
    13
  6
CONTINUOUS
 62
     7
100
AcDbCircle
 10
191.347338
 20
17.893612
 30
0.0
 40
0.340169
100
AcDbArc
 50
305.503221
 51
72.46529
  0
ARC
  5
16ED
100
AcDbEntity
  8
90000_FRAME
370
    13
  6
CONTINUOUS
 62
     7
100
AcDbCircle
 10
190.781345
 20
21.295319
 30
0.0
 40
4.756795
100
AcDbArc
 50
252.59392
 51
280.98166
  0
ARC
  5
16EE
100
AcDbEntity
  8
90000_FRAME
370
    13
  6
CONTINUOUS
 62
     7
100
AcDbCircle
 10
191.23618
 20
18.677305
 30
0.0
 40
2.100727
100
AcDbArc
 50
282.405836
 51
311.864443
  0
ARC
  5
16EF
100
AcDbEntity
  8
90000_FRAME
370
    13
  6
CONTINUOUS
 62
     7
100
AcDbCircle
 10
190.962616
 20
20.285646
 30
0.0
 40
0.302963
100
AcDbArc
 50
154.440035
 51
221.82017
  0
ARC
  5
16F0
100
AcDbEntity
  8
90000_FRAME
370
    13
  6
CONTINUOUS
 62
     7
100
AcDbCircle
 10
191.041837
 20
20.206425
 30
0.0
 40
0.410309
100
AcDbArc
 50
102.828783
 51
149.225964
  0
ARC
  5
16F1
100
AcDbEntity
  8
90000_FRAME
370
    13
  6
CONTINUOUS
 62
     7
100
AcDbCircle
 10
191.458864
 20
18.46409
 30
0.0
 40
2.201837
100
AcDbArc
 50
84.040006
 51
103.342766
  0
ARC
  5
16F2
100
AcDbEntity
  8
90000_FRAME
370
    13
  6
CONTINUOUS
 62
     7
100
AcDbCircle
 10
191.1179
 20
16.046726
 30
0.0
 40
4.642374
100
AcDbArc
 50
70.262586
 51
82.952419
  0
ARC
  5
16F3
100
AcDbEntity
  8
90000_FRAME
370
    13
  6
CONTINUOUS
 62
     7
100
AcDbCircle
 10
190.603882
 20
20.718349
 30
0.0
 40
3.258756
100
AcDbArc
 50
247.530021
 51
280.757952
  0
ARC
  5
16F4
100
AcDbEntity
  8
90000_FRAME
370
    13
  6
CONTINUOUS
 62
     7
100
AcDbCircle
 10
184.218915
 20
2.466829
 30
0.0
 40
17.331608
100
AcDbArc
 50
65.341467
 51
67.399777
  0
ARC
  5
16F5
100
AcDbEntity
  8
90000_FRAME
370
    13
  6
CONTINUOUS
 62
     7
100
AcDbCircle
 10
195.014777
 20
28.259255
 30
0.0
 40
10.629164
100
AcDbArc
 50
242.86201
 51
247.104203
  0
ARC
  5
16F6
100
AcDbEntity
  8
90000_FRAME
370
    13
  6
CONTINUOUS
 62
     7
100
AcDbCircle
 10
190.618004
 20
20.059866
 30
0.0
 40
1.309092
100
AcDbArc
 50
164.197486
 51
195.802514
  0
ARC
  5
16F7
100
AcDbEntity
  8
90000_FRAME
370
    13
  6
CONTINUOUS
 62
     7
100
AcDbCircle
 10
191.175027
 20
19.171599
 30
0.0
 40
2.366925
100
AcDbArc
 50
86.221802
 51
120.42726
  0
ARC
  5
16F8
100
AcDbEntity
  8
90000_FRAME
370
    13
  6
CONTINUOUS
 62
     7
100
AcDbCircle
 10
190.906171
 20
12.475431
 30
0.0
 40
9.067905
100
AcDbArc
 50
78.682705
 51
87.31476
  0
ARC
  5
16F9
100
AcDbEntity
  8
90000_FRAME
370
    13
  6
CONTINUOUS
 62
     7
100
AcDbCircle
 10
191.372585
 20
20.67185
 30
0.0
 40
0.866128
100
AcDbArc
 50
222.776039
 51
239.036243
  0
ARC
  5
16FA
100
AcDbEntity
  8
90000_FRAME
370
    13
  6
CONTINUOUS
 62
     7
100
AcDbCircle
 10
188.865875
 20
13.341577
 30
0.0
 40
6.858774
100
AcDbArc
 50
59.902027
 51
68.203648
  0
ARC
  5
16FB
100
AcDbEntity
  8
90000_FRAME
370
    13
  6
CONTINUOUS
 62
     7
100
AcDbCircle
 10
192.27437
 20
22.267464
 30
0.0
 40
2.698741
100
AcDbArc
 50
240.0482
 51
251.377967
  0
ARC
  5
16FC
100
AcDbEntity
  8
90000_FRAME
370
    13
  6
CONTINUOUS
 62
     7
100
AcDbCircle
 10
191.608913
 20
18.110565
 30
0.0
 40
1.433447
100
AcDbArc
 50
315.890455
 51
333.522926
  0
ARC
  5
16FD
100
AcDbEntity
  8
90000_FRAME
370
    13
  6
CONTINUOUS
 62
     7
100
AcDbCircle
 10
191.613551
 20
18.057158
 30
0.0
 40
1.406229
100
AcDbArc
 50
335.386797
 51
24.391512
  0
ARC
  5
16FE
100
AcDbEntity
  8
90000_FRAME
370
    13
  6
CONTINUOUS
 62
     7
100
AcDbCircle
 10
191.541346
 20
17.979301
 30
0.0
 40
1.504703
100
AcDbArc
 50
25.956292
 51
59.483483
  0
LINE
  5
16FF
100
AcDbEntity
  8
90000_FRAME
370
    13
  6
CONTINUOUS
 62
     7
100
AcDbLine
 10
161.76566
 20
16.756344
 30
0.0
 11
161.76566
 21
17.706998
 31
0.0
  0
LINE
  5
1700
100
AcDbEntity
  8
90000_FRAME
370
    13
  6
CONTINUOUS
 62
     7
100
AcDbLine
 10
165.092949
 20
20.416361
 30
0.0
 11
165.092949
 21
21.367015
 31
0.0
  0
ARC
  5
1701
100
AcDbEntity
  8
90000_FRAME
370
    13
  6
CONTINUOUS
 62
     7
100
AcDbCircle
 10
163.470301
 20
18.618437
 30
0.0
 40
1.111619
100
AcDbArc
 50
277.709996
 51
295.688493
  0
ARC
  5
1702
100
AcDbEntity
  8
90000_FRAME
370
    13
  6
CONTINUOUS
 62
     7
100
AcDbCircle
 10
163.754611
 20
17.893612
 30
0.0
 40
0.340169
100
AcDbArc
 50
305.503221
 51
72.46529
  0
ARC
  5
1703
100
AcDbEntity
  8
90000_FRAME
370
    13
  6
CONTINUOUS
 62
     7
100
AcDbCircle
 10
163.188618
 20
21.295319
 30
0.0
 40
4.756795
100
AcDbArc
 50
252.59392
 51
280.98166
  0
ARC
  5
1704
100
AcDbEntity
  8
90000_FRAME
370
    13
  6
CONTINUOUS
 62
     7
100
AcDbCircle
 10
163.643453
 20
18.677305
 30
0.0
 40
2.100727
100
AcDbArc
 50
282.405836
 51
311.864443
  0
ARC
  5
1705
100
AcDbEntity
  8
90000_FRAME
370
    13
  6
CONTINUOUS
 62
     7
100
AcDbCircle
 10
163.369889
 20
20.285646
 30
0.0
 40
0.302963
100
AcDbArc
 50
154.440035
 51
221.82017
  0
ARC
  5
1706
100
AcDbEntity
  8
90000_FRAME
370
    13
  6
CONTINUOUS
 62
     7
100
AcDbCircle
 10
163.44911
 20
20.206425
 30
0.0
 40
0.410309
100
AcDbArc
 50
102.828783
 51
149.225964
  0
ARC
  5
1707
100
AcDbEntity
  8
90000_FRAME
370
    13
  6
CONTINUOUS
 62
     7
100
AcDbCircle
 10
163.866137
 20
18.46409
 30
0.0
 40
2.201837
100
AcDbArc
 50
84.040006
 51
103.342766
  0
ARC
  5
1708
100
AcDbEntity
  8
90000_FRAME
370
    13
  6
CONTINUOUS
 62
     7
100
AcDbCircle
 10
163.525173
 20
16.046726
 30
0.0
 40
4.642374
100
AcDbArc
 50
70.262586
 51
82.952419
  0
ARC
  5
1709
100
AcDbEntity
  8
90000_FRAME
370
    13
  6
CONTINUOUS
 62
     7
100
AcDbCircle
 10
163.011155
 20
20.718349
 30
0.0
 40
3.258756
100
AcDbArc
 50
247.530021
 51
280.757952
  0
ARC
  5
170A
100
AcDbEntity
  8
90000_FRAME
370
    13
  6
CONTINUOUS
 62
     7
100
AcDbCircle
 10
156.626188
 20
2.466829
 30
0.0
 40
17.331608
100
AcDbArc
 50
65.341467
 51
67.399777
  0
ARC
  5
170B
100
AcDbEntity
  8
90000_FRAME
370
    13
  6
CONTINUOUS
 62
     7
100
AcDbCircle
 10
167.42205
 20
28.259255
 30
0.0
 40
10.629164
100
AcDbArc
 50
242.86201
 51
247.104203
  0
ARC
  5
170C
100
AcDbEntity
  8
90000_FRAME
370
    13
  6
CONTINUOUS
 62
     7
100
AcDbCircle
 10
163.567149
 20
20.725324
 30
0.0
 40
2.166292
100
AcDbArc
 50
227.311928
 51
242.704032
  0
ARC
  5
170D
100
AcDbEntity
  8
90000_FRAME
370
    13
  6
CONTINUOUS
 62
     7
100
AcDbCircle
 10
162.963118
 20
20.019646
 30
0.0
 40
1.238522
100
AcDbArc
 50
194.795219
 51
225.717655
  0
ARC
  5
170E
100
AcDbEntity
  8
90000_FRAME
370
    13
  6
CONTINUOUS
 62
     7
100
AcDbCircle
 10
163.5823
 20
19.171599
 30
0.0
 40
2.366925
100
AcDbArc
 50
86.221802
 51
120.42726
  0
ARC
  5
170F
100
AcDbEntity
  8
90000_FRAME
370
    13
  6
CONTINUOUS
 62
     7
100
AcDbCircle
 10
163.313444
 20
12.475431
 30
0.0
 40
9.067905
100
AcDbArc
 50
78.682705
 51
87.31476
  0
ARC
  5
1710
100
AcDbEntity
  8
90000_FRAME
370
    13
  6
CONTINUOUS
 62
     7
100
AcDbCircle
 10
163.202684
 20
19.860792
 30
0.0
 40
1.580547
100
AcDbArc
 50
121.214095
 51
141.525477
  0
ARC
  5
1711
100
AcDbEntity
  8
90000_FRAME
370
    13
  6
CONTINUOUS
 62
     7
100
AcDbCircle
 10
163.779858
 20
20.67185
 30
0.0
 40
0.866128
100
AcDbArc
 50
222.776039
 51
239.036243
  0
ARC
  5
1712
100
AcDbEntity
  8
90000_FRAME
370
    13
  6
CONTINUOUS
 62
     7
100
AcDbCircle
 10
161.273148
 20
13.341577
 30
0.0
 40
6.858774
100
AcDbArc
 50
59.902027
 51
68.203648
  0
ARC
  5
1713
100
AcDbEntity
  8
90000_FRAME
370
    13
  6
CONTINUOUS
 62
     7
100
AcDbCircle
 10
164.681643
 20
22.267464
 30
0.0
 40
2.698741
100
AcDbArc
 50
240.0482
 51
251.377967
  0
ARC
  5
1714
100
AcDbEntity
  8
90000_FRAME
370
    13
  6
CONTINUOUS
 62
     7
100
AcDbCircle
 10
164.016186
 20
18.110565
 30
0.0
 40
1.433447
100
AcDbArc
 50
315.890455
 51
333.522926
  0
ARC
  5
1715
100
AcDbEntity
  8
90000_FRAME
370
    13
  6
CONTINUOUS
 62
     7
100
AcDbCircle
 10
164.020824
 20
18.057158
 30
0.0
 40
1.406229
100
AcDbArc
 50
335.386797
 51
24.391512
  0
ARC
  5
1716
100
AcDbEntity
  8
90000_FRAME
370
    13
  6
CONTINUOUS
 62
     7
100
AcDbCircle
 10
163.948619
 20
17.979301
 30
0.0
 40
1.504703
100
AcDbArc
 50
25.956292
 51
59.483483
  0
LINE
  5
1717
100
AcDbEntity
  8
90000_FRAME
370
    13
  6
CONTINUOUS
 62
     7
100
AcDbLine
 10
161.957489
 20
20.833742
 30
0.0
 11
162.231555
 21
21.107815
 31
0.0
  0
ARC
  5
1718
100
AcDbEntity
  8
90000_FRAME
370
    13
  6
CONTINUOUS
 62
     7
100
AcDbCircle
 10
163.025277
 20
20.059866
 30
0.0
 40
1.309092
100
AcDbArc
 50
164.197486
 51
195.802514
  0
ARC
  5
1719
100
AcDbEntity
  8
90000_FRAME
370
    13
  6
CONTINUOUS
 62
     7
100
AcDbCircle
 10
162.857374
 20
20.167374
 30
0.0
 40
1.119747
100
AcDbArc
 50
142.813918
 51
167.152295
  0
LINE
  5
171A
100
AcDbEntity
  8
90000_FRAME
370
    13
  6
CONTINUOUS
 62
     7
100
AcDbLine
 10
172.270385
 20
17.5644
 30
0.0
 11
172.270385
 21
16.661279
 31
0.0
  0
LINE
  5
171B
100
AcDbEntity
  8
90000_FRAME
370
    13
  6
CONTINUOUS
 62
     7
100
AcDbLine
 10
172.222852
 20
21.414548
 30
0.0
 11
168.705433
 21
21.414548
 31
0.0
  0
LINE
  5
171C
100
AcDbEntity
  8
90000_FRAME
370
    13
  6
CONTINUOUS
 62
     7
100
AcDbLine
 10
171.937656
 20
19.465708
 30
0.0
 11
171.937656
 21
18.681418
 31
0.0
  0
LINE
  5
171D
100
AcDbEntity
  8
90000_FRAME
370
    13
  6
CONTINUOUS
 62
     7
100
AcDbLine
 10
178.924962
 20
21.414548
 30
0.0
 11
177.213785
 21
21.414548
 31
0.0
  0
LINE
  5
171E
100
AcDbEntity
  8
90000_FRAME
370
    13
  6
CONTINUOUS
 62
     7
100
AcDbLine
 10
174.789618
 20
21.414548
 30
0.0
 11
176.025468
 21
18.515054
 31
0.0
  0
LINE
  5
171F
100
AcDbEntity
  8
90000_FRAME
370
    13
  6
CONTINUOUS
 62
     7
100
AcDbLine
 10
183.535633
 20
21.414548
 30
0.0
 11
180.018214
 21
21.414548
 31
0.0
  0
LINE
  5
1720
100
AcDbEntity
  8
90000_FRAME
370
    13
  6
CONTINUOUS
 62
     7
100
AcDbLine
 10
183.535633
 20
20.535193
 30
0.0
 11
181.396662
 21
20.535193
 31
0.0
  0
LINE
  5
1721
100
AcDbEntity
  8
90000_FRAME
370
    13
  6
CONTINUOUS
 62
     7
100
AcDbLine
 10
183.535633
 20
21.414548
 30
0.0
 11
183.535633
 21
20.535193
 31
0.0
  0
LINE
  5
1722
100
AcDbEntity
  8
90000_FRAME
370
    13
  6
CONTINUOUS
 62
     7
100
AcDbLine
 10
183.250437
 20
18.681418
 30
0.0
 11
181.396662
 21
18.681418
 31
0.0
  0
ARC
  5
1723
100
AcDbEntity
  8
90000_FRAME
370
    13
  6
CONTINUOUS
 62
     7
100
AcDbCircle
 10
191.159876
 20
20.725324
 30
0.0
 40
2.166292
100
AcDbArc
 50
227.311928
 51
242.704032
  0
ARC
  5
1724
100
AcDbEntity
  8
90000_FRAME
370
    13
  6
CONTINUOUS
 62
     7
100
AcDbCircle
 10
190.555845
 20
20.019646
 30
0.0
 40
1.238522
100
AcDbArc
 50
194.795219
 51
225.717655
  0
ARC
  5
1725
100
AcDbEntity
  8
90000_FRAME
370
    13
  6
CONTINUOUS
 62
     7
100
AcDbCircle
 10
190.450101
 20
20.167374
 30
0.0
 40
1.119747
100
AcDbArc
 50
142.813918
 51
167.152295
  0
ARC
  5
1726
100
AcDbEntity
  8
90000_FRAME
370
    13
  6
CONTINUOUS
 62
     7
100
AcDbCircle
 10
190.795411
 20
19.860792
 30
0.0
 40
1.580547
100
AcDbArc
 50
121.214095
 51
141.525477
  0
LINE
  5
1727
100
AcDbEntity
  8
90000_FRAME
370
    13
  6
CONTINUOUS
 62
     7
100
AcDbLine
 10
292.0
 20
5.0
 30
0.0
 11
292.0
 21
205.0
 31
0.0
  0
LINE
  5
1728
100
AcDbEntity
  8
90000_FRAME
370
    13
  6
CONTINUOUS
 62
     7
100
AcDbLine
 10
5.0
 20
5.0
 30
0.0
 11
5.0
 21
205.0
 31
0.0
  0
LINE
  5
1729
100
AcDbEntity
  8
90000_FRAME
370
    13
  6
CONTINUOUS
 62
     7
100
AcDbLine
 10
297.0
 20
0.0
 30
0.0
 11
297.0
 21
210.0
 31
0.0
  0
LINE
  5
172A
100
AcDbEntity
  8
90000_FRAME
370
    13
  6
CONTINUOUS
 62
     7
100
AcDbLine
 10
297.0
 20
0.0
 30
0.0
 11
0.0
 21
0.0
 31
0.0
  0
LINE
  5
172B
100
AcDbEntity
  8
90000_FRAME
370
    13
  6
CONTINUOUS
 62
     7
100
AcDbLine
 10
0.0
 20
0.0
 30
0.0
 11
0.0
 21
210.0
 31
0.0
  0
LINE
  5
172C
100
AcDbEntity
  8
90000_FRAME
370
    13
  6
CONTINUOUS
 62
     7
100
AcDbLine
 10
297.0
 20
210.0
 30
0.0
 11
0.0
 21
210.0
 31
0.0
  0
ENDSEC
  0
SECTION
  2
OBJECTS
  0
DICTIONARY
  5
10CF
100
AcDbDictionary
280
     0
281
     1
  3
ACAD_GROUP
350
10D0
  3
ACAD_MLINESTYLE
350
10D1
  0
DICTIONARY
  5
10D0
102
{ACAD_REACTORS
330
10CF
102
}
100
AcDbDictionary
280
     0
281
     1
  0
DICTIONARY
  5
10D1
102
{ACAD_REACTORS
330
10CF
102
}
100
AcDbDictionary
280
     0
281
     1
  3
Standard
350
10D2
  0
MLINESTYLE
  5
10D2
102
{ACAD_REACTORS
330
10D1
102
}
100
AcDbMlineStyle
  2
Standard
 70
     0
  3

 62
     0
 51
90.0
 52
90.0
 71
     2
 49
0.5
 62
   256
  6
ByLayer
 49
-0.5
 62
   256
  6
ByLayer
  0
ENDSEC
  0
EOF
