  0
SECTION
  2
HEADER
  9
$ACADVER
  1
AC1009
  9
$INSBASE
 10
0.0
 20
0.0
 30
0.0
  9
$EXTMIN
 10
0.000031277754756
 20
-57.502584899496043
 30
-0.0015258207003583
  9
$EXTMAX
 10
6.2007957514072567
 20
22.503171272313551
 30
0.0000000349246037
  9
$LIMMIN
 10
-0.030834
 20
-57.530682999999989
  9
$LIMMAX
 10
6.231660999999999
 20
22.531269000000002
  9
$ORTHOMODE
 70
     0
  9
$REGENMODE
 70
     1
  9
$FILLMODE
 70
     1
  9
$QTEXTMODE
 70
     0
  9
$MIRRTEXT
 70
     1
  9
$DRAGMODE
 70
     2
  9
$LTSCALE
 40
1.0
  9
$OSMODE
 70
     1
  9
$ATTMODE
 70
     1
  9
$TEXTSIZE
 40
0.0
  9
$TRACEWID
 40
0.05
  9
$TEXTSTYLE
  7
STANDARD
  9
$CLAYER
  8
0
  9
$CELTYPE
  6
CONTINUOUS
  9
$CECOLOR
 62
   256
  9
$DIMSCALE
 40
1.0
  9
$DIMASZ
 40
0.18
  9
$DIMEXO
 40
0.0625
  9
$DIMDLI
 40
0.38
  9
$DIMRND
 40
0.0
  9
$DIMDLE
 40
0.0
  9
$DIMEXE
 40
0.18
  9
$DIMTP
 40
0.0
  9
$DIMTM
 40
0.0
  9
$DIMTXT
 40
0.18
  9
$DIMCEN
 40
0.09
  9
$DIMTSZ
 40
0.0
  9
$DIMTOL
 70
     0
  9
$DIMLIM
 70
     0
  9
$DIMTIH
 70
     1
  9
$DIMTOH
 70
     1
  9
$DIMSE1
 70
     0
  9
$DIMSE2
 70
     0
  9
$DIMTAD
 70
     0
  9
$DIMZIN
 70
     0
  9
$DIMBLK
  1

  9
$DIMASO
 70
     1
  9
$DIMSHO
 70
     1
  9
$DIMPOST
  1

  9
$DIMAPOST
  1

  9
$DIMALT
 70
     0
  9
$DIMALTD
 70
     2
  9
$DIMALTF
 40
25.399999999999999
  9
$DIMLFAC
 40
1.0
  9
$DIMTOFL
 70
     0
  9
$DIMTVP
 40
0.0
  9
$DIMTIX
 70
     0
  9
$DIMSOXD
 70
     0
  9
$DIMSAH
 70
     0
  9
$DIMBLK1
  1

  9
$DIMBLK2
  1

  9
$DIMSTYLE
  2
STANDARD
  9
$DIMCLRD
 70
     0
  9
$DIMCLRE
 70
     0
  9
$DIMCLRT
 70
     0
  9
$DIMTFAC
 40
1.0
  9
$DIMGAP
 40
0.09
  9
$LUNITS
 70
     2
  9
$LUPREC
 70
     4
  9
$SKETCHINC
 40
0.1
  9
$FILLETRAD
 40
0.0
  9
$AUNITS
 70
     0
  9
$AUPREC
 70
     0
  9
$MENU
  1
acad
  9
$ELEVATION
 40
0.0
  9
$PELEVATION
 40
0.0
  9
$THICKNESS
 40
0.0
  9
$LIMCHECK
 70
     0
  9
$BLIPMODE
 70
     0
  9
$CHAMFERA
 40
0.0
  9
$CHAMFERB
 40
0.0
  9
$SKPOLY
 70
     0
  9
$TDCREATE
 40
2305814.1255093869
  9
$TDUPDATE
 40
2453270.6713711112
  9
$TDINDWG
 40
0.0001447685
  9
$TDUSRTIMER
 40
0.0001446528
  9
$USRTIMER
 70
     1
  9
$ANGBASE
 50
0.0
  9
$ANGDIR
 70
     0
  9
$PDMODE
 70
     0
  9
$PDSIZE
 40
0.0
  9
$PLINEWID
 40
0.0
  9
$COORDS
 70
     1
  9
$SPLFRAME
 70
     0
  9
$SPLINETYPE
 70
     6
  9
$SPLINESEGS
 70
     8
  9
$ATTDIA
 70
     0
  9
$ATTREQ
 70
     1
  9
$HANDLING
 70
     1
  9
$HANDSEED
  5
2EA
  9
$SURFTAB1
 70
     6
  9
$SURFTAB2
 70
     6
  9
$SURFTYPE
 70
     6
  9
$SURFU
 70
     6
  9
$SURFV
 70
     6
  9
$UCSNAME
  2

  9
$UCSORG
 10
0.0
 20
0.0
 30
0.0
  9
$UCSXDIR
 10
1.0
 20
0.0
 30
0.0
  9
$UCSYDIR
 10
0.0
 20
1.0
 30
0.0
  9
$PUCSNAME
  2

  9
$PUCSORG
 10
0.0
 20
0.0
 30
0.0
  9
$PUCSXDIR
 10
1.0
 20
0.0
 30
0.0
  9
$PUCSYDIR
 10
0.0
 20
1.0
 30
0.0
  9
$USERI1
 70
     0
  9
$USERI2
 70
     0
  9
$USERI3
 70
     0
  9
$USERI4
 70
     0
  9
$USERI5
 70
     0
  9
$USERR1
 40
0.0
  9
$USERR2
 40
0.0
  9
$USERR3
 40
0.0
  9
$USERR4
 40
0.0
  9
$USERR5
 40
0.0
  9
$WORLDVIEW
 70
     1
  9
$SHADEDGE
 70
     3
  9
$SHADEDIF
 70
    70
  9
$TILEMODE
 70
     1
  9
$MAXACTVP
 70
    16
  9
$PLIMCHECK
 70
     0
  9
$PEXTMIN
 10
1.0000000000000000E+020
 20
1.0000000000000000E+020
 30
1.0000000000000000E+020
  9
$PEXTMAX
 10
-1.0000000000000000E+020
 20
-1.0000000000000000E+020
 30
-1.0000000000000000E+020
  9
$PLIMMIN
 10
0.0
 20
0.0
  9
$PLIMMAX
 10
12.0
 20
9.0
  9
$UNITMODE
 70
     0
  9
$VISRETAIN
 70
     0
  9
$PLINEGEN
 70
     1
  9
$PSLTSCALE
 70
     0
  0
ENDSEC
  0
SECTION
  2
TABLES
  0
TABLE
  2
VPORT
 70
     2
  0
VPORT
  2
*ACTIVE
 70
     0
 10
0.0
 20
0.0
 11
1.0
 21
1.0
 12
3.1004135145809988
 22
-17.499706813591239
 13
0.0
 23
0.0
 14
1.0
 24
1.0
 15
0.0
 25
0.0
 16
0.0
 26
0.0
 36
1.0
 17
0.0
 27
0.0
 37
0.0
 40
80.608057974859605
 41
1.6444723618090451
 42
50.0
 43
0.0
 44
0.0
 50
0.0
 51
0.0
 71
     0
 72
   100
 73
     1
 74
     1
 75
     0
 76
     0
 77
     0
 78
     0
  0
ENDTAB
  0
TABLE
  2
LTYPE
 70
     1
  0
LTYPE
  2
CONTINUOUS
 70
     0
  3
Solid line
 72
    65
 73
     0
 40
0.0
  0
ENDTAB
  0
TABLE
  2
LAYER
 70
     1
  0
LAYER
  2
0
 70
     0
 62
     7
  6
CONTINUOUS
  0
ENDTAB
  0
TABLE
  2
STYLE
 70
     5
  0
STYLE
  2
STANDARD
 70
     0
 40
0.0
 41
1.0
 50
0.0
 71
     0
 42
0.0
  3
txt
  4

  0
ENDTAB
  0
TABLE
  2
VIEW
 70
     0
  0
ENDTAB
  0
TABLE
  2
UCS
 70
     0
  0
ENDTAB
  0
TABLE
  2
APPID
 70
     2
  0
APPID
  2
ACAD
 70
     0
  0
APPID
  2
DCO15
 70
     0
  0
ENDTAB
  0
TABLE
  2
DIMSTYLE
 70
     1
  0
DIMSTYLE
  2
STANDARD
 70
     0
  3

  4

  5

  6

  7

 40
1.0
 41
0.18
 42
0.0625
 43
0.38
 44
0.18
 45
0.0
 46
0.0
 47
0.0
 48
0.0
140
0.18
141
0.09
142
0.0
143
25.399999999999999
144
1.0
145
0.0
146
1.0
147
0.09
 71
     0
 72
     0
 73
     1
 74
     1
 75
     0
 76
     0
 77
     0
 78
     0
170
     0
171
     2
172
     0
173
     0
174
     0
175
     0
176
     0
177
     0
178
     0
  0
ENDTAB
  0
ENDSEC
  0
SECTION
  2
BLOCKS
  0
BLOCK
  8
0
  2
$MODEL_SPACE
 70
     0
 10
0.0
 20
0.0
 30
0.0
  3
$MODEL_SPACE
  1

  0
ENDBLK
  5
E
  8
0
  0
BLOCK
 67
     1
  8
0
  2
$PAPER_SPACE
 70
     0
 10
0.0
 20
0.0
 30
0.0
  3
$PAPER_SPACE
  1

  0
ENDBLK
  5
10
 67
     1
  8
0
  0
ENDSEC
  0
SECTION
  2
ENTITIES
  0
LINE
  5
227
  8
0
 62
     1
 10
1.8465709999999991
 20
6.9504799999999998
 30
0.0
 11
2.3294009999999989
 21
7.4252139999999986
 31
0.0
  0
LINE
  5
226
  8
0
 62
     1
 10
1.718240999999999
 20
6.6755619999999993
 30
0.0
 11
2.607593
 21
7.5754199999999994
 31
0.0
  0
LINE
  5
225
  8
0
 62
     1
 10
1.641243
 20
6.475746
 30
0.0
 11
2.8099919999999989
 21
7.6257190000000001
 31
0.0
  0
LINE
  5
224
  8
0
 62
     1
 10
1.614716
 20
6.3255400000000002
 30
0.0
 11
2.961231999999999
 21
7.6505239999999999
 31
0.0
  0
LINE
  5
223
  8
0
 62
     1
 10
1.6133379999999991
 20
6.1753339999999994
 30
0.0
 11
3.1122990000000001
 21
7.6505239999999999
 31
0.0
  0
LINE
  5
222
  8
0
 62
     1
 10
1.612131999999999
 20
6.0258169999999991
 30
0.0
 11
3.2637109999999998
 21
7.6505239999999999
 31
0.0
  0
LINE
  5
221
  8
0
 62
     1
 10
1.6365929999999991
 20
5.9004149999999989
 30
0.0
 11
3.3894570000000002
 21
7.6257190000000001
 31
0.0
  0
LINE
  5
220
  8
0
 62
     1
 10
1.6607080000000001
 20
5.8005069999999987
 30
0.0
 11
3.4898820000000002
 21
7.600225
 31
0.0
  0
LINE
  5
21F
  8
0
 62
     1
 10
1.6849959999999991
 20
5.675794999999999
 30
0.0
 11
3.6161439999999998
 21
7.5754199999999994
 31
0.0
  0
LINE
  5
21E
  8
0
 62
     1
 10
1.7346060000000001
 20
5.5751980000000003
 30
0.0
 11
3.7165689999999998
 21
7.525811
 31
0.0
  0
LINE
  5
21D
  8
0
 62
     1
 10
1.7842150000000001
 20
5.5007839999999986
 30
0.0
 11
3.816821
 21
7.4755130000000003
 31
0.0
  0
LINE
  5
21C
  8
0
 62
     1
 10
1.8338239999999999
 20
5.400186999999999
 30
0.0
 11
3.8920970000000001
 21
7.4252139999999986
 31
0.0
  0
LINE
  5
21B
  8
0
 62
     1
 10
1.8834340000000001
 20
5.3257729999999999
 30
0.0
 11
3.992348999999999
 21
7.3756050000000002
 31
0.0
  0
LINE
  5
21A
  8
0
 62
     1
 10
1.9585369999999991
 20
5.2251760000000003
 30
0.0
 11
4.0674519999999994
 21
7.3005019999999998
 31
0.0
  0
LINE
  5
219
  8
0
 62
     1
 10
2.008318
 20
5.1507620000000003
 30
0.0
 11
4.1429
 21
7.2502029999999991
 31
0.0
  0
LINE
  5
218
  8
0
 62
     1
 10
2.0835939999999988
 20
5.1004639999999988
 30
0.0
 11
4.192164
 21
7.1757889999999991
 31
0.0
  0
LINE
  5
217
  8
0
 62
     1
 10
2.1583519999999989
 20
5.0253610000000002
 30
0.0
 11
4.2672679999999987
 21
7.1006859999999996
 31
0.0
  0
LINE
  5
216
  8
0
 62
     1
 10
2.2334549999999989
 20
4.9757509999999989
 30
0.0
 11
4.3423709999999991
 21
7.0255830000000001
 31
0.0
  0
LINE
  5
215
  8
0
 62
     1
 10
2.3337080000000001
 20
4.9006480000000003
 30
0.0
 11
4.3916349999999991
 21
6.925675
 31
0.0
  0
LINE
  5
214
  8
0
 62
     1
 10
2.4344769999999998
 20
4.8503499999999988
 30
0.0
 11
4.4415889999999987
 21
6.8505719999999997
 31
0.0
  0
LINE
  5
213
  8
0
 62
     1
 10
2.5094080000000001
 20
4.8255449999999991
 30
0.0
 11
4.4917150000000001
 21
6.7506649999999988
 31
0.0
  0
LINE
  5
212
  8
0
 62
     1
 10
2.6353260000000001
 20
4.7752470000000002
 30
0.0
 11
4.5156589999999994
 21
6.6507569999999996
 31
0.0
  0
LINE
  5
211
  8
0
 62
     1
 10
2.7360950000000002
 20
4.7504419999999987
 30
0.0
 11
4.5397749999999988
 21
6.5253550000000002
 31
0.0
  0
LINE
  5
210
  8
0
 62
     1
 10
2.861669
 20
4.725636999999999
 30
0.0
 11
4.5638899999999989
 21
6.4006429999999988
 31
0.0
  0
LINE
  5
20F
  8
0
 62
     1
 10
2.9875869999999991
 20
4.7008330000000003
 30
0.0
 11
4.5885230000000004
 21
6.2752410000000003
 31
0.0
  0
LINE
  5
20E
  8
0
 62
     1
 10
3.113677
 20
4.7008330000000003
 30
0.0
 11
4.5874889999999988
 21
6.1505289999999988
 31
0.0
  0
LINE
  5
20D
  8
0
 62
     1
 10
3.264745
 20
4.7008330000000003
 30
0.0
 11
4.586282999999999
 21
6.0003229999999999
 31
0.0
  0
LINE
  5
20C
  8
0
 62
     1
 10
3.4416500000000001
 20
4.7504419999999987
 30
0.0
 11
4.5340899999999991
 21
5.8253120000000003
 31
0.0
  0
LINE
  5
20B
  8
0
 62
     1
 10
3.6688540000000001
 20
4.8255449999999991
 30
0.0
 11
4.4565760000000001
 21
5.6006919999999987
 31
0.0
  0
LINE
  5
20A
  8
0
 62
     1
 10
3.9980329999999999
 20
5.0005559999999987
 30
0.0
 11
4.2774309999999991
 21
5.2754750000000001
 31
0.0
  0
LINE
  5
209
  8
0
 62
     1
 10
0.050298
 20
0.000345
 30
0.0
 11
0.050298
 21
22.500263
 31
0.0
  0
LINE
  5
208
  8
0
 62
     1
 10
0.050298
 20
-26.175491000000001
 30
0.0
 11
0.050298
 21
-0.349677
 31
0.0
  0
LINE
  5
207
  8
0
 62
     1
 10
6.1507009999999998
 20
-26.175491000000001
 30
0.0
 11
6.1507009999999998
 21
22.500263
 31
0.0
  0
LINE
  5
206
  8
0
 62
     1
 10
6.1507009999999998
 20
-57.499676999999998
 30
0.0
 11
6.1507009999999998
 21
-35.349091000000001
 31
0.0
  0
LINE
  5
205
  8
0
 62
     1
 10
6.174817
 20
-38.499287000000002
 30
0.0
 11
0.000861
 21
-38.499287000000002
 31
0.0
  0
LINE
  5
204
  8
0
 62
     1
 10
0.025494
 20
-44.049334999999999
 30
0.0
 11
3.1252179999999989
 21
-44.049334999999999
 31
0.0
  0
LINE
  5
203
  8
0
 62
     1
 10
3.1252179999999989
 20
-51.049079999999996
 30
0.0
 11
0.025494
 21
-51.049079999999996
 31
0.0
  0
LINE
  5
202
  8
0
 62
     1
 10
6.1756779999999987
 20
-44.049334999999999
 30
0.0
 11
3.0754369999999991
 21
-44.049334999999999
 31
0.0
  0
LINE
  5
201
  8
0
 62
     1
 10
3.0754369999999991
 20
-51.049079999999996
 30
0.0
 11
6.1756779999999987
 21
-51.049079999999996
 31
0.0
  0
LINE
  5
200
  8
0
 62
     1
 10
0.6004800000000001
 20
-0.9994219999999998
 30
0.0
 11
0.6004800000000001
 21
-26.175491000000001
 31
0.0
  0
LINE
  5
1FF
  8
0
 62
     1
 10
5.6001750000000001
 20
-0.9994219999999998
 30
0.0
 11
5.6001750000000001
 21
-26.175491000000001
 31
0.0
  0
LINE
  5
1FE
  8
0
 62
     1
 10
1.4998219999999991
 20
17.200327999999999
 30
0.0
 11
4.7011769999999986
 21
17.200327999999999
 31
0.0
  0
LINE
  5
1FD
  8
0
 62
     1
 10
4.7011769999999986
 20
17.875567
 30
0.0
 11
1.4998219999999991
 21
17.875567
 31
0.0
  0
LINE
  5
1FC
  8
0
 62
     1
 10
4.7011769999999986
 20
10.875821999999999
 30
0.0
 11
1.4998219999999991
 21
10.875821999999999
 31
0.0
  0
LINE
  5
1FB
  8
0
 62
     1
 10
0.559828
 20
-0.9994219999999998
 30
0.0
 11
5.640998999999999
 21
-0.9994219999999998
 31
0.0
  0
LINE
  5
1FA
  8
0
 62
     1
 10
1.5277279999999991
 20
10.875821999999999
 30
0.0
 11
1.2483299999999991
 21
10.875821999999999
 31
0.0
  0
LINE
  5
1F9
  8
0
 62
     1
 10
4.673443999999999
 20
10.875821999999999
 30
0.0
 11
4.9276919999999986
 21
10.875821999999999
 31
0.0
  0
LINE
  5
1F8
  8
0
 62
     1
 10
4.673443999999999
 20
17.200327999999999
 30
0.0
 11
4.9276919999999986
 21
17.200327999999999
 31
0.0
  0
LINE
  5
1F7
  8
0
 62
     1
 10
1.5277279999999991
 20
17.875567
 30
0.0
 11
1.2483299999999991
 21
17.875567
 31
0.0
  0
LINE
  5
1F6
  8
0
 62
     1
 10
4.673443999999999
 20
17.875567
 30
0.0
 11
4.9276919999999986
 21
17.875567
 31
0.0
  0
LINE
  5
1F5
  8
0
 62
     1
 10
1.5277279999999991
 20
17.200327999999999
 30
0.0
 11
1.2483299999999991
 21
17.200327999999999
 31
0.0
  0
LINE
  5
1F4
  8
0
 62
     1
 10
0.000689
 20
22.500263
 30
0.0
 11
6.2004830000000002
 21
22.500263
 31
0.0
  0
LINE
  5
1F3
  8
0
 62
     1
 10
3.100241
 20
19.400366000000002
 30
0.0
 11
3.100241
 21
22.500263
 31
0.0
  0
LINE
  5
1F2
  8
0
 62
     1
 10
6.2004830000000002
 20
15.500518
 30
0.0
 11
0.000689
 21
15.500518
 31
0.0
  0
LINE
  5
1F1
  8
0
 62
     1
 10
6.2004830000000002
 20
16.050355
 30
0.0
 11
0.000689
 21
16.050355
 31
0.0
  0
LINE
  5
1F0
  8
0
 62
     1
 10
3.100241
 20
12.375817
 30
0.0
 11
3.100241
 21
15.500518
 31
0.0
  0
LINE
  5
1EF
  8
0
 62
     1
 10
6.2004830000000002
 20
10.500306999999999
 30
0.0
 11
0.000689
 21
10.500306999999999
 31
0.0
  0
LINE
  5
1EE
  8
0
 62
     1
 10
3.100241
 20
7.6505239999999999
 30
0.0
 11
3.100241
 21
10.500306999999999
 31
0.0
  0
LINE
  5
1ED
  8
0
 62
     1
 10
6.2004830000000002
 20
-0.349677
 30
0.0
 11
0.000689
 21
-0.349677
 31
0.0
  0
LINE
  5
1EC
  8
0
 62
     1
 10
0.050298
 20
-0.349677
 30
0.0
 11
0.050298
 21
0.000345
 31
0.0
  0
LINE
  5
1EB
  8
0
 62
     1
 10
3.100241
 20
-0.9994219999999998
 30
0.0
 11
3.100241
 21
4.7008330000000003
 31
0.0
  0
LINE
  5
1EA
  8
0
 62
     1
 10
1.220596999999999
 20
-38.874113000000001
 30
0.0
 11
4.9555980000000002
 21
-38.874113000000001
 31
0.0
  0
LINE
  5
1E9
  8
0
 62
     1
 10
4.9555980000000002
 20
-45.874547
 30
0.0
 11
1.220596999999999
 21
-45.874547
 31
0.0
  0
LINE
  5
1E8
  8
0
 62
     1
 10
1.220596999999999
 20
-45.174503999999999
 30
0.0
 11
4.9555980000000002
 21
-45.174503999999999
 31
0.0
  0
LINE
  5
1E7
  8
0
 62
     1
 10
3.100241
 20
-40.374107999999993
 30
0.0
 11
3.100241
 21
-44.049334999999999
 31
0.0
  0
LINE
  5
1E6
  8
0
 62
     1
 10
6.2004830000000002
 20
-43.499498000000003
 30
0.0
 11
0.000689
 21
-43.499498000000003
 31
0.0
  0
LINE
  5
1E5
  8
0
 62
     1
 10
0.050298
 20
-43.499498000000003
 30
0.0
 11
0.050298
 21
-35.349091000000001
 31
0.0
  0
LINE
  5
1E4
  8
0
 62
     1
 10
6.2004830000000002
 20
-57.499676999999998
 30
0.0
 11
0.000689
 21
-57.499676999999998
 31
0.0
  0
LINE
  5
1E3
  8
0
 62
     1
 10
6.2004830000000002
 20
-50.499243
 30
0.0
 11
0.000689
 21
-50.499243
 31
0.0
  0
LINE
  5
1E2
  8
0
 62
     1
 10
0.050298
 20
-50.499243
 30
0.0
 11
0.050298
 21
-43.499498000000003
 31
0.0
  0
LINE
  5
1E1
  8
0
 62
     1
 10
4.9555980000000002
 20
-52.874291999999997
 30
0.0
 11
1.220596999999999
 21
-52.874291999999997
 31
0.0
  0
LINE
  5
1E0
  8
0
 62
     1
 10
1.220596999999999
 20
-52.174249000000003
 30
0.0
 11
4.9555980000000002
 21
-52.174249000000003
 31
0.0
  0
LINE
  5
1DF
  8
0
 62
     1
 10
3.100241
 20
-57.499676999999998
 30
0.0
 11
3.100241
 21
-54.399091000000013
 31
0.0
  0
LINE
  5
1DE
  8
0
 62
     1
 10
3.100241
 20
-51.049079999999996
 30
0.0
 11
3.100241
 21
-47.399346000000001
 31
0.0
  0
LINE
  5
1DD
  8
0
 62
     1
 10
0.050298
 20
-57.499676999999998
 30
0.0
 11
0.050298
 21
-50.499243
 31
0.0
  0
LINE
  5
1DC
  8
0
 62
     1
 10
4.9752349999999987
 20
10.500306999999999
 30
0.0
 11
4.9752349999999987
 21
10.600213999999999
 31
0.0
  0
LINE
  5
1DB
  8
0
 62
     1
 10
4.9754069999999988
 20
10.600213999999999
 30
0.0
 11
4.9502579999999989
 21
10.700811
 31
0.0
  0
LINE
  5
1DA
  8
0
 62
     1
 10
4.950429999999999
 20
10.700811
 30
0.0
 11
4.950429999999999
 21
10.800719000000001
 31
0.0
  0
LINE
  5
1D9
  8
0
 62
     1
 10
4.9506019999999991
 20
10.800719000000001
 30
0.0
 11
4.9254530000000001
 21
10.875821999999999
 31
0.0
  0
LINE
  5
1D8
  8
0
 62
     1
 10
4.9257980000000003
 20
10.875821999999999
 30
0.0
 11
4.8999589999999991
 21
10.97573
 31
0.0
  0
LINE
  5
1D7
  8
0
 62
     1
 10
4.9003040000000002
 20
10.97573
 30
0.0
 11
4.8751550000000003
 21
11.075637
 31
0.0
  0
LINE
  5
1D6
  8
0
 62
     1
 10
4.8754989999999987
 20
11.075637
 30
0.0
 11
4.8503499999999988
 21
11.175545
 31
0.0
  0
LINE
  5
1D5
  8
0
 62
     1
 10
4.8510390000000001
 20
11.175545
 30
0.0
 11
4.7998789999999989
 21
11.250648
 31
0.0
  0
LINE
  5
1D4
  8
0
 62
     1
 10
4.8003960000000001
 20
11.250648
 30
0.0
 11
4.7752470000000002
 21
11.350555999999999
 31
0.0
  0
LINE
  5
1D3
  8
0
 62
     1
 10
4.7759359999999988
 20
11.350555999999999
 30
0.0
 11
4.7247760000000003
 21
11.425659
 31
0.0
  0
LINE
  5
1D2
  8
0
 62
     1
 10
4.725636999999999
 20
11.425659
 30
0.0
 11
4.6751670000000001
 21
11.525567000000001
 31
0.0
  0
LINE
  5
1D1
  8
0
 62
     1
 10
4.6760279999999987
 20
11.525567000000001
 30
0.0
 11
4.6248680000000002
 21
11.600669999999999
 31
0.0
  0
LINE
  5
1D0
  8
0
 62
     1
 10
4.6259019999999991
 20
11.600669999999999
 30
0.0
 11
4.5495929999999989
 21
11.675773
 31
0.0
  0
LINE
  5
1CF
  8
0
 62
     1
 10
4.5506269999999986
 20
11.675773
 30
0.0
 11
4.5001559999999987
 21
11.750187
 31
0.0
  0
LINE
  5
1CE
  8
0
 62
     1
 10
4.5011900000000002
 20
11.750187
 30
0.0
 11
4.4248810000000001
 21
11.825290000000001
 31
0.0
  0
LINE
  5
1CD
  8
0
 62
     1
 10
4.4260859999999989
 20
11.825290000000001
 30
0.0
 11
4.3497779999999988
 21
11.900392999999999
 31
0.0
  0
LINE
  5
1CC
  8
0
 62
     1
 10
4.3509830000000003
 20
11.900392999999999
 30
0.0
 11
4.2746740000000001
 21
11.950692
 31
0.0
  0
LINE
  5
1CB
  8
0
 62
     1
 10
1.55081
 20
-51.474204999999991
 30
0.0
 11
1.499995
 21
-51.549308000000003
 31
0.0
  0
LINE
  5
1CA
  8
0
 62
     1
 10
1.5008559999999991
 20
-51.549308000000003
 30
0.0
 11
1.450040999999999
 21
-51.624411000000002
 31
0.0
  0
LINE
  5
1C9
  8
0
 62
     1
 10
1.4509019999999999
 20
-51.624411000000002
 30
0.0
 11
1.4000870000000001
 21
-51.724319000000001
 31
0.0
  0
LINE
  5
1C8
  8
0
 62
     1
 10
1.400947999999999
 20
-51.724319000000001
 30
0.0
 11
1.350133
 21
-51.799422
 31
0.0
  0
LINE
  5
1C7
  8
0
 62
     1
 10
1.350649999999999
 20
-51.799422
 30
0.0
 11
1.325156
 21
-51.899329999999992
 31
0.0
  0
LINE
  5
1C6
  8
0
 62
     1
 10
1.325499999999999
 20
-51.899329999999992
 30
0.0
 11
1.300351
 21
-51.999237999999998
 31
0.0
  0
LINE
  5
1C5
  8
0
 62
     1
 10
1.300695999999999
 20
-51.999237999999998
 30
0.0
 11
1.2752019999999991
 21
-52.074340999999997
 31
0.0
  0
LINE
  5
1C4
  8
0
 62
     1
 10
1.2755469999999991
 20
-52.074340999999997
 30
0.0
 11
1.2503969999999991
 21
-52.174249000000003
 31
0.0
  0
LINE
  5
1C3
  8
0
 62
     1
 10
1.250742
 20
-52.174249000000003
 30
0.0
 11
1.225247999999999
 21
-52.274155999999998
 31
0.0
  0
LINE
  5
1C2
  8
0
 62
     1
 10
1.22542
 20
-52.274155999999998
 30
0.0
 11
1.22542
 21
-52.374752999999998
 31
0.0
  0
LINE
  5
1C1
  8
0
 62
     1
 10
1.22542
 20
-52.374752999999998
 30
0.0
 11
1.22542
 21
-52.474660999999998
 31
0.0
  0
LINE
  5
1C0
  8
0
 62
     1
 10
1.22542
 20
-52.474660999999998
 30
0.0
 11
1.22542
 21
-52.574568999999997
 31
0.0
  0
LINE
  5
1BF
  8
0
 62
     1
 10
1.22542
 20
-52.574568999999997
 30
0.0
 11
1.22542
 21
-52.674475999999999
 31
0.0
  0
LINE
  5
1BE
  8
0
 62
     1
 10
1.22542
 20
-52.674475999999999
 30
0.0
 11
1.22542
 21
-52.774383999999998
 31
0.0
  0
LINE
  5
1BD
  8
0
 62
     1
 10
1.225247999999999
 20
-52.774383999999998
 30
0.0
 11
1.250742
 21
-52.874291999999997
 31
0.0
  0
LINE
  5
1BC
  8
0
 62
     1
 10
1.2503969999999991
 20
-52.874291999999997
 30
0.0
 11
1.2755469999999991
 21
-52.949394999999988
 31
0.0
  0
LINE
  5
1BB
  8
0
 62
     1
 10
1.2752019999999991
 20
-52.949394999999988
 30
0.0
 11
1.300695999999999
 21
-53.049303000000002
 31
0.0
  0
LINE
  5
1BA
  8
0
 62
     1
 10
1.300351
 20
-53.049303000000002
 30
0.0
 11
1.325499999999999
 21
-53.149211000000001
 31
0.0
  0
LINE
  5
1B9
  8
0
 62
     1
 10
1.325156
 20
-53.149211000000001
 30
0.0
 11
1.350649999999999
 21
-53.249118000000003
 31
0.0
  0
LINE
  5
1B8
  8
0
 62
     1
 10
1.350133
 20
-53.249118000000003
 30
0.0
 11
1.400947999999999
 21
-53.324220999999987
 31
0.0
  0
LINE
  5
1B7
  8
0
 62
     1
 10
1.4000870000000001
 20
-53.324220999999987
 30
0.0
 11
1.4509019999999999
 21
-53.424129000000001
 31
0.0
  0
LINE
  5
1B6
  8
0
 62
     1
 10
1.4502129999999991
 20
-53.424129000000001
 30
0.0
 11
1.475706999999999
 21
-53.499231999999992
 31
0.0
  0
LINE
  5
1B5
  8
0
 62
     1
 10
1.4750179999999991
 20
-53.499231999999992
 30
0.0
 11
1.550981999999999
 21
-53.574334999999991
 31
0.0
  0
LINE
  5
1B4
  8
0
 62
     1
 10
1.549947999999999
 20
-53.574334999999991
 30
0.0
 11
1.600763999999999
 21
-53.674242999999997
 31
0.0
  0
LINE
  5
1B3
  8
0
 62
     1
 10
1.599901999999999
 20
-53.674242999999997
 30
0.0
 11
1.6510619999999989
 21
-53.749345999999989
 31
0.0
  0
LINE
  5
1B2
  8
0
 62
     1
 10
1.6500279999999989
 20
-53.749345999999989
 30
0.0
 11
1.7259930000000001
 21
-53.824449000000001
 31
0.0
  0
LINE
  5
1B1
  8
0
 62
     1
 10
1.724786999999999
 20
-53.824449000000001
 30
0.0
 11
1.8010959999999989
 21
-53.87474799999999
 31
0.0
  0
LINE
  5
1B0
  8
0
 62
     1
 10
1.79989
 20
-53.87474799999999
 30
0.0
 11
1.876199
 21
-53.949162000000001
 31
0.0
  0
LINE
  5
1AF
  8
0
 62
     1
 10
1.8749929999999999
 20
-53.949162000000001
 30
0.0
 11
1.950958
 21
-53.999459999999992
 31
0.0
  0
LINE
  5
1AE
  8
0
 62
     1
 10
1.9497519999999999
 20
-53.999459999999992
 30
0.0
 11
2.026060999999999
 21
-54.074562999999991
 31
0.0
  0
LINE
  5
1AD
  8
0
 62
     1
 10
2.0248550000000001
 20
-54.074562999999991
 30
0.0
 11
2.1011639999999989
 21
-54.124172999999999
 31
0.0
  0
LINE
  5
1AC
  8
0
 62
     1
 10
2.0999579999999991
 20
-54.124172999999999
 30
0.0
 11
2.175921999999999
 21
-54.174470999999997
 31
0.0
  0
LINE
  5
1AB
  8
0
 62
     1
 10
2.174544
 20
-54.174470999999997
 30
0.0
 11
2.276346999999999
 21
-54.224080000000001
 31
0.0
  0
LINE
  5
1AA
  8
0
 62
     1
 10
2.274969
 20
-54.224080000000001
 30
0.0
 11
2.3509329999999999
 21
-54.249574000000003
 31
0.0
  0
LINE
  5
1A9
  8
0
 62
     1
 10
2.3495550000000001
 20
-54.249574000000003
 30
0.0
 11
2.4513579999999999
 21
-54.299182999999999
 31
0.0
  0
LINE
  5
1A8
  8
0
 62
     1
 10
2.449806999999999
 20
-54.299182999999999
 30
0.0
 11
2.5512649999999999
 21
-54.324677000000001
 31
0.0
  0
LINE
  5
1A7
  8
0
 62
     1
 10
2.5497149999999991
 20
-54.324677000000001
 30
0.0
 11
2.651173
 21
-54.349482000000002
 31
0.0
  0
LINE
  5
1A6
  8
0
 62
     1
 10
2.6497950000000001
 20
-54.349482000000002
 30
0.0
 11
2.7261039999999999
 21
-54.374287000000002
 31
0.0
  0
LINE
  5
1A5
  8
0
 62
     1
 10
2.7247259999999991
 20
-54.374287000000002
 30
0.0
 11
2.8261839999999991
 21
-54.374287000000002
 31
0.0
  0
LINE
  5
1A4
  8
0
 62
     1
 10
2.8246340000000001
 20
-54.374287000000002
 30
0.0
 11
2.9260919999999988
 21
-54.399091000000013
 31
0.0
  0
LINE
  5
1A3
  8
0
 62
     1
 10
2.9245419999999989
 20
-54.399091000000013
 30
0.0
 11
3.026343999999999
 21
-54.399091000000013
 31
0.0
  0
LINE
  5
1A2
  8
0
 62
     1
 10
3.0247939999999991
 20
-54.399091000000013
 30
0.0
 11
3.126252
 21
-54.399091000000013
 31
0.0
  0
LINE
  5
1A1
  8
0
 62
     1
 10
3.1247020000000001
 20
-54.399091000000013
 30
0.0
 11
3.2261599999999988
 21
-54.399091000000013
 31
0.0
  0
LINE
  5
1A0
  8
0
 62
     1
 10
3.2246090000000001
 20
-54.399091000000013
 30
0.0
 11
3.3265839999999991
 21
-54.399091000000013
 31
0.0
  0
LINE
  5
19F
  8
0
 62
     1
 10
3.3250339999999992
 20
-54.399091000000013
 30
0.0
 11
3.4264919999999992
 21
-54.374287000000002
 31
0.0
  0
LINE
  5
19E
  8
0
 62
     1
 10
3.4249419999999988
 20
-54.374287000000002
 30
0.0
 11
3.5264000000000002
 21
-54.349482000000002
 31
0.0
  0
LINE
  5
19D
  8
0
 62
     1
 10
3.5250219999999999
 20
-54.349482000000002
 30
0.0
 11
3.6013309999999992
 21
-54.324677000000001
 31
0.0
  0
LINE
  5
19C
  8
0
 62
     1
 10
3.5999529999999988
 20
-54.324677000000001
 30
0.0
 11
3.7014109999999998
 21
-54.299182999999999
 31
0.0
  0
LINE
  5
19B
  8
0
 62
     1
 10
3.6998599999999988
 20
-54.299182999999999
 30
0.0
 11
3.8013180000000002
 21
-54.27437900000001
 31
0.0
  0
LINE
  5
19A
  8
0
 62
     1
 10
3.7999399999999999
 20
-54.27437900000001
 30
0.0
 11
3.8762489999999992
 21
-54.224080000000001
 31
0.0
  0
LINE
  5
199
  8
0
 62
     1
 10
3.8748709999999988
 20
-54.224080000000001
 30
0.0
 11
3.9763289999999998
 21
-54.174470999999997
 31
0.0
  0
LINE
  5
198
  8
0
 62
     1
 10
3.9749509999999999
 20
-54.174470999999997
 30
0.0
 11
4.0512600000000001
 21
-54.124172999999999
 31
0.0
  0
LINE
  5
197
  8
0
 62
     1
 10
4.0498820000000002
 20
-54.124172999999999
 30
0.0
 11
4.1513400000000003
 21
-54.074562999999991
 31
0.0
  0
LINE
  5
196
  8
0
 62
     1
 10
4.1499620000000004
 20
-54.074562999999991
 30
0.0
 11
4.2262709999999988
 21
-54.024265
 31
0.0
  0
LINE
  5
195
  8
0
 62
     1
 10
4.225064999999999
 20
-54.024265
 30
0.0
 11
4.301374
 21
-53.949162000000001
 31
0.0
  0
LINE
  5
194
  8
0
 62
     1
 10
4.3001680000000002
 20
-53.949162000000001
 30
0.0
 11
4.375788
 21
-53.899552
 31
0.0
  0
LINE
  5
193
  8
0
 62
     1
 10
4.3745820000000002
 20
-53.899552
 30
0.0
 11
4.4508910000000004
 21
-53.824449000000001
 31
0.0
  0
LINE
  5
192
  8
0
 62
     1
 10
4.449857999999999
 20
-53.824449000000001
 30
0.0
 11
4.501017
 21
-53.749345999999989
 31
0.0
  0
LINE
  5
191
  8
0
 62
     1
 10
4.4999839999999987
 20
-53.749345999999989
 30
0.0
 11
4.5762929999999988
 21
-53.674242999999997
 31
0.0
  0
LINE
  5
190
  8
0
 62
     1
 10
4.5752589999999991
 20
-53.674242999999997
 30
0.0
 11
4.625729999999999
 21
-53.599139999999998
 31
0.0
  0
LINE
  5
18F
  8
0
 62
     1
 10
4.6248680000000002
 20
-53.599139999999998
 30
0.0
 11
4.6760279999999987
 21
-53.524726000000001
 31
0.0
  0
LINE
  5
18E
  8
0
 62
     1
 10
4.6751670000000001
 20
-53.524726000000001
 30
0.0
 11
4.725636999999999
 21
-53.424129000000001
 31
0.0
  0
LINE
  5
18D
  8
0
 62
     1
 10
4.7247760000000003
 20
-53.424129000000001
 30
0.0
 11
4.7759359999999988
 21
-53.349715000000003
 31
0.0
  0
LINE
  5
18C
  8
0
 62
     1
 10
4.7750750000000002
 20
-53.349715000000003
 30
0.0
 11
4.8262339999999986
 21
-53.249118000000003
 31
0.0
  0
LINE
  5
18B
  8
0
 62
     1
 10
4.8255449999999991
 20
-53.249118000000003
 30
0.0
 11
4.850693999999999
 21
-53.174704000000013
 31
0.0
  0
LINE
  5
18A
  8
0
 62
     1
 10
4.8503499999999988
 20
-53.174704000000013
 30
0.0
 11
4.8754989999999987
 21
-53.074107999999988
 31
0.0
  0
LINE
  5
189
  8
0
 62
     1
 10
4.8751550000000003
 20
-53.074107999999988
 30
0.0
 11
4.9003040000000002
 21
-52.974200000000003
 31
0.0
  0
LINE
  5
188
  8
0
 62
     1
 10
4.8999589999999991
 20
-52.974200000000003
 30
0.0
 11
4.9257980000000003
 21
-52.874291999999997
 31
0.0
  0
LINE
  5
187
  8
0
 62
     1
 10
4.9254530000000001
 20
-52.874291999999997
 30
0.0
 11
4.9506019999999991
 21
-52.774383999999998
 31
0.0
  0
LINE
  5
186
  8
0
 62
     1
 10
4.950429999999999
 20
-52.774383999999998
 30
0.0
 11
4.950429999999999
 21
-52.699281000000013
 31
0.0
  0
LINE
  5
185
  8
0
 62
     1
 10
4.950429999999999
 20
-52.699281000000013
 30
0.0
 11
4.950429999999999
 21
-52.599373
 31
0.0
  0
LINE
  5
184
  8
0
 62
     1
 10
4.950429999999999
 20
-52.599373
 30
0.0
 11
4.950429999999999
 21
-52.499466000000012
 31
0.0
  0
LINE
  5
183
  8
0
 62
     1
 10
4.950429999999999
 20
-52.499466000000012
 30
0.0
 11
4.950429999999999
 21
-52.399557999999999
 31
0.0
  0
LINE
  5
182
  8
0
 62
     1
 10
4.950429999999999
 20
-52.399557999999999
 30
0.0
 11
4.950429999999999
 21
-52.299649999999993
 31
0.0
  0
LINE
  5
181
  8
0
 62
     1
 10
4.9506019999999991
 20
-52.299649999999993
 30
0.0
 11
4.9254530000000001
 21
-52.199742000000001
 31
0.0
  0
LINE
  5
180
  8
0
 62
     1
 10
4.9257980000000003
 20
-52.199742000000001
 30
0.0
 11
4.8999589999999991
 21
-52.099146000000012
 31
0.0
  0
LINE
  5
17F
  8
0
 62
     1
 10
4.9003040000000002
 20
-52.099146000000012
 30
0.0
 11
4.8751550000000003
 21
-51.999237999999998
 31
0.0
  0
LINE
  5
17E
  8
0
 62
     1
 10
4.8754989999999987
 20
-51.999237999999998
 30
0.0
 11
4.8503499999999988
 21
-51.924135
 31
0.0
  0
LINE
  5
17D
  8
0
 62
     1
 10
4.850693999999999
 20
-51.924135
 30
0.0
 11
4.8255449999999991
 21
-51.824227
 31
0.0
  0
LINE
  5
17C
  8
0
 62
     1
 10
4.8262339999999986
 20
-51.824227
 30
0.0
 11
4.7750750000000002
 21
-51.724319000000001
 31
0.0
  0
LINE
  5
17B
  8
0
 62
     1
 10
4.7759359999999988
 20
-51.724319000000001
 30
0.0
 11
4.7247760000000003
 21
-51.649215999999988
 31
0.0
  0
LINE
  5
17A
  8
0
 62
     1
 10
4.7252929999999989
 20
-51.649215999999988
 30
0.0
 11
4.700143999999999
 21
-51.549308000000003
 31
0.0
  0
LINE
  5
179
  8
0
 62
     1
 10
4.7010050000000003
 20
-51.549308000000003
 30
0.0
 11
4.6246960000000001
 21
-51.474204999999991
 31
0.0
  0
LINE
  5
178
  8
0
 62
     1
 10
4.625729999999999
 20
-51.474204999999991
 30
0.0
 11
4.5752589999999991
 21
-51.399101999999999
 31
0.0
  0
LINE
  5
177
  8
0
 62
     1
 10
4.5761199999999986
 20
-51.399101999999999
 30
0.0
 11
4.5249610000000002
 21
-51.324688000000002
 31
0.0
  0
LINE
  5
176
  8
0
 62
     1
 10
4.525993999999999
 20
-51.324688000000002
 30
0.0
 11
4.4496849999999988
 21
-51.249584999999989
 31
0.0
  0
LINE
  5
175
  8
0
 62
     1
 10
4.4508910000000004
 20
-51.249584999999989
 30
0.0
 11
4.3745820000000002
 21
-51.174481999999998
 31
0.0
  0
LINE
  5
174
  8
0
 62
     1
 10
4.375788
 20
-51.174481999999998
 30
0.0
 11
4.3001680000000002
 21
-51.124183000000002
 31
0.0
  0
LINE
  5
173
  8
0
 62
     1
 10
4.301374
 20
-51.124183000000002
 30
0.0
 11
4.225064999999999
 21
-51.049079999999996
 31
0.0
  0
POLYLINE
  5
172
  8
0
 62
     1
 10
4.5997193007812491
 20
6.1753339999999994
 30
0.0
 66
     1
 70
     8
  0
VERTEX
  8
0
  5
268
 10
4.59972
 20
6.17533
 30
0.000000
  70
    32
  0
VERTEX
  8
0
  5
269
 10
4.59791
 20
6.24772
 30
0.000000
  70
    32
  0
VERTEX
  8
0
  5
26A
 10
4.59250
 20
6.31993
 30
0.000000
  70
    32
  0
VERTEX
  8
0
  5
26B
 10
4.58349
 20
6.39179
 30
0.000000
  70
    32
  0
VERTEX
  8
0
  5
26C
 10
4.57091
 20
6.46313
 30
0.000000
  70
    32
  0
VERTEX
  8
0
  5
26D
 10
4.55479
 20
6.53378
 30
0.000000
  70
    32
  0
VERTEX
  8
0
  5
26E
 10
4.53517
 20
6.60356
 30
0.000000
  70
    32
  0
VERTEX
  8
0
  5
26F
 10
4.51209
 20
6.67231
 30
0.000000
  70
    32
  0
VERTEX
  8
0
  5
270
 10
4.48560
 20
6.73986
 30
0.000000
  70
    32
  0
VERTEX
  8
0
  5
271
 10
4.45579
 20
6.80606
 30
0.000000
  70
    32
  0
VERTEX
  8
0
  5
272
 10
4.42270
 20
6.87073
 30
0.000000
  70
    32
  0
VERTEX
  8
0
  5
273
 10
4.38644
 20
6.93373
 30
0.000000
  70
    32
  0
VERTEX
  8
0
  5
274
 10
4.34707
 20
6.99491
 30
0.000000
  70
    32
  0
VERTEX
  8
0
  5
275
 10
4.30470
 20
7.05410
 30
0.000000
  70
    32
  0
VERTEX
  8
0
  5
276
 10
4.25943
 20
7.11118
 30
0.000000
  70
    32
  0
VERTEX
  8
0
  5
277
 10
4.21137
 20
7.16601
 30
0.000000
  70
    32
  0
VERTEX
  8
0
  5
278
 10
4.16063
 20
7.21845
 30
0.000000
  70
    32
  0
VERTEX
  8
0
  5
279
 10
4.10734
 20
7.26838
 30
0.000000
  70
    32
  0
VERTEX
  8
0
  5
27A
 10
4.05163
 20
7.31567
 30
0.000000
  70
    32
  0
VERTEX
  8
0
  5
27B
 10
3.99362
 20
7.36022
 30
0.000000
  70
    32
  0
VERTEX
  8
0
  5
27C
 10
3.93346
 20
7.40191
 30
0.000000
  70
    32
  0
VERTEX
  8
0
  5
27D
 10
3.87129
 20
7.44065
 30
0.000000
  70
    32
  0
VERTEX
  8
0
  5
27E
 10
3.80727
 20
7.47633
 30
0.000000
  70
    32
  0
VERTEX
  8
0
  5
27F
 10
3.74155
 20
7.50889
 30
0.000000
  70
    32
  0
VERTEX
  8
0
  5
280
 10
3.67428
 20
7.53823
 30
0.000000
  70
    32
  0
VERTEX
  8
0
  5
281
 10
3.60563
 20
7.56429
 30
0.000000
  70
    32
  0
VERTEX
  8
0
  5
282
 10
3.53576
 20
7.58700
 30
0.000000
  70
    32
  0
VERTEX
  8
0
  5
283
 10
3.46485
 20
7.60631
 30
0.000000
  70
    32
  0
VERTEX
  8
0
  5
284
 10
3.39305
 20
7.62218
 30
0.000000
  70
    32
  0
VERTEX
  8
0
  5
285
 10
3.32055
 20
7.63456
 30
0.000000
  70
    32
  0
VERTEX
  8
0
  5
286
 10
3.24753
 20
7.64342
 30
0.000000
  70
    32
  0
VERTEX
  8
0
  5
287
 10
3.17414
 20
7.64875
 30
0.000000
  70
    32
  0
VERTEX
  8
0
  5
288
 10
3.10059
 20
7.65052
 30
0.000000
  70
    32
  0
VERTEX
  8
0
  5
289
 10
3.02703
 20
7.64875
 30
0.000000
  70
    32
  0
VERTEX
  8
0
  5
28A
 10
2.95365
 20
7.64342
 30
0.000000
  70
    32
  0
VERTEX
  8
0
  5
28B
 10
2.88062
 20
7.63456
 30
0.000000
  70
    32
  0
VERTEX
  8
0
  5
28C
 10
2.80812
 20
7.62218
 30
0.000000
  70
    32
  0
VERTEX
  8
0
  5
28D
 10
2.73633
 20
7.60631
 30
0.000000
  70
    32
  0
VERTEX
  8
0
  5
28E
 10
2.66541
 20
7.58700
 30
0.000000
  70
    32
  0
VERTEX
  8
0
  5
28F
 10
2.59554
 20
7.56429
 30
0.000000
  70
    32
  0
VERTEX
  8
0
  5
290
 10
2.52689
 20
7.53823
 30
0.000000
  70
    32
  0
VERTEX
  8
0
  5
291
 10
2.45962
 20
7.50889
 30
0.000000
  70
    32
  0
VERTEX
  8
0
  5
292
 10
2.39390
 20
7.47633
 30
0.000000
  70
    32
  0
VERTEX
  8
0
  5
293
 10
2.32988
 20
7.44065
 30
0.000000
  70
    32
  0
VERTEX
  8
0
  5
294
 10
2.26771
 20
7.40191
 30
0.000000
  70
    32
  0
VERTEX
  8
0
  5
295
 10
2.20755
 20
7.36022
 30
0.000000
  70
    32
  0
VERTEX
  8
0
  5
296
 10
2.14955
 20
7.31567
 30
0.000000
  70
    32
  0
VERTEX
  8
0
  5
297
 10
2.09383
 20
7.26838
 30
0.000000
  70
    32
  0
VERTEX
  8
0
  5
298
 10
2.04054
 20
7.21845
 30
0.000000
  70
    32
  0
VERTEX
  8
0
  5
299
 10
1.98980
 20
7.16601
 30
0.000000
  70
    32
  0
VERTEX
  8
0
  5
29A
 10
1.94174
 20
7.11118
 30
0.000000
  70
    32
  0
VERTEX
  8
0
  5
29B
 10
1.89647
 20
7.05410
 30
0.000000
  70
    32
  0
VERTEX
  8
0
  5
29C
 10
1.85410
 20
6.99491
 30
0.000000
  70
    32
  0
VERTEX
  8
0
  5
29D
 10
1.81474
 20
6.93373
 30
0.000000
  70
    32
  0
VERTEX
  8
0
  5
29E
 10
1.77847
 20
6.87073
 30
0.000000
  70
    32
  0
VERTEX
  8
0
  5
29F
 10
1.74539
 20
6.80606
 30
0.000000
  70
    32
  0
VERTEX
  8
0
  5
2A0
 10
1.71557
 20
6.73986
 30
0.000000
  70
    32
  0
VERTEX
  8
0
  5
2A1
 10
1.68909
 20
6.67231
 30
0.000000
  70
    32
  0
VERTEX
  8
0
  5
2A2
 10
1.66600
 20
6.60356
 30
0.000000
  70
    32
  0
VERTEX
  8
0
  5
2A3
 10
1.64638
 20
6.53378
 30
0.000000
  70
    32
  0
VERTEX
  8
0
  5
2A4
 10
1.63026
 20
6.46313
 30
0.000000
  70
    32
  0
VERTEX
  8
0
  5
2A5
 10
1.61768
 20
6.39179
 30
0.000000
  70
    32
  0
VERTEX
  8
0
  5
2A6
 10
1.60867
 20
6.31993
 30
0.000000
  70
    32
  0
VERTEX
  8
0
  5
2A7
 10
1.60326
 20
6.24772
 30
0.000000
  70
    32
  0
VERTEX
  8
0
  5
2A8
 10
1.60145
 20
6.17533
 30
0.000000
  70
    32
  0
VERTEX
  8
0
  5
2A9
 10
1.60326
 20
6.10295
 30
0.000000
  70
    32
  0
VERTEX
  8
0
  5
2AA
 10
1.60867
 20
6.03074
 30
0.000000
  70
    32
  0
VERTEX
  8
0
  5
2AB
 10
1.61768
 20
5.95888
 30
0.000000
  70
    32
  0
VERTEX
  8
0
  5
2AC
 10
1.63026
 20
5.88754
 30
0.000000
  70
    32
  0
VERTEX
  8
0
  5
2AD
 10
1.64638
 20
5.81689
 30
0.000000
  70
    32
  0
VERTEX
  8
0
  5
2AE
 10
1.66600
 20
5.74711
 30
0.000000
  70
    32
  0
VERTEX
  8
0
  5
2AF
 10
1.68909
 20
5.67836
 30
0.000000
  70
    32
  0
VERTEX
  8
0
  5
2B0
 10
1.71557
 20
5.61080
 30
0.000000
  70
    32
  0
VERTEX
  8
0
  5
2B1
 10
1.74539
 20
5.54461
 30
0.000000
  70
    32
  0
VERTEX
  8
0
  5
2B2
 10
1.77847
 20
5.47993
 30
0.000000
  70
    32
  0
VERTEX
  8
0
  5
2B3
 10
1.81474
 20
5.41694
 30
0.000000
  70
    32
  0
VERTEX
  8
0
  5
2B4
 10
1.85410
 20
5.35576
 30
0.000000
  70
    32
  0
VERTEX
  8
0
  5
2B5
 10
1.89647
 20
5.29656
 30
0.000000
  70
    32
  0
VERTEX
  8
0
  5
2B6
 10
1.94174
 20
5.23948
 30
0.000000
  70
    32
  0
VERTEX
  8
0
  5
2B7
 10
1.98980
 20
5.18466
 30
0.000000
  70
    32
  0
VERTEX
  8
0
  5
2B8
 10
2.04054
 20
5.13222
 30
0.000000
  70
    32
  0
VERTEX
  8
0
  5
2B9
 10
2.09383
 20
5.08229
 30
0.000000
  70
    32
  0
VERTEX
  8
0
  5
2BA
 10
2.14955
 20
5.03500
 30
0.000000
  70
    32
  0
VERTEX
  8
0
  5
2BB
 10
2.20755
 20
4.99045
 30
0.000000
  70
    32
  0
VERTEX
  8
0
  5
2BC
 10
2.26771
 20
4.94876
 30
0.000000
  70
    32
  0
VERTEX
  8
0
  5
2BD
 10
2.32988
 20
4.91002
 30
0.000000
  70
    32
  0
VERTEX
  8
0
  5
2BE
 10
2.39390
 20
4.87433
 30
0.000000
  70
    32
  0
VERTEX
  8
0
  5
2BF
 10
2.45962
 20
4.84178
 30
0.000000
  70
    32
  0
VERTEX
  8
0
  5
2C0
 10
2.52689
 20
4.81244
 30
0.000000
  70
    32
  0
VERTEX
  8
0
  5
2C1
 10
2.59554
 20
4.78638
 30
0.000000
  70
    32
  0
VERTEX
  8
0
  5
2C2
 10
2.66541
 20
4.76367
 30
0.000000
  70
    32
  0
VERTEX
  8
0
  5
2C3
 10
2.73633
 20
4.74435
 30
0.000000
  70
    32
  0
VERTEX
  8
0
  5
2C4
 10
2.80812
 20
4.72849
 30
0.000000
  70
    32
  0
VERTEX
  8
0
  5
2C5
 10
2.88062
 20
4.71611
 30
0.000000
  70
    32
  0
VERTEX
  8
0
  5
2C6
 10
2.95365
 20
4.70725
 30
0.000000
  70
    32
  0
VERTEX
  8
0
  5
2C7
 10
3.02703
 20
4.70192
 30
0.000000
  70
    32
  0
VERTEX
  8
0
  5
2C8
 10
3.10059
 20
4.70014
 30
0.000000
  70
    32
  0
VERTEX
  8
0
  5
2C9
 10
3.17414
 20
4.70192
 30
0.000000
  70
    32
  0
VERTEX
  8
0
  5
2CA
 10
3.24753
 20
4.70725
 30
0.000000
  70
    32
  0
VERTEX
  8
0
  5
2CB
 10
3.32055
 20
4.71611
 30
0.000000
  70
    32
  0
VERTEX
  8
0
  5
2CC
 10
3.39305
 20
4.72849
 30
0.000000
  70
    32
  0
VERTEX
  8
0
  5
2CD
 10
3.46485
 20
4.74435
 30
0.000000
  70
    32
  0
VERTEX
  8
0
  5
2CE
 10
3.53576
 20
4.76367
 30
0.000000
  70
    32
  0
VERTEX
  8
0
  5
2CF
 10
3.60563
 20
4.78638
 30
0.000000
  70
    32
  0
VERTEX
  8
0
  5
2D0
 10
3.67428
 20
4.81244
 30
0.000000
  70
    32
  0
VERTEX
  8
0
  5
2D1
 10
3.74155
 20
4.84178
 30
0.000000
  70
    32
  0
VERTEX
  8
0
  5
2D2
 10
3.80727
 20
4.87433
 30
0.000000
  70
    32
  0
VERTEX
  8
0
  5
2D3
 10
3.87129
 20
4.91002
 30
0.000000
  70
    32
  0
VERTEX
  8
0
  5
2D4
 10
3.93346
 20
4.94876
 30
0.000000
  70
    32
  0
VERTEX
  8
0
  5
2D5
 10
3.99362
 20
4.99045
 30
0.000000
  70
    32
  0
VERTEX
  8
0
  5
2D6
 10
4.05163
 20
5.03500
 30
0.000000
  70
    32
  0
VERTEX
  8
0
  5
2D7
 10
4.10734
 20
5.08229
 30
0.000000
  70
    32
  0
VERTEX
  8
0
  5
2D8
 10
4.16063
 20
5.13222
 30
0.000000
  70
    32
  0
VERTEX
  8
0
  5
2D9
 10
4.21137
 20
5.18466
 30
0.000000
  70
    32
  0
VERTEX
  8
0
  5
2DA
 10
4.25943
 20
5.23948
 30
0.000000
  70
    32
  0
VERTEX
  8
0
  5
2DB
 10
4.30470
 20
5.29656
 30
0.000000
  70
    32
  0
VERTEX
  8
0
  5
2DC
 10
4.34707
 20
5.35576
 30
0.000000
  70
    32
  0
VERTEX
  8
0
  5
2DD
 10
4.38644
 20
5.41694
 30
0.000000
  70
    32
  0
VERTEX
  8
0
  5
2DE
 10
4.42270
 20
5.47993
 30
0.000000
  70
    32
  0
VERTEX
  8
0
  5
2DF
 10
4.45579
 20
5.54461
 30
0.000000
  70
    32
  0
VERTEX
  8
0
  5
2E0
 10
4.48560
 20
5.61080
 30
0.000000
  70
    32
  0
VERTEX
  8
0
  5
2E1
 10
4.51209
 20
5.67836
 30
0.000000
  70
    32
  0
VERTEX
  8
0
  5
2E2
 10
4.53517
 20
5.74711
 30
0.000000
  70
    32
  0
VERTEX
  8
0
  5
2E3
 10
4.55479
 20
5.81689
 30
0.000000
  70
    32
  0
VERTEX
  8
0
  5
2E4
 10
4.57091
 20
5.88754
 30
0.000000
  70
    32
  0
VERTEX
  8
0
  5
2E5
 10
4.58349
 20
5.95888
 30
0.000000
  70
    32
  0
VERTEX
  8
0
  5
2E6
 10
4.59250
 20
6.03074
 30
0.000000
  70
    32
  0
VERTEX
  8
0
  5
2E7
 10
4.59791
 20
6.10295
 30
0.000000
  70
    32
  0
VERTEX
  8
0
  5
2E8
 10
4.59972
 20
6.17533
 30
0.000000
  70
    32
  0
SEQEND
  8
0
  5
2E9
  0
LINE
  5
171
  8
0
 62
     1
 10
1.800924
 20
-44.174737
 30
0.0
 11
1.750108999999999
 21
-44.224345999999997
 31
0.0
  0
LINE
  5
170
  8
0
 62
     1
 10
1.7511419999999991
 20
-44.224345999999997
 30
0.0
 11
1.674833
 21
-44.299448999999989
 31
0.0
  0
LINE
  5
16F
  8
0
 62
     1
 10
1.6760389999999989
 20
-44.299448999999989
 30
0.0
 11
1.599729999999999
 21
-44.374552000000001
 31
0.0
  0
LINE
  5
16E
  8
0
 62
     1
 10
1.600763999999999
 20
-44.374552000000001
 30
0.0
 11
1.549947999999999
 21
-44.449655
 31
0.0
  0
LINE
  5
16D
  8
0
 62
     1
 10
1.55081
 20
-44.449655
 30
0.0
 11
1.499995
 21
-44.549562999999999
 31
0.0
  0
LINE
  5
16C
  8
0
 62
     1
 10
1.5008559999999991
 20
-44.549562999999999
 30
0.0
 11
1.450040999999999
 21
-44.624665999999991
 31
0.0
  0
LINE
  5
16B
  8
0
 62
     1
 10
1.4509019999999999
 20
-44.624665999999991
 30
0.0
 11
1.4000870000000001
 21
-44.72457399999999
 31
0.0
  0
LINE
  5
16A
  8
0
 62
     1
 10
1.400604
 20
-44.72457399999999
 30
0.0
 11
1.3751100000000001
 21
-44.799677000000003
 31
0.0
  0
LINE
  5
169
  8
0
 62
     1
 10
1.3757989999999991
 20
-44.799677000000003
 30
0.0
 11
1.3249839999999991
 21
-44.899584999999988
 31
0.0
  0
LINE
  5
168
  8
0
 62
     1
 10
1.325499999999999
 20
-44.899584999999988
 30
0.0
 11
1.300351
 21
-44.999492999999987
 31
0.0
  0
LINE
  5
167
  8
0
 62
     1
 10
1.300695999999999
 20
-44.999492999999987
 30
0.0
 11
1.2752019999999991
 21
-45.074595999999993
 31
0.0
  0
LINE
  5
166
  8
0
 62
     1
 10
1.2755469999999991
 20
-45.074595999999993
 30
0.0
 11
1.2503969999999991
 21
-45.174503999999999
 31
0.0
  0
LINE
  5
165
  8
0
 62
     1
 10
1.250742
 20
-45.174503999999999
 30
0.0
 11
1.225247999999999
 21
-45.274410999999994
 31
0.0
  0
LINE
  5
164
  8
0
 62
     1
 10
1.22542
 20
-45.274410999999994
 30
0.0
 11
1.22542
 21
-45.374319
 31
0.0
  0
LINE
  5
163
  8
0
 62
     1
 10
1.22542
 20
-45.374319
 30
0.0
 11
1.22542
 21
-45.474226999999999
 31
0.0
  0
LINE
  5
162
  8
0
 62
     1
 10
1.22542
 20
-45.474226999999999
 30
0.0
 11
1.22542
 21
-45.574134999999998
 31
0.0
  0
LINE
  5
161
  8
0
 62
     1
 10
1.22542
 20
-45.574134999999998
 30
0.0
 11
1.22542
 21
-45.674730999999987
 31
0.0
  0
LINE
  5
160
  8
0
 62
     1
 10
1.22542
 20
-45.674730999999987
 30
0.0
 11
1.22542
 21
-45.774639000000001
 31
0.0
  0
LINE
  5
15F
  8
0
 62
     1
 10
1.225247999999999
 20
-45.774639000000001
 30
0.0
 11
1.250742
 21
-45.849741999999999
 31
0.0
  0
LINE
  5
15E
  8
0
 62
     1
 10
1.2503969999999991
 20
-45.849741999999999
 30
0.0
 11
1.2755469999999991
 21
-45.949649999999998
 31
0.0
  0
LINE
  5
15D
  8
0
 62
     1
 10
1.2752019999999991
 20
-45.949649999999998
 30
0.0
 11
1.300695999999999
 21
-46.049557999999998
 31
0.0
  0
LINE
  5
15C
  8
0
 62
     1
 10
1.300351
 20
-46.049557999999998
 30
0.0
 11
1.325499999999999
 21
-46.14946599999999
 31
0.0
  0
LINE
  5
15B
  8
0
 62
     1
 10
1.325156
 20
-46.14946599999999
 30
0.0
 11
1.350649999999999
 21
-46.224569000000002
 31
0.0
  0
LINE
  5
15A
  8
0
 62
     1
 10
1.350133
 20
-46.224569000000002
 30
0.0
 11
1.400947999999999
 21
-46.324475999999997
 31
0.0
  0
LINE
  5
159
  8
0
 62
     1
 10
1.400258999999999
 20
-46.324475999999997
 30
0.0
 11
1.425408
 21
-46.424384000000003
 31
0.0
  0
LINE
  5
158
  8
0
 62
     1
 10
1.424890999999999
 20
-46.424384000000003
 30
0.0
 11
1.476051
 21
-46.499487000000002
 31
0.0
  0
LINE
  5
157
  8
0
 62
     1
 10
1.47519
 20
-46.499487000000002
 30
0.0
 11
1.5260049999999989
 21
-46.574590000000001
 31
0.0
  0
LINE
  5
156
  8
0
 62
     1
 10
1.5249719999999991
 20
-46.574590000000001
 30
0.0
 11
1.6009359999999999
 21
-46.649692999999999
 31
0.0
  0
LINE
  5
155
  8
0
 62
     1
 10
1.599901999999999
 20
-46.649692999999999
 30
0.0
 11
1.6510619999999989
 21
-46.749600999999991
 31
0.0
  0
LINE
  5
154
  8
0
 62
     1
 10
1.6500279999999989
 20
-46.749600999999991
 30
0.0
 11
1.7259930000000001
 21
-46.799211
 31
0.0
  0
LINE
  5
153
  8
0
 62
     1
 10
1.724958999999999
 20
-46.799211
 30
0.0
 11
1.775774
 21
-46.874313999999998
 31
0.0
  0
LINE
  5
152
  8
0
 62
     1
 10
1.774740999999999
 20
-46.874313999999998
 30
0.0
 11
1.8510500000000001
 21
-46.949416999999997
 31
0.0
  0
LINE
  5
151
  8
0
 62
     1
 10
1.8498439999999989
 20
-46.949416999999997
 30
0.0
 11
1.9261529999999989
 21
-46.999715000000002
 31
0.0
  0
LINE
  5
150
  8
0
 62
     1
 10
1.924774999999999
 20
-46.999715000000002
 30
0.0
 11
2.026233
 21
-47.074128999999999
 31
0.0
  0
LINE
  5
14F
  8
0
 62
     1
 10
2.0248550000000001
 20
-47.074128999999999
 30
0.0
 11
2.1011639999999989
 21
-47.124428000000002
 31
0.0
  0
LINE
  5
14E
  8
0
 62
     1
 10
2.0999579999999991
 20
-47.124428000000002
 30
0.0
 11
2.175921999999999
 21
-47.174725999999993
 31
0.0
  0
LINE
  5
14D
  8
0
 62
     1
 10
2.174544
 20
-47.174725999999993
 30
0.0
 11
2.276346999999999
 21
-47.224335000000004
 31
0.0
  0
LINE
  5
14C
  8
0
 62
     1
 10
2.274969
 20
-47.224335000000004
 30
0.0
 11
2.3509329999999999
 21
-47.249139999999997
 31
0.0
  0
LINE
  5
14B
  8
0
 62
     1
 10
2.3495550000000001
 20
-47.249139999999997
 30
0.0
 11
2.4513579999999999
 21
-47.299438000000002
 31
0.0
  0
LINE
  5
14A
  8
0
 62
     1
 10
2.449806999999999
 20
-47.299438000000002
 30
0.0
 11
2.5512649999999999
 21
-47.324243000000003
 31
0.0
  0
LINE
  5
149
  8
0
 62
     1
 10
2.549887
 20
-47.324243000000003
 30
0.0
 11
2.6261959999999989
 21
-47.349736999999998
 31
0.0
  0
LINE
  5
148
  8
0
 62
     1
 10
2.624817999999999
 20
-47.349736999999998
 30
0.0
 11
2.726275999999999
 21
-47.374541999999998
 31
0.0
  0
LINE
  5
147
  8
0
 62
     1
 10
2.7247259999999991
 20
-47.374541999999998
 30
0.0
 11
2.8261839999999991
 21
-47.399346000000001
 31
0.0
  0
LINE
  5
146
  8
0
 62
     1
 10
2.8246340000000001
 20
-47.399346000000001
 30
0.0
 11
2.9260919999999988
 21
-47.399346000000001
 31
0.0
  0
LINE
  5
145
  8
0
 62
     1
 10
2.9245419999999989
 20
-47.399346000000001
 30
0.0
 11
3.026343999999999
 21
-47.399346000000001
 31
0.0
  0
LINE
  5
144
  8
0
 62
     1
 10
3.0247939999999991
 20
-47.399346000000001
 30
0.0
 11
3.126252
 21
-47.399346000000001
 31
0.0
  0
LINE
  5
143
  8
0
 62
     1
 10
3.1247020000000001
 20
-47.399346000000001
 30
0.0
 11
3.2261599999999988
 21
-47.399346000000001
 31
0.0
  0
LINE
  5
142
  8
0
 62
     1
 10
3.2246090000000001
 20
-47.399346000000001
 30
0.0
 11
3.3265839999999991
 21
-47.399346000000001
 31
0.0
  0
LINE
  5
141
  8
0
 62
     1
 10
3.3250339999999992
 20
-47.399346000000001
 30
0.0
 11
3.4264919999999992
 21
-47.374541999999998
 31
0.0
  0
LINE
  5
140
  8
0
 62
     1
 10
3.4251139999999989
 20
-47.374541999999998
 30
0.0
 11
3.501423
 21
-47.349736999999998
 31
0.0
  0
LINE
  5
13F
  8
0
 62
     1
 10
3.5000449999999992
 20
-47.349736999999998
 30
0.0
 11
3.6015029999999988
 21
-47.324243000000003
 31
0.0
  0
LINE
  5
13E
  8
0
 62
     1
 10
3.5999529999999988
 20
-47.324243000000003
 30
0.0
 11
3.7014109999999998
 21
-47.299438000000002
 31
0.0
  0
LINE
  5
13D
  8
0
 62
     1
 10
3.6998599999999988
 20
-47.299438000000002
 30
0.0
 11
3.8013180000000002
 21
-47.274633999999999
 31
0.0
  0
LINE
  5
13C
  8
0
 62
     1
 10
3.7999399999999999
 20
-47.274633999999999
 30
0.0
 11
3.8762489999999992
 21
-47.224335000000004
 31
0.0
  0
LINE
  5
13B
  8
0
 62
     1
 10
3.8748709999999988
 20
-47.224335000000004
 30
0.0
 11
3.9763289999999998
 21
-47.199531
 31
0.0
  0
LINE
  5
13A
  8
0
 62
     1
 10
3.9749509999999999
 20
-47.199531
 30
0.0
 11
4.0512600000000001
 21
-47.149231999999998
 31
0.0
  0
LINE
  5
139
  8
0
 62
     1
 10
4.0500540000000003
 20
-47.149231999999998
 30
0.0
 11
4.1263629999999987
 21
-47.074128999999999
 31
0.0
  0
LINE
  5
138
  8
0
 62
     1
 10
4.1249849999999988
 20
-47.074128999999999
 30
0.0
 11
4.2264429999999988
 21
-47.024520000000003
 31
0.0
  0
LINE
  5
137
  8
0
 62
     1
 10
4.225064999999999
 20
-47.024520000000003
 30
0.0
 11
4.301374
 21
-46.974220999999993
 31
0.0
  0
LINE
  5
136
  8
0
 62
     1
 10
4.3001680000000002
 20
-46.974220999999993
 30
0.0
 11
4.375788
 21
-46.899117999999987
 31
0.0
  0
LINE
  5
135
  8
0
 62
     1
 10
4.3747550000000004
 20
-46.899117999999987
 30
0.0
 11
4.4259139999999988
 21
-46.82470399999999
 31
0.0
  0
LINE
  5
134
  8
0
 62
     1
 10
4.4248810000000001
 20
-46.82470399999999
 30
0.0
 11
4.5011900000000002
 21
-46.774405999999992
 31
0.0
  0
LINE
  5
133
  8
0
 62
     1
 10
4.5001559999999987
 20
-46.774405999999992
 30
0.0
 11
4.5506269999999986
 21
-46.674497999999993
 31
0.0
  0
LINE
  5
132
  8
0
 62
     1
 10
4.5495929999999989
 20
-46.674497999999993
 30
0.0
 11
4.6259019999999991
 21
-46.599395000000001
 31
0.0
  0
LINE
  5
131
  8
0
 62
     1
 10
4.6248680000000002
 20
-46.599395000000001
 30
0.0
 11
4.6760279999999987
 21
-46.524291999999988
 31
0.0
  0
LINE
  5
130
  8
0
 62
     1
 10
4.6751670000000001
 20
-46.524291999999988
 30
0.0
 11
4.725636999999999
 21
-46.449188999999997
 31
0.0
  0
LINE
  5
12F
  8
0
 62
     1
 10
4.7247760000000003
 20
-46.449188999999997
 30
0.0
 11
4.7759359999999988
 21
-46.349280999999991
 31
0.0
  0
LINE
  5
12E
  8
0
 62
     1
 10
4.7752470000000002
 20
-46.349280999999991
 30
0.0
 11
4.8003960000000001
 21
-46.274177999999999
 31
0.0
  0
LINE
  5
12D
  8
0
 62
     1
 10
4.7998789999999989
 20
-46.274177999999999
 30
0.0
 11
4.8510390000000001
 21
-46.17427
 31
0.0
  0
LINE
  5
12C
  8
0
 62
     1
 10
4.8503499999999988
 20
-46.17427
 30
0.0
 11
4.8754989999999987
 21
-46.074362999999991
 31
0.0
  0
LINE
  5
12B
  8
0
 62
     1
 10
4.8751550000000003
 20
-46.074362999999991
 30
0.0
 11
4.9003040000000002
 21
-45.999259000000002
 31
0.0
  0
LINE
  5
12A
  8
0
 62
     1
 10
4.8999589999999991
 20
-45.999259000000002
 30
0.0
 11
4.9257980000000003
 21
-45.899352
 31
0.0
  0
LINE
  5
129
  8
0
 62
     1
 10
4.9254530000000001
 20
-45.899352
 30
0.0
 11
4.9506019999999991
 21
-45.799444000000001
 31
0.0
  0
LINE
  5
128
  8
0
 62
     1
 10
4.950429999999999
 20
-45.799444000000001
 30
0.0
 11
4.950429999999999
 21
-45.699536000000002
 31
0.0
  0
LINE
  5
127
  8
0
 62
     1
 10
4.950429999999999
 20
-45.699536000000002
 30
0.0
 11
4.950429999999999
 21
-45.599628000000003
 31
0.0
  0
LINE
  5
126
  8
0
 62
     1
 10
4.950429999999999
 20
-45.599628000000003
 30
0.0
 11
4.950429999999999
 21
-45.499721000000001
 31
0.0
  0
LINE
  5
125
  8
0
 62
     1
 10
4.950429999999999
 20
-45.499721000000001
 30
0.0
 11
4.950429999999999
 21
-45.399124
 31
0.0
  0
LINE
  5
124
  8
0
 62
     1
 10
4.950429999999999
 20
-45.399124
 30
0.0
 11
4.950429999999999
 21
-45.299215999999987
 31
0.0
  0
LINE
  5
123
  8
0
 62
     1
 10
4.9506019999999991
 20
-45.299215999999987
 30
0.0
 11
4.9254530000000001
 21
-45.199308000000002
 31
0.0
  0
LINE
  5
122
  8
0
 62
     1
 10
4.9257980000000003
 20
-45.199308000000002
 30
0.0
 11
4.8999589999999991
 21
-45.124205000000003
 31
0.0
  0
LINE
  5
121
  8
0
 62
     1
 10
4.9003040000000002
 20
-45.124205000000003
 30
0.0
 11
4.8751550000000003
 21
-45.02429699999999
 31
0.0
  0
LINE
  5
120
  8
0
 62
     1
 10
4.8754989999999987
 20
-45.02429699999999
 30
0.0
 11
4.8503499999999988
 21
-44.924390000000002
 31
0.0
  0
LINE
  5
11F
  8
0
 62
     1
 10
4.850693999999999
 20
-44.924390000000002
 30
0.0
 11
4.8255449999999991
 21
-44.824482000000003
 31
0.0
  0
LINE
  5
11E
  8
0
 62
     1
 10
4.8262339999999986
 20
-44.824482000000003
 30
0.0
 11
4.7750750000000002
 21
-44.74937899999999
 31
0.0
  0
LINE
  5
11D
  8
0
 62
     1
 10
4.7755910000000004
 20
-44.74937899999999
 30
0.0
 11
4.7504419999999987
 21
-44.649470999999998
 31
0.0
  0
LINE
  5
11C
  8
0
 62
     1
 10
4.7511309999999991
 20
-44.649470999999998
 30
0.0
 11
4.6999719999999989
 21
-44.574367999999993
 31
0.0
  0
LINE
  5
11B
  8
0
 62
     1
 10
4.7008330000000003
 20
-44.574367999999993
 30
0.0
 11
4.6503620000000003
 21
-44.499265000000001
 31
0.0
  0
LINE
  5
11A
  8
0
 62
     1
 10
4.6513960000000001
 20
-44.499265000000001
 30
0.0
 11
4.575086999999999
 21
-44.399357000000002
 31
0.0
  0
LINE
  5
119
  8
0
 62
     1
 10
4.5761199999999986
 20
-44.399357000000002
 30
0.0
 11
4.5249610000000002
 21
-44.324253999999989
 31
0.0
  0
LINE
  5
118
  8
0
 62
     1
 10
4.525993999999999
 20
-44.324253999999989
 30
0.0
 11
4.4496849999999988
 21
-44.249150999999991
 31
0.0
  0
LINE
  5
117
  8
0
 62
     1
 10
4.4508910000000004
 20
-44.249150999999991
 30
0.0
 11
4.3745820000000002
 21
-44.199542000000001
 31
0.0
  0
LINE
  5
116
  8
0
 62
     1
 10
4.3756159999999991
 20
-44.199542000000001
 30
0.0
 11
4.325145
 21
-44.124437999999998
 31
0.0
  0
LINE
  5
115
  8
0
 62
     1
 10
4.3261789999999989
 20
-44.124437999999998
 30
0.0
 11
4.2498699999999987
 21
-44.049334999999999
 31
0.0
  0
LINE
  5
114
  8
0
 62
     1
 10
1.950958
 20
-51.049079999999996
 30
0.0
 11
1.8749929999999999
 21
-51.099378999999999
 31
0.0
  0
LINE
  5
113
  8
0
 62
     1
 10
1.876199
 20
-51.099378999999999
 30
0.0
 11
1.79989
 21
-51.174481999999998
 31
0.0
  0
LINE
  5
112
  8
0
 62
     1
 10
1.8010959999999989
 20
-51.174481999999998
 30
0.0
 11
1.724786999999999
 21
-51.224090999999987
 31
0.0
  0
LINE
  5
111
  8
0
 62
     1
 10
1.7258209999999989
 20
-51.224090999999987
 30
0.0
 11
1.675004999999999
 21
-51.299194
 31
0.0
  0
LINE
  5
110
  8
0
 62
     1
 10
1.6760389999999989
 20
-51.299194
 30
0.0
 11
1.599729999999999
 21
-51.374296999999999
 31
0.0
  0
LINE
  5
10F
  8
0
 62
     1
 10
1.600763999999999
 20
-51.374296999999999
 30
0.0
 11
1.549947999999999
 21
-51.474204999999991
 31
0.0
  0
LINE
  5
10E
  8
0
 62
     1
 10
2.2012439999999991
 20
19.175746
 30
0.0
 11
2.099785999999999
 21
19.125447999999999
 31
0.0
  0
LINE
  5
10D
  8
0
 62
     1
 10
2.1011639999999989
 20
19.125447999999999
 30
0.0
 11
2.0248550000000001
 21
19.075838000000001
 31
0.0
  0
LINE
  5
10C
  8
0
 62
     1
 10
2.026060999999999
 20
19.075838000000001
 30
0.0
 11
1.9497519999999999
 21
19.000734999999999
 31
0.0
  0
LINE
  5
10B
  8
0
 62
     1
 10
1.950958
 20
19.000734999999999
 30
0.0
 11
1.8749929999999999
 21
18.950437000000001
 31
0.0
  0
LINE
  5
10A
  8
0
 62
     1
 10
1.876199
 20
18.950437000000001
 30
0.0
 11
1.79989
 21
18.875333999999999
 31
0.0
  0
LINE
  5
109
  8
0
 62
     1
 10
1.8010959999999989
 20
18.875333999999999
 30
0.0
 11
1.724786999999999
 21
18.800231
 31
0.0
  0
LINE
  5
108
  8
0
 62
     1
 10
1.7259930000000001
 20
18.800231
 30
0.0
 11
1.6500279999999989
 21
18.725816999999999
 31
0.0
  0
LINE
  5
107
  8
0
 62
     1
 10
1.6510619999999989
 20
18.725816999999999
 30
0.0
 11
1.599901999999999
 21
18.650713
 31
0.0
  0
LINE
  5
106
  8
0
 62
     1
 10
1.600763999999999
 20
18.650713
 30
0.0
 11
1.549947999999999
 21
18.575610000000001
 31
0.0
  0
LINE
  5
105
  8
0
 62
     1
 10
1.55081
 20
18.575610000000001
 30
0.0
 11
1.499995
 21
18.500506999999999
 31
0.0
  0
LINE
  5
104
  8
0
 62
     1
 10
1.5008559999999991
 20
18.500506999999999
 30
0.0
 11
1.450040999999999
 21
18.425404
 31
0.0
  0
LINE
  5
103
  8
0
 62
     1
 10
1.4509019999999999
 20
18.425404
 30
0.0
 11
1.4000870000000001
 21
18.325496000000001
 31
0.0
  0
LINE
  5
102
  8
0
 62
     1
 10
1.400947999999999
 20
18.325496000000001
 30
0.0
 11
1.350133
 21
18.225588999999999
 31
0.0
  0
LINE
  5
101
  8
0
 62
     1
 10
1.350649999999999
 20
18.225588999999999
 30
0.0
 11
1.325156
 21
18.150486000000001
 31
0.0
  0
LINE
  5
100
  8
0
 62
     1
 10
1.325499999999999
 20
18.150486000000001
 30
0.0
 11
1.300351
 21
18.050578000000002
 31
0.0
  0
LINE
  5
FF
  8
0
 62
     1
 10
1.300695999999999
 20
18.050578000000002
 30
0.0
 11
1.2752019999999991
 21
17.950669999999999
 31
0.0
  0
LINE
  5
FE
  8
0
 62
     1
 10
1.2755469999999991
 20
17.950669999999999
 30
0.0
 11
1.2503969999999991
 21
17.850762
 31
0.0
  0
LINE
  5
FD
  8
0
 62
     1
 10
1.250742
 20
17.850762
 30
0.0
 11
1.225247999999999
 21
17.775659000000001
 31
0.0
  0
LINE
  5
FC
  8
0
 62
     1
 10
1.22542
 20
17.775659000000001
 30
0.0
 11
1.22542
 21
17.675751000000002
 31
0.0
  0
LINE
  5
FB
  8
0
 62
     1
 10
1.22542
 20
17.675751000000002
 30
0.0
 11
1.22542
 21
17.575844
 31
0.0
  0
LINE
  5
FA
  8
0
 62
     1
 10
1.22542
 20
17.575844
 30
0.0
 11
1.22542
 21
17.475247
 31
0.0
  0
LINE
  5
F9
  8
0
 62
     1
 10
1.22542
 20
17.475247
 30
0.0
 11
1.22542
 21
17.375339
 31
0.0
  0
LINE
  5
F8
  8
0
 62
     1
 10
1.22542
 20
17.375339
 30
0.0
 11
1.22542
 21
17.275431000000001
 31
0.0
  0
LINE
  5
F7
  8
0
 62
     1
 10
1.225247999999999
 20
17.275431000000001
 30
0.0
 11
1.250742
 21
17.175523999999999
 31
0.0
  0
LINE
  5
F6
  8
0
 62
     1
 10
1.2503969999999991
 20
17.175523999999999
 30
0.0
 11
1.2755469999999991
 21
17.075616
 31
0.0
  0
LINE
  5
F5
  8
0
 62
     1
 10
1.2752019999999991
 20
17.075616
 30
0.0
 11
1.300695999999999
 21
17.000513000000002
 31
0.0
  0
LINE
  5
F4
  8
0
 62
     1
 10
1.300351
 20
17.000513000000002
 30
0.0
 11
1.325499999999999
 21
16.900604999999999
 31
0.0
  0
LINE
  5
F3
  8
0
 62
     1
 10
1.325156
 20
16.900604999999999
 30
0.0
 11
1.350649999999999
 21
16.800697
 31
0.0
  0
LINE
  5
F2
  8
0
 62
     1
 10
1.350133
 20
16.800697
 30
0.0
 11
1.400947999999999
 21
16.725594000000001
 31
0.0
  0
LINE
  5
F1
  8
0
 62
     1
 10
1.4000870000000001
 20
16.725594000000001
 30
0.0
 11
1.4509019999999999
 21
16.625686000000002
 31
0.0
  0
LINE
  5
F0
  8
0
 62
     1
 10
1.450040999999999
 20
16.625686000000002
 30
0.0
 11
1.5008559999999991
 21
16.550583
 31
0.0
  0
LINE
  5
EF
  8
0
 62
     1
 10
1.499995
 20
16.550583
 30
0.0
 11
1.55081
 21
16.450675
 31
0.0
  0
LINE
  5
EE
  8
0
 62
     1
 10
1.549947999999999
 20
16.450675
 30
0.0
 11
1.600763999999999
 21
16.375571999999998
 31
0.0
  0
LINE
  5
ED
  8
0
 62
     1
 10
1.599729999999999
 20
16.375571999999998
 30
0.0
 11
1.6760389999999989
 21
16.300469
 31
0.0
  0
LINE
  5
EC
  8
0
 62
     1
 10
1.675004999999999
 20
16.300469
 30
0.0
 11
1.7258209999999989
 21
16.225366000000001
 31
0.0
  0
LINE
  5
EB
  8
0
 62
     1
 10
1.724786999999999
 20
16.225366000000001
 30
0.0
 11
1.8010959999999989
 21
16.175757000000001
 31
0.0
  0
LINE
  5
EA
  8
0
 62
     1
 10
1.79989
 20
16.175757000000001
 30
0.0
 11
1.876199
 21
16.100653999999999
 31
0.0
  0
LINE
  5
E9
  8
0
 62
     1
 10
1.875165
 20
16.100653999999999
 30
0.0
 11
1.9259809999999999
 21
16.050355
 31
0.0
  0
LINE
  5
E8
  8
0
 62
     1
 10
1.22542
 20
-38.499287000000002
 30
0.0
 11
1.22542
 21
-38.599193999999997
 31
0.0
  0
LINE
  5
E7
  8
0
 62
     1
 10
1.22542
 20
-38.599193999999997
 30
0.0
 11
1.22542
 21
-38.699102000000011
 31
0.0
  0
LINE
  5
E6
  8
0
 62
     1
 10
1.225247999999999
 20
-38.699102000000011
 30
0.0
 11
1.250742
 21
-38.799698999999997
 31
0.0
  0
LINE
  5
E5
  8
0
 62
     1
 10
1.25057
 20
-38.799698999999997
 30
0.0
 11
1.25057
 21
-38.874113000000001
 31
0.0
  0
LINE
  5
E4
  8
0
 62
     1
 10
1.2503969999999991
 20
-38.874113000000001
 30
0.0
 11
1.2755469999999991
 21
-38.974709999999988
 31
0.0
  0
LINE
  5
E3
  8
0
 62
     1
 10
1.2752019999999991
 20
-38.974709999999988
 30
0.0
 11
1.300695999999999
 21
-39.074618000000001
 31
0.0
  0
LINE
  5
E2
  8
0
 62
     1
 10
1.300179
 20
-39.074618000000001
 30
0.0
 11
1.350994
 21
-39.174525000000003
 31
0.0
  0
LINE
  5
E1
  8
0
 62
     1
 10
1.350304999999999
 20
-39.174525000000003
 30
0.0
 11
1.375454
 21
-39.249628000000001
 31
0.0
  0
LINE
  5
E0
  8
0
 62
     1
 10
1.3749379999999991
 20
-39.249628000000001
 30
0.0
 11
1.425753
 21
-39.349536000000001
 31
0.0
  0
LINE
  5
DF
  8
0
 62
     1
 10
1.424890999999999
 20
-39.349536000000001
 30
0.0
 11
1.476051
 21
-39.424638999999999
 31
0.0
  0
LINE
  5
DE
  8
0
 62
     1
 10
1.47519
 20
-39.424638999999999
 30
0.0
 11
1.5260049999999989
 21
-39.524546999999998
 31
0.0
  0
LINE
  5
DD
  8
0
 62
     1
 10
1.5251440000000001
 20
-39.524546999999998
 30
0.0
 11
1.5759590000000001
 21
-39.599649999999997
 31
0.0
  0
LINE
  5
DC
  8
0
 62
     1
 10
1.575097999999999
 20
-39.599649999999997
 30
0.0
 11
1.6259129999999991
 21
-39.674753000000003
 31
0.0
  0
LINE
  5
DB
  8
0
 62
     1
 10
1.624879
 20
-39.674753000000003
 30
0.0
 11
1.7011879999999999
 21
-39.749167
 31
0.0
  0
LINE
  5
DA
  8
0
 62
     1
 10
1.699981999999999
 20
-39.749167
 30
0.0
 11
1.7759469999999999
 21
-39.824269999999999
 31
0.0
  0
LINE
  5
D9
  8
0
 62
     1
 10
1.774913
 20
-39.824269999999999
 30
0.0
 11
1.8260730000000001
 21
-39.874569000000001
 31
0.0
  0
LINE
  5
D8
  8
0
 62
     1
 10
1.825038999999999
 20
-39.874569000000001
 30
0.0
 11
1.9010039999999999
 21
-39.949672
 31
0.0
  0
LINE
  5
D7
  8
0
 62
     1
 10
1.899797999999999
 20
-39.949672
 30
0.0
 11
1.9761070000000001
 21
-39.999281000000003
 31
0.0
  0
LINE
  5
D6
  8
0
 62
     1
 10
1.974729
 20
-39.999281000000003
 30
0.0
 11
2.076187
 21
-40.074384000000002
 31
0.0
  0
LINE
  5
D5
  8
0
 62
     1
 10
2.0748090000000001
 20
-40.074384000000002
 30
0.0
 11
2.151117999999999
 21
-40.124682999999997
 31
0.0
  0
LINE
  5
D4
  8
0
 62
     1
 10
2.149912
 20
-40.124682999999997
 30
0.0
 11
2.2262209999999989
 21
-40.174292000000001
 31
0.0
  0
LINE
  5
D3
  8
0
 62
     1
 10
2.224842999999999
 20
-40.174292000000001
 30
0.0
 11
2.3263009999999991
 21
-40.199096999999988
 31
0.0
  0
LINE
  5
D2
  8
0
 62
     1
 10
2.324749999999999
 20
-40.199096999999988
 30
0.0
 11
2.4262079999999999
 21
-40.249395
 31
0.0
  0
LINE
  5
D1
  8
0
 62
     1
 10
2.42483
 20
-40.249395
 30
0.0
 11
2.5011389999999989
 21
-40.2742
 31
0.0
  0
LINE
  5
D0
  8
0
 62
     1
 10
2.499760999999999
 20
-40.2742
 30
0.0
 11
2.6012189999999991
 21
-40.299692999999998
 31
0.0
  0
LINE
  5
CF
  8
0
 62
     1
 10
2.599669
 20
-40.299692999999998
 30
0.0
 11
2.7011270000000001
 21
-40.324497999999998
 31
0.0
  0
LINE
  5
CE
  8
0
 62
     1
 10
2.6995770000000001
 20
-40.324497999999998
 30
0.0
 11
2.8013789999999998
 21
-40.349302999999999
 31
0.0
  0
LINE
  5
CD
  8
0
 62
     1
 10
2.799828999999999
 20
-40.349302999999999
 30
0.0
 11
2.9012869999999991
 21
-40.349302999999999
 31
0.0
  0
LINE
  5
CC
  8
0
 62
     1
 10
2.899737
 20
-40.349302999999999
 30
0.0
 11
3.0011950000000001
 21
-40.374107999999993
 31
0.0
  0
LINE
  5
CB
  8
0
 62
     1
 10
2.9998169999999988
 20
-40.374107999999993
 30
0.0
 11
3.076125999999999
 21
-40.374107999999993
 31
0.0
  0
LINE
  5
CA
  8
0
 62
     1
 10
3.074748
 20
-40.374107999999993
 30
0.0
 11
3.1762060000000001
 21
-40.374107999999993
 31
0.0
  0
LINE
  5
C9
  8
0
 62
     1
 10
3.174655
 20
-40.374107999999993
 30
0.0
 11
3.2761139999999989
 21
-40.349302999999999
 31
0.0
  0
LINE
  5
C8
  8
0
 62
     1
 10
3.2745630000000001
 20
-40.349302999999999
 30
0.0
 11
3.3761939999999999
 21
-40.349302999999999
 31
0.0
  0
LINE
  5
C7
  8
0
 62
     1
 10
3.3746429999999989
 20
-40.349302999999999
 30
0.0
 11
3.4761009999999999
 21
-40.324497999999998
 31
0.0
  0
LINE
  5
C6
  8
0
 62
     1
 10
3.4745509999999999
 20
-40.324497999999998
 30
0.0
 11
3.5760089999999991
 21
-40.299692999999998
 31
0.0
  0
LINE
  5
C5
  8
0
 62
     1
 10
3.5744589999999992
 20
-40.299692999999998
 30
0.0
 11
3.6759169999999992
 21
-40.2742
 31
0.0
  0
LINE
  5
C4
  8
0
 62
     1
 10
3.6745389999999989
 20
-40.2742
 30
0.0
 11
3.750848
 21
-40.249395
 31
0.0
  0
LINE
  5
C3
  8
0
 62
     1
 10
3.7494699999999992
 20
-40.249395
 30
0.0
 11
3.8509279999999988
 21
-40.199096999999988
 31
0.0
  0
LINE
  5
C2
  8
0
 62
     1
 10
3.8495499999999989
 20
-40.199096999999988
 30
0.0
 11
3.9258589999999991
 21
-40.174292000000001
 31
0.0
  0
LINE
  5
C1
  8
0
 62
     1
 10
3.9244809999999992
 20
-40.174292000000001
 30
0.0
 11
4.0259390000000002
 21
-40.124682999999997
 31
0.0
  0
LINE
  5
C0
  8
0
 62
     1
 10
4.0245610000000003
 20
-40.124682999999997
 30
0.0
 11
4.1008690000000003
 21
-40.074384000000002
 31
0.0
  0
LINE
  5
BF
  8
0
 62
     1
 10
4.0996639999999989
 20
-40.074384000000002
 30
0.0
 11
4.1759719999999989
 21
-39.999281000000003
 31
0.0
  0
LINE
  5
BE
  8
0
 62
     1
 10
4.174593999999999
 20
-39.999281000000003
 30
0.0
 11
4.2760530000000001
 21
-39.949672
 31
0.0
  0
LINE
  5
BD
  8
0
 62
     1
 10
4.2746740000000001
 20
-39.949672
 30
0.0
 11
4.3509830000000003
 21
-39.874569000000001
 31
0.0
  0
LINE
  5
BC
  8
0
 62
     1
 10
4.3499499999999989
 20
-39.874569000000001
 30
0.0
 11
4.401108999999999
 21
-39.824269999999999
 31
0.0
  0
LINE
  5
BB
  8
0
 62
     1
 10
4.4000760000000003
 20
-39.824269999999999
 30
0.0
 11
4.4763849999999987
 21
-39.749167
 31
0.0
  0
LINE
  5
BA
  8
0
 62
     1
 10
4.4751789999999989
 20
-39.749167
 30
0.0
 11
4.5507989999999987
 21
-39.674753000000003
 31
0.0
  0
LINE
  5
B9
  8
0
 62
     1
 10
4.5497649999999989
 20
-39.674753000000003
 30
0.0
 11
4.6009250000000002
 21
-39.599649999999997
 31
0.0
  0
LINE
  5
B8
  8
0
 62
     1
 10
4.6000639999999988
 20
-39.599649999999997
 30
0.0
 11
4.651222999999999
 21
-39.524546999999998
 31
0.0
  0
LINE
  5
B7
  8
0
 62
     1
 10
4.6503620000000003
 20
-39.524546999999998
 30
0.0
 11
4.7008330000000003
 21
-39.424638999999999
 31
0.0
  0
LINE
  5
B6
  8
0
 62
     1
 10
4.6999719999999989
 20
-39.424638999999999
 30
0.0
 11
4.7511309999999991
 21
-39.349536000000001
 31
0.0
  0
LINE
  5
B5
  8
0
 62
     1
 10
4.7502699999999987
 20
-39.349536000000001
 30
0.0
 11
4.8007410000000004
 21
-39.249628000000001
 31
0.0
  0
LINE
  5
B4
  8
0
 62
     1
 10
4.8000519999999991
 20
-39.249628000000001
 30
0.0
 11
4.8258900000000002
 21
-39.174525000000003
 31
0.0
  0
LINE
  5
B3
  8
0
 62
     1
 10
4.825372999999999
 20
-39.174525000000003
 30
0.0
 11
4.875843999999999
 21
-39.074618000000001
 31
0.0
  0
LINE
  5
B2
  8
0
 62
     1
 10
4.8751550000000003
 20
-39.074618000000001
 30
0.0
 11
4.9003040000000002
 21
-38.974709999999988
 31
0.0
  0
LINE
  5
B1
  8
0
 62
     1
 10
4.8999589999999991
 20
-38.974709999999988
 30
0.0
 11
4.9257980000000003
 21
-38.874113000000001
 31
0.0
  0
LINE
  5
B0
  8
0
 62
     1
 10
4.9256250000000001
 20
-38.874113000000001
 30
0.0
 11
4.9256250000000001
 21
-38.799698999999997
 31
0.0
  0
LINE
  5
AF
  8
0
 62
     1
 10
4.9254530000000001
 20
-38.799698999999997
 30
0.0
 11
4.9506019999999991
 21
-38.699102000000011
 31
0.0
  0
LINE
  5
AE
  8
0
 62
     1
 10
4.950429999999999
 20
-38.699102000000011
 30
0.0
 11
4.950429999999999
 21
-38.599193999999997
 31
0.0
  0
LINE
  5
AD
  8
0
 62
     1
 10
4.950429999999999
 20
-38.599193999999997
 30
0.0
 11
4.950429999999999
 21
-38.499287000000002
 31
0.0
  0
LINE
  5
AC
  8
0
 62
     1
 10
1.950958
 20
-44.049334999999999
 30
0.0
 11
1.8749929999999999
 21
-44.099634000000002
 31
0.0
  0
LINE
  5
AB
  8
0
 62
     1
 10
1.876199
 20
-44.099634000000002
 30
0.0
 11
1.79989
 21
-44.174737
 31
0.0
  0
LINE
  5
AA
  8
0
 62
     1
 10
4.275879999999999
 20
11.950692
 30
0.0
 11
4.1995709999999988
 21
12.025795
 31
0.0
  0
LINE
  5
A9
  8
0
 62
     1
 10
4.2007769999999987
 20
12.025795
 30
0.0
 11
4.1251569999999989
 21
12.075404000000001
 31
0.0
  0
LINE
  5
A8
  8
0
 62
     1
 10
4.1265349999999987
 20
12.075404000000001
 30
0.0
 11
4.0243880000000001
 21
12.125703
 31
0.0
  0
LINE
  5
A7
  8
0
 62
     1
 10
4.0257659999999991
 20
12.125703
 30
0.0
 11
3.9501459999999988
 21
12.175312
 31
0.0
  0
LINE
  5
A6
  8
0
 62
     1
 10
3.9515250000000002
 20
12.175312
 30
0.0
 11
3.8493769999999992
 21
12.22561
 31
0.0
  0
LINE
  5
A5
  8
0
 62
     1
 10
3.8507549999999999
 20
12.22561
 30
0.0
 11
3.7751359999999998
 21
12.250415
 31
0.0
  0
LINE
  5
A4
  8
0
 62
     1
 10
3.7765140000000001
 20
12.250415
 30
0.0
 11
3.6743669999999988
 21
12.275219999999999
 31
0.0
  0
LINE
  5
A3
  8
0
 62
     1
 10
3.6759169999999992
 20
12.275219999999999
 30
0.0
 11
3.5744589999999992
 21
12.300713
 31
0.0
  0
LINE
  5
A2
  8
0
 62
     1
 10
3.5760089999999991
 20
12.300713
 30
0.0
 11
3.4745509999999999
 21
12.325518000000001
 31
0.0
  0
LINE
  5
A1
  8
0
 62
     1
 10
3.4759289999999998
 20
12.325518000000001
 30
0.0
 11
3.3996199999999992
 21
12.350322999999999
 31
0.0
  0
LINE
  5
A0
  8
0
 62
     1
 10
3.400998
 20
12.350322999999999
 30
0.0
 11
3.2995399999999999
 21
12.375817
 31
0.0
  0
LINE
  5
9F
  8
0
 62
     1
 10
3.3010899999999999
 20
12.375817
 30
0.0
 11
3.199805
 21
12.375817
 31
0.0
  0
LINE
  5
9E
  8
0
 62
     1
 10
3.2013549999999991
 20
12.375817
 30
0.0
 11
3.0995520000000001
 21
12.375817
 31
0.0
  0
LINE
  5
9D
  8
0
 62
     1
 10
3.1011029999999988
 20
12.375817
 30
0.0
 11
2.9996450000000001
 21
12.375817
 31
0.0
  0
LINE
  5
9C
  8
0
 62
     1
 10
3.0011950000000001
 20
12.375817
 30
0.0
 11
2.899737
 21
12.375817
 31
0.0
  0
LINE
  5
9B
  8
0
 62
     1
 10
2.9012869999999991
 20
12.375817
 30
0.0
 11
2.799828999999999
 21
12.350322999999999
 31
0.0
  0
LINE
  5
9A
  8
0
 62
     1
 10
2.8013789999999998
 20
12.350322999999999
 30
0.0
 11
2.6995770000000001
 21
12.325518000000001
 31
0.0
  0
LINE
  5
99
  8
0
 62
     1
 10
2.7011270000000001
 20
12.325518000000001
 30
0.0
 11
2.599669
 21
12.325518000000001
 31
0.0
  0
LINE
  5
98
  8
0
 62
     1
 10
2.6010469999999999
 20
12.325518000000001
 30
0.0
 11
2.5247380000000001
 21
12.275219999999999
 31
0.0
  0
LINE
  5
97
  8
0
 62
     1
 10
2.526116
 20
12.275219999999999
 30
0.0
 11
2.4246579999999991
 21
12.250415
 31
0.0
  0
LINE
  5
96
  8
0
 62
     1
 10
2.4262079999999999
 20
12.250415
 30
0.0
 11
2.324749999999999
 21
12.22561
 31
0.0
  0
LINE
  5
95
  8
0
 62
     1
 10
2.3261279999999989
 20
12.22561
 30
0.0
 11
2.2498200000000002
 21
12.175312
 31
0.0
  0
LINE
  5
94
  8
0
 62
     1
 10
2.251198
 20
12.175312
 30
0.0
 11
2.1497399999999991
 21
12.125703
 31
0.0
  0
LINE
  5
93
  8
0
 62
     1
 10
2.151117999999999
 20
12.125703
 30
0.0
 11
2.0748090000000001
 21
12.075404000000001
 31
0.0
  0
LINE
  5
92
  8
0
 62
     1
 10
2.0760149999999991
 20
12.075404000000001
 30
0.0
 11
2.000049999999999
 21
12.025795
 31
0.0
  0
LINE
  5
91
  8
0
 62
     1
 10
2.0012560000000001
 20
12.025795
 30
0.0
 11
1.924947
 21
11.950692
 31
0.0
  0
LINE
  5
90
  8
0
 62
     1
 10
1.9261529999999989
 20
11.950692
 30
0.0
 11
1.8498439999999989
 21
11.900392999999999
 31
0.0
  0
LINE
  5
8F
  8
0
 62
     1
 10
1.8510500000000001
 20
11.900392999999999
 30
0.0
 11
1.774740999999999
 21
11.825290000000001
 31
0.0
  0
LINE
  5
8E
  8
0
 62
     1
 10
1.7759469999999999
 20
11.825290000000001
 30
0.0
 11
1.699981999999999
 21
11.750187
 31
0.0
  0
LINE
  5
8D
  8
0
 62
     1
 10
1.7011879999999999
 20
11.750187
 30
0.0
 11
1.624879
 21
11.675773
 31
0.0
  0
LINE
  5
8C
  8
0
 62
     1
 10
1.6259129999999991
 20
11.675773
 30
0.0
 11
1.575097999999999
 21
11.600669999999999
 31
0.0
  0
LINE
  5
8B
  8
0
 62
     1
 10
1.5759590000000001
 20
11.600669999999999
 30
0.0
 11
1.5251440000000001
 21
11.525567000000001
 31
0.0
  0
LINE
  5
8A
  8
0
 62
     1
 10
1.5260049999999989
 20
11.525567000000001
 30
0.0
 11
1.47519
 21
11.450464
 31
0.0
  0
LINE
  5
89
  8
0
 62
     1
 10
1.476051
 20
11.450464
 30
0.0
 11
1.424890999999999
 21
11.350555999999999
 31
0.0
  0
LINE
  5
88
  8
0
 62
     1
 10
1.425753
 20
11.350555999999999
 30
0.0
 11
1.3749379999999991
 21
11.275453000000001
 31
0.0
  0
LINE
  5
87
  8
0
 62
     1
 10
1.375454
 20
11.275453000000001
 30
0.0
 11
1.350304999999999
 21
11.175545
 31
0.0
  0
LINE
  5
86
  8
0
 62
     1
 10
1.350994
 20
11.175545
 30
0.0
 11
1.300179
 21
11.075637
 31
0.0
  0
LINE
  5
85
  8
0
 62
     1
 10
1.300695999999999
 20
11.075637
 30
0.0
 11
1.2752019999999991
 21
11.000534
 31
0.0
  0
LINE
  5
84
  8
0
 62
     1
 10
1.2755469999999991
 20
11.000534
 30
0.0
 11
1.2503969999999991
 21
10.900627
 31
0.0
  0
LINE
  5
83
  8
0
 62
     1
 10
1.25057
 20
10.900627
 30
0.0
 11
1.25057
 21
10.800719000000001
 31
0.0
  0
LINE
  5
82
  8
0
 62
     1
 10
1.250742
 20
10.800719000000001
 30
0.0
 11
1.225247999999999
 21
10.700811
 31
0.0
  0
LINE
  5
81
  8
0
 62
     1
 10
1.22542
 20
10.700811
 30
0.0
 11
1.22542
 21
10.600213999999999
 31
0.0
  0
LINE
  5
80
  8
0
 62
     1
 10
1.22542
 20
10.600213999999999
 30
0.0
 11
1.22542
 21
10.500306999999999
 31
0.0
  0
LINE
  5
7F
  8
0
 62
     1
 10
4.225064999999999
 20
16.050355
 30
0.0
 11
4.301374
 21
16.100653999999999
 31
0.0
  0
LINE
  5
7E
  8
0
 62
     1
 10
4.3001680000000002
 20
16.100653999999999
 30
0.0
 11
4.375788
 21
16.175757000000001
 31
0.0
  0
LINE
  5
7D
  8
0
 62
     1
 10
4.3745820000000002
 20
16.175757000000001
 30
0.0
 11
4.4508910000000004
 21
16.250171000000002
 31
0.0
  0
LINE
  5
7C
  8
0
 62
     1
 10
4.4496849999999988
 20
16.250171000000002
 30
0.0
 11
4.525993999999999
 21
16.300469
 31
0.0
  0
LINE
  5
7B
  8
0
 62
     1
 10
4.5249610000000002
 20
16.300469
 30
0.0
 11
4.5761199999999986
 21
16.375571999999998
 31
0.0
  0
LINE
  5
7A
  8
0
 62
     1
 10
4.5752589999999991
 20
16.375571999999998
 30
0.0
 11
4.625729999999999
 21
16.475480000000001
 31
0.0
  0
LINE
  5
79
  8
0
 62
     1
 10
4.6248680000000002
 20
16.475480000000001
 30
0.0
 11
4.6760279999999987
 21
16.550583
 31
0.0
  0
LINE
  5
78
  8
0
 62
     1
 10
4.6751670000000001
 20
16.550583
 30
0.0
 11
4.725636999999999
 21
16.625686000000002
 31
0.0
  0
LINE
  5
77
  8
0
 62
     1
 10
4.7247760000000003
 20
16.625686000000002
 30
0.0
 11
4.7759359999999988
 21
16.725594000000001
 31
0.0
  0
LINE
  5
76
  8
0
 62
     1
 10
4.7750750000000002
 20
16.725594000000001
 30
0.0
 11
4.8262339999999986
 21
16.800697
 31
0.0
  0
LINE
  5
75
  8
0
 62
     1
 10
4.8255449999999991
 20
16.800697
 30
0.0
 11
4.850693999999999
 21
16.900604999999999
 31
0.0
  0
LINE
  5
74
  8
0
 62
     1
 10
4.8503499999999988
 20
16.900604999999999
 30
0.0
 11
4.8754989999999987
 21
17.000513000000002
 31
0.0
  0
LINE
  5
73
  8
0
 62
     1
 10
4.8751550000000003
 20
17.000513000000002
 30
0.0
 11
4.9003040000000002
 21
17.10042
 31
0.0
  0
LINE
  5
72
  8
0
 62
     1
 10
4.8999589999999991
 20
17.10042
 30
0.0
 11
4.9257980000000003
 21
17.175523999999999
 31
0.0
  0
LINE
  5
71
  8
0
 62
     1
 10
4.9254530000000001
 20
17.175523999999999
 30
0.0
 11
4.9506019999999991
 21
17.275431000000001
 31
0.0
  0
LINE
  5
70
  8
0
 62
     1
 10
4.950429999999999
 20
17.275431000000001
 30
0.0
 11
4.950429999999999
 21
17.375339
 31
0.0
  0
LINE
  5
6F
  8
0
 62
     1
 10
4.950429999999999
 20
17.375339
 30
0.0
 11
4.950429999999999
 21
17.475247
 31
0.0
  0
LINE
  5
6E
  8
0
 62
     1
 10
4.950429999999999
 20
17.475247
 30
0.0
 11
4.950429999999999
 21
17.575844
 31
0.0
  0
LINE
  5
6D
  8
0
 62
     1
 10
4.950429999999999
 20
17.575844
 30
0.0
 11
4.950429999999999
 21
17.675751000000002
 31
0.0
  0
LINE
  5
6C
  8
0
 62
     1
 10
4.950429999999999
 20
17.675751000000002
 30
0.0
 11
4.950429999999999
 21
17.775659000000001
 31
0.0
  0
LINE
  5
6B
  8
0
 62
     1
 10
4.9506019999999991
 20
17.775659000000001
 30
0.0
 11
4.9254530000000001
 21
17.875567
 31
0.0
  0
LINE
  5
6A
  8
0
 62
     1
 10
4.9257980000000003
 20
17.875567
 30
0.0
 11
4.8999589999999991
 21
17.975474999999999
 31
0.0
  0
LINE
  5
69
  8
0
 62
     1
 10
4.9003040000000002
 20
17.975474999999999
 30
0.0
 11
4.8751550000000003
 21
18.050578000000002
 31
0.0
  0
LINE
  5
68
  8
0
 62
     1
 10
4.8754989999999987
 20
18.050578000000002
 30
0.0
 11
4.8503499999999988
 21
18.150486000000001
 31
0.0
  0
LINE
  5
67
  8
0
 62
     1
 10
4.850693999999999
 20
18.150486000000001
 30
0.0
 11
4.8255449999999991
 21
18.250392999999999
 31
0.0
  0
LINE
  5
66
  8
0
 62
     1
 10
4.8262339999999986
 20
18.250392999999999
 30
0.0
 11
4.7750750000000002
 21
18.325496000000001
 31
0.0
  0
LINE
  5
65
  8
0
 62
     1
 10
4.7759359999999988
 20
18.325496000000001
 30
0.0
 11
4.7247760000000003
 21
18.425404
 31
0.0
  0
LINE
  5
64
  8
0
 62
     1
 10
4.725636999999999
 20
18.425404
 30
0.0
 11
4.6751670000000001
 21
18.500506999999999
 31
0.0
  0
LINE
  5
63
  8
0
 62
     1
 10
4.6760279999999987
 20
18.500506999999999
 30
0.0
 11
4.6248680000000002
 21
18.575610000000001
 31
0.0
  0
LINE
  5
62
  8
0
 62
     1
 10
4.625729999999999
 20
18.575610000000001
 30
0.0
 11
4.5752589999999991
 21
18.675518
 31
0.0
  0
LINE
  5
61
  8
0
 62
     1
 10
4.5762929999999988
 20
18.675518
 30
0.0
 11
4.4999839999999987
 21
18.750620999999999
 31
0.0
  0
LINE
  5
60
  8
0
 62
     1
 10
4.501017
 20
18.750620999999999
 30
0.0
 11
4.449857999999999
 21
18.825724000000001
 31
0.0
  0
LINE
  5
5F
  8
0
 62
     1
 10
4.4508910000000004
 20
18.825724000000001
 30
0.0
 11
4.3745820000000002
 21
18.875333999999999
 31
0.0
  0
LINE
  5
5E
  8
0
 62
     1
 10
4.375788
 20
18.875333999999999
 30
0.0
 11
4.3001680000000002
 21
18.950437000000001
 31
0.0
  0
LINE
  5
5D
  8
0
 62
     1
 10
4.301374
 20
18.950437000000001
 30
0.0
 11
4.225064999999999
 21
19.000734999999999
 31
0.0
  0
LINE
  5
5C
  8
0
 62
     1
 10
4.2262709999999988
 20
19.000734999999999
 30
0.0
 11
4.1499620000000004
 21
19.075838000000001
 31
0.0
  0
LINE
  5
5B
  8
0
 62
     1
 10
4.1513400000000003
 20
19.075838000000001
 30
0.0
 11
4.0498820000000002
 21
19.125447999999999
 31
0.0
  0
LINE
  5
5A
  8
0
 62
     1
 10
4.0512600000000001
 20
19.125447999999999
 30
0.0
 11
3.9749509999999999
 21
19.175746
 31
0.0
  0
LINE
  5
59
  8
0
 62
     1
 10
3.9761570000000002
 20
19.175746
 30
0.0
 11
3.899848
 21
19.225355
 31
0.0
  0
LINE
  5
58
  8
0
 62
     1
 10
3.9012259999999999
 20
19.225355
 30
0.0
 11
3.7997679999999989
 21
19.250848999999999
 31
0.0
  0
LINE
  5
57
  8
0
 62
     1
 10
3.8013180000000002
 20
19.250848999999999
 30
0.0
 11
3.6998599999999988
 21
19.300457999999999
 31
0.0
  0
LINE
  5
56
  8
0
 62
     1
 10
3.7012379999999991
 20
19.300457999999999
 30
0.0
 11
3.6249289999999998
 21
19.325263
 31
0.0
  0
LINE
  5
55
  8
0
 62
     1
 10
3.6263079999999999
 20
19.325263
 30
0.0
 11
3.5248489999999988
 21
19.350757000000002
 31
0.0
  0
LINE
  5
54
  8
0
 62
     1
 10
3.5264000000000002
 20
19.350757000000002
 30
0.0
 11
3.4249419999999988
 21
19.375561999999999
 31
0.0
  0
LINE
  5
53
  8
0
 62
     1
 10
3.4264919999999992
 20
19.375561999999999
 30
0.0
 11
3.3250339999999992
 21
19.375561999999999
 31
0.0
  0
LINE
  5
52
  8
0
 62
     1
 10
3.3265839999999991
 20
19.375561999999999
 30
0.0
 11
3.2246090000000001
 21
19.400366000000002
 31
0.0
  0
LINE
  5
51
  8
0
 62
     1
 10
3.2261599999999988
 20
19.400366000000002
 30
0.0
 11
3.1247020000000001
 21
19.400366000000002
 31
0.0
  0
LINE
  5
50
  8
0
 62
     1
 10
3.126252
 20
19.400366000000002
 30
0.0
 11
3.0247939999999991
 21
19.400366000000002
 31
0.0
  0
LINE
  5
4F
  8
0
 62
     1
 10
3.026343999999999
 20
19.400366000000002
 30
0.0
 11
2.9245419999999989
 21
19.400366000000002
 31
0.0
  0
LINE
  5
4E
  8
0
 62
     1
 10
2.9259199999999992
 20
19.400366000000002
 30
0.0
 11
2.8499549999999991
 21
19.375561999999999
 31
0.0
  0
LINE
  5
4D
  8
0
 62
     1
 10
2.8513329999999999
 20
19.375561999999999
 30
0.0
 11
2.749874999999999
 21
19.375561999999999
 31
0.0
  0
LINE
  5
4C
  8
0
 62
     1
 10
2.751425999999999
 20
19.375561999999999
 30
0.0
 11
2.6496230000000001
 21
19.350757000000002
 31
0.0
  0
LINE
  5
4B
  8
0
 62
     1
 10
2.651173
 20
19.350757000000002
 30
0.0
 11
2.5497149999999991
 21
19.325263
 31
0.0
  0
LINE
  5
4A
  8
0
 62
     1
 10
2.5512649999999999
 20
19.325263
 30
0.0
 11
2.449806999999999
 21
19.275653999999999
 31
0.0
  0
LINE
  5
49
  8
0
 62
     1
 10
2.4511849999999988
 20
19.275653999999999
 30
0.0
 11
2.3748770000000001
 21
19.250848999999999
 31
0.0
  0
LINE
  5
48
  8
0
 62
     1
 10
2.376255
 20
19.250848999999999
 30
0.0
 11
2.2747969999999991
 21
19.200551000000001
 31
0.0
  0
LINE
  5
47
  8
0
 62
     1
 10
2.2761749999999989
 20
19.200551000000001
 30
0.0
 11
2.1998660000000001
 21
19.175746
 31
0.0
  0
LINE
  5
237
  8
0
 62
     1
 10
6.1489789999999989
 20
-26.175491000000001
 30
0.0
 11
6.1489789999999989
 21
-27.925598999999998
 31
0.0
  0
LINE
  5
238
  8
0
 62
     1
 10
0.0003450000000003
 20
-31.27561
 30
0.0
 11
6.1489789999999989
 21
-31.27561
 31
0.0
  0
LINE
  5
239
  8
0
 62
     1
 10
0.0003450000000003
 20
-38.525469000000001
 30
0.0
 11
0.0003450000000003
 21
-35.369762000000001
 31
0.0
  0
LINE
  5
23A
  8
0
 62
     1
 10
0.0003450000000003
 20
-33.036399000000003
 30
0.0
 11
6.1489789999999989
 21
-33.036399000000003
 31
0.0
  0
LINE
  5
23B
  8
0
 62
     1
 10
6.1489789999999989
 20
-38.525469000000001
 30
0.0
 11
0.0003450000000003
 21
-38.525469000000001
 31
0.0
  0
LINE
  5
23C
  8
0
 62
     1
 10
6.1489789999999989
 20
-33.723350999999987
 30
0.0
 11
5.8442600000000002
 21
-33.723350999999987
 31
0.0
  0
LINE
  5
23D
  8
0
 62
     1
 10
6.1489789999999989
 20
-35.369762000000001
 30
0.0
 11
5.8442600000000002
 21
-35.369762000000001
 31
0.0
  0
LINE
  5
23E
  8
0
 62
     1
 10
6.1489789999999989
 20
-31.962907000000001
 30
0.0
 11
0.0003450000000003
 21
-31.962907000000001
 31
0.0
  0
LINE
  5
23F
  8
0
 62
     1
 10
6.1489789999999989
 20
-30.045711000000001
 30
0.0
 11
0.3052360000000003
 21
-30.045711000000001
 31
0.0
  0
LINE
  5
240
  8
0
 62
     1
 10
6.1489789999999989
 20
-27.925598999999998
 30
0.0
 11
0.0003450000000003
 21
-27.925598999999998
 31
0.0
  0
LINE
  5
241
  8
0
 62
     1
 10
6.1489789999999989
 20
-26.175491000000001
 30
0.0
 11
2.7190419999999991
 21
-26.175491000000001
 31
0.0
  0
LINE
  5
242
  8
0
 62
     1
 10
5.8442600000000002
 20
-35.369762000000001
 30
0.0
 11
0.0003450000000003
 21
-35.369762000000001
 31
0.0
  0
LINE
  5
243
  8
0
 62
     1
 10
5.8442600000000002
 20
-33.723350999999987
 30
0.0
 11
0.0003450000000003
 21
-33.723350999999987
 31
0.0
  0
LINE
  5
244
  8
0
 62
     1
 10
0.3052360000000003
 20
-30.045711000000001
 30
0.0
 11
0.0003450000000003
 21
-30.045711000000001
 31
0.0
  0
LINE
  5
245
  8
0
 62
     1
 10
0.0003450000000003
 20
-35.369762000000001
 30
0.0
 11
0.0003450000000003
 21
-33.723350999999987
 31
0.0
  0
LINE
  5
246
  8
0
 62
     1
 10
0.0003450000000003
 20
-33.723350999999987
 30
0.0
 11
0.0003450000000003
 21
-33.036399000000003
 31
0.0
  0
LINE
  5
247
  8
0
 62
     1
 10
0.0003450000000003
 20
-27.925598999999998
 30
0.0
 11
0.0003450000000003
 21
-26.175491000000001
 31
0.0
  0
LINE
  5
248
  8
0
 62
     1
 10
0.0003450000000003
 20
-30.045711000000001
 30
0.0
 11
0.0003450000000003
 21
-29.100377000000002
 31
0.0
  0
LINE
  5
249
  8
0
 62
     1
 10
0.0003450000000003
 20
-30.850484999999999
 30
0.0
 11
0.0003450000000003
 21
-30.045711000000001
 31
0.0
  0
LINE
  5
24A
  8
0
 62
     1
 10
0.0003450000000003
 20
-29.100377000000002
 30
0.0
 11
0.0003450000000003
 21
-27.925598999999998
 31
0.0
  0
LINE
  5
24B
  8
0
 62
     1
 10
0.0003450000000003
 20
-31.962907000000001
 30
0.0
 11
0.0003450000000003
 21
-31.332799000000001
 31
0.0
  0
LINE
  5
24C
  8
0
 62
     1
 10
0.0003450000000003
 20
-33.036399000000003
 30
0.0
 11
0.0003450000000003
 21
-31.962907000000001
 31
0.0
  0
LINE
  5
24D
  8
0
 62
     1
 10
0.0003450000000003
 20
-31.332799000000001
 30
0.0
 11
0.0003450000000003
 21
-30.850484999999999
 31
0.0
  0
LINE
  5
24E
  8
0
 62
     1
 10
6.1489789999999989
 20
-35.369762000000001
 30
0.0
 11
6.1489789999999989
 21
-38.525469000000001
 31
0.0
  0
LINE
  5
24F
  8
0
 62
     1
 10
6.1489789999999989
 20
-33.723350999999987
 30
0.0
 11
6.1489789999999989
 21
-35.369762000000001
 31
0.0
  0
LINE
  5
250
  8
0
 62
     1
 10
6.1489789999999989
 20
-27.925598999999998
 30
0.0
 11
6.1489789999999989
 21
-30.045711000000001
 31
0.0
  0
LINE
  5
251
  8
0
 62
     1
 10
6.1489789999999989
 20
-30.045711000000001
 30
0.0
 11
6.1489789999999989
 21
-31.27561
 31
0.0
  0
LINE
  5
252
  8
0
 62
     1
 10
6.1489789999999989
 20
-31.962907000000001
 30
0.0
 11
6.1489789999999989
 21
-33.036399000000003
 31
0.0
  0
LINE
  5
253
  8
0
 62
     1
 10
6.1489789999999989
 20
-33.036399000000003
 30
0.0
 11
6.1489789999999989
 21
-33.723350999999987
 31
0.0
  0
LINE
  5
254
  8
0
 62
     1
 10
6.1489789999999989
 20
-31.27561
 30
0.0
 11
6.1489789999999989
 21
-31.962907000000001
 31
0.0
  0
LINE
  5
255
  8
0
 62
     1
 10
0.8896959999999998
 20
-26.175491000000001
 30
0.0
 11
0.0003450000000003
 21
-26.175491000000001
 31
0.0
  0
LINE
  5
256
  8
0
 62
     1
 10
2.7190419999999991
 20
-26.175491000000001
 30
0.0
 11
0.8896959999999998
 21
-26.175491000000001
 31
0.0
  0
LINE
  5
257
  8
0
 62
     1
 10
6.1489789999999989
 20
-36.594838000000003
 30
0.0
 11
0.0003450000000003
 21
-36.594838000000003
 31
0.0
  0
ENDSEC
  0
EOF
