  0
SECTION
  2
HEADER
  9
$ACADVER
  1
AC1009
  9
$INSBASE
 10
0.0
 20
0.0
 30
0.0
  9
$EXTMIN
 10
-0.0003221703329288
 20
-57.502584899496043
 30
-0.0015258207003583
  9
$EXTMAX
 10
14.00050123581511
 20
22.503171272313551
 30
0.0000000349246037
  9
$LIMMIN
 10
-0.031006
 20
-57.530682999999989
  9
$LIMMAX
 10
14.031185000000001
 20
22.531269000000002
  9
$ORTHOMODE
 70
     0
  9
$REGENMODE
 70
     1
  9
$FILLMODE
 70
     1
  9
$QTEXTMODE
 70
     0
  9
$MIRRTEXT
 70
     1
  9
$DRAGMODE
 70
     2
  9
$LTSCALE
 40
1.0
  9
$OSMODE
 70
     1
  9
$ATTMODE
 70
     1
  9
$TEXTSIZE
 40
0.0
  9
$TRACEWID
 40
0.05
  9
$TEXTSTYLE
  7
STANDARD
  9
$CLAYER
  8
0
  9
$CELTYPE
  6
CONTINUOUS
  9
$CECOLOR
 62
   256
  9
$DIMSCALE
 40
1.0
  9
$DIMASZ
 40
0.18
  9
$DIMEXO
 40
0.0625
  9
$DIMDLI
 40
0.38
  9
$DIMRND
 40
0.0
  9
$DIMDLE
 40
0.0
  9
$DIMEXE
 40
0.18
  9
$DIMTP
 40
0.0
  9
$DIMTM
 40
0.0
  9
$DIMTXT
 40
0.18
  9
$DIMCEN
 40
0.09
  9
$DIMTSZ
 40
0.0
  9
$DIMTOL
 70
     0
  9
$DIMLIM
 70
     0
  9
$DIMTIH
 70
     1
  9
$DIMTOH
 70
     1
  9
$DIMSE1
 70
     0
  9
$DIMSE2
 70
     0
  9
$DIMTAD
 70
     0
  9
$DIMZIN
 70
     0
  9
$DIMBLK
  1

  9
$DIMASO
 70
     1
  9
$DIMSHO
 70
     1
  9
$DIMPOST
  1

  9
$DIMAPOST
  1

  9
$DIMALT
 70
     0
  9
$DIMALTD
 70
     2
  9
$DIMALTF
 40
25.399999999999999
  9
$DIMLFAC
 40
1.0
  9
$DIMTOFL
 70
     0
  9
$DIMTVP
 40
0.0
  9
$DIMTIX
 70
     0
  9
$DIMSOXD
 70
     0
  9
$DIMSAH
 70
     0
  9
$DIMBLK1
  1

  9
$DIMBLK2
  1

  9
$DIMSTYLE
  2
STANDARD
  9
$DIMCLRD
 70
     0
  9
$DIMCLRE
 70
     0
  9
$DIMCLRT
 70
     0
  9
$DIMTFAC
 40
1.0
  9
$DIMGAP
 40
0.09
  9
$LUNITS
 70
     2
  9
$LUPREC
 70
     4
  9
$SKETCHINC
 40
0.1
  9
$FILLETRAD
 40
0.0
  9
$AUNITS
 70
     0
  9
$AUPREC
 70
     0
  9
$MENU
  1
acad
  9
$ELEVATION
 40
0.0
  9
$PELEVATION
 40
0.0
  9
$THICKNESS
 40
0.0
  9
$LIMCHECK
 70
     0
  9
$BLIPMODE
 70
     0
  9
$CHAMFERA
 40
0.0
  9
$CHAMFERB
 40
0.0
  9
$SKPOLY
 70
     0
  9
$TDCREATE
 40
2305814.1255093869
  9
$TDUPDATE
 40
2453277.4768777778
  9
$TDINDWG
 40
0.0001535764
  9
$TDUSRTIMER
 40
0.0001534606
  9
$USRTIMER
 70
     1
  9
$ANGBASE
 50
0.0
  9
$ANGDIR
 70
     0
  9
$PDMODE
 70
     0
  9
$PDSIZE
 40
0.0
  9
$PLINEWID
 40
0.0
  9
$COORDS
 70
     1
  9
$SPLFRAME
 70
     0
  9
$SPLINETYPE
 70
     6
  9
$SPLINESEGS
 70
     8
  9
$ATTDIA
 70
     0
  9
$ATTREQ
 70
     1
  9
$HANDLING
 70
     1
  9
$HANDSEED
  5
368
  9
$SURFTAB1
 70
     6
  9
$SURFTAB2
 70
     6
  9
$SURFTYPE
 70
     6
  9
$SURFU
 70
     6
  9
$SURFV
 70
     6
  9
$UCSNAME
  2

  9
$UCSORG
 10
0.0
 20
0.0
 30
0.0
  9
$UCSXDIR
 10
1.0
 20
0.0
 30
0.0
  9
$UCSYDIR
 10
0.0
 20
1.0
 30
0.0
  9
$PUCSNAME
  2

  9
$PUCSORG
 10
0.0
 20
0.0
 30
0.0
  9
$PUCSXDIR
 10
1.0
 20
0.0
 30
0.0
  9
$PUCSYDIR
 10
0.0
 20
1.0
 30
0.0
  9
$USERI1
 70
     0
  9
$USERI2
 70
     0
  9
$USERI3
 70
     0
  9
$USERI4
 70
     0
  9
$USERI5
 70
     0
  9
$USERR1
 40
0.0
  9
$USERR2
 40
0.0
  9
$USERR3
 40
0.0
  9
$USERR4
 40
0.0
  9
$USERR5
 40
0.0
  9
$WORLDVIEW
 70
     1
  9
$SHADEDGE
 70
     3
  9
$SHADEDIF
 70
    70
  9
$TILEMODE
 70
     1
  9
$MAXACTVP
 70
    16
  9
$PLIMCHECK
 70
     0
  9
$PEXTMIN
 10
1.0000000000000000E+020
 20
1.0000000000000000E+020
 30
1.0000000000000000E+020
  9
$PEXTMAX
 10
-1.0000000000000000E+020
 20
-1.0000000000000000E+020
 30
-1.0000000000000000E+020
  9
$PLIMMIN
 10
0.0
 20
0.0
  9
$PLIMMAX
 10
12.0
 20
9.0
  9
$UNITMODE
 70
     0
  9
$VISRETAIN
 70
     0
  9
$PLINEGEN
 70
     1
  9
$PSLTSCALE
 70
     0
  0
ENDSEC
  0
SECTION
  2
TABLES
  0
TABLE
  2
VPORT
 70
     2
  0
VPORT
  2
*ACTIVE
 70
     0
 10
0.0
 20
0.0
 11
1.0
 21
1.0
 12
7.000089532741093
 22
-17.499706813591239
 13
0.0
 23
0.0
 14
1.0
 24
1.0
 15
0.0
 25
0.0
 16
0.0
 26
0.0
 36
1.0
 17
0.0
 27
0.0
 37
0.0
 40
80.608057974859605
 41
1.6444723618090451
 42
50.0
 43
0.0
 44
0.0
 50
0.0
 51
0.0
 71
     0
 72
   100
 73
     1
 74
     1
 75
     0
 76
     0
 77
     0
 78
     0
  0
ENDTAB
  0
TABLE
  2
LTYPE
 70
     1
  0
LTYPE
  2
CONTINUOUS
 70
     0
  3
Solid line
 72
    65
 73
     0
 40
0.0
  0
ENDTAB
  0
TABLE
  2
LAYER
 70
     2
  0
LAYER
  2
0
 70
     0
 62
     7
  6
CONTINUOUS
  0
LAYER
  2
SYMBOL
 70
     0
 62
     4
  6
CONTINUOUS
  0
ENDTAB
  0
TABLE
  2
STYLE
 70
     5
  0
STYLE
  2
STANDARD
 70
     0
 40
0.0
 41
1.0
 50
0.0
 71
     0
 42
0.0
  3
txt
  4

  0
ENDTAB
  0
TABLE
  2
VIEW
 70
     0
  0
ENDTAB
  0
TABLE
  2
UCS
 70
     0
  0
ENDTAB
  0
TABLE
  2
APPID
 70
     2
  0
APPID
  2
ACAD
 70
     0
  0
APPID
  2
DCO15
 70
     0
  0
ENDTAB
  0
TABLE
  2
DIMSTYLE
 70
     1
  0
DIMSTYLE
  2
STANDARD
 70
     0
  3

  4

  5

  6

  7

 40
1.0
 41
0.18
 42
0.0625
 43
0.38
 44
0.18
 45
0.0
 46
0.0
 47
0.0
 48
0.0
140
0.18
141
0.09
142
0.0
143
25.399999999999999
144
1.0
145
0.0
146
1.0
147
0.09
 71
     0
 72
     0
 73
     1
 74
     1
 75
     0
 76
     0
 77
     0
 78
     0
170
     0
171
     2
172
     0
173
     0
174
     0
175
     0
176
     0
177
     0
178
     0
  0
ENDTAB
  0
ENDSEC
  0
SECTION
  2
BLOCKS
  0
BLOCK
  8
0
  2
$MODEL_SPACE
 70
     0
 10
0.0
 20
0.0
 30
0.0
  3
$MODEL_SPACE
  1

  0
ENDBLK
  5
E
  8
0
  0
BLOCK
 67
     1
  8
0
  2
$PAPER_SPACE
 70
     0
 10
0.0
 20
0.0
 30
0.0
  3
$PAPER_SPACE
  1

  0
ENDBLK
  5
10
 67
     1
  8
0
  0
ENDSEC
  0
SECTION
  2
ENTITIES
  0
LINE
  5
327
  8
SYMBOL
 62
     1
 10
0.504362
 20
-0.549493
 30
0.0
 11
0.504362
 21
-1.5496039999999991
 31
0.0
  0
LINE
  5
326
  8
SYMBOL
 62
     1
 10
6.3456939999999991
 20
-0.549493
 30
0.0
 11
0.504362
 21
-0.549493
 31
0.0
  0
LINE
  5
325
  8
SYMBOL
 62
     1
 10
6.3456939999999991
 20
-0.549493
 30
0.0
 11
13.496506
 21
-0.549493
 31
0.0
  0
LINE
  5
324
  8
SYMBOL
 62
     1
 10
13.496506
 20
-1.199581999999999
 30
0.0
 11
13.496506
 21
-0.549493
 31
0.0
  0
LINE
  5
323
  8
SYMBOL
 62
     1
 10
13.496506
 20
-1.199581999999999
 30
0.0
 11
13.496506
 21
-26.195817000000002
 31
0.0
  0
LINE
  5
322
  8
SYMBOL
 62
     1
 10
0.504362
 20
-1.5496039999999991
 30
0.0
 11
0.504362
 21
-26.195817000000002
 31
0.0
  0
LINE
  5
321
  8
SYMBOL
 62
     1
 10
10.827591
 20
-51.049424999999992
 30
0.0
 11
10.827591
 21
-47.39969099999999
 31
0.0
  0
LINE
  5
320
  8
SYMBOL
 62
     1
 10
10.827591
 20
-57.499676999999998
 30
0.0
 11
10.827591
 21
-54.399436000000001
 31
0.0
  0
LINE
  5
31F
  8
SYMBOL
 62
     1
 10
8.9643110000000004
 20
-52.174593000000002
 30
0.0
 11
12.665549
 21
-52.174593000000002
 31
0.0
  0
LINE
  5
31E
  8
SYMBOL
 62
     1
 10
12.665549
 20
-52.874636999999993
 30
0.0
 11
8.9643110000000004
 21
-52.874636999999993
 31
0.0
  0
LINE
  5
31D
  8
SYMBOL
 62
     1
 10
10.827591
 20
-40.374451999999998
 30
0.0
 11
10.827591
 21
-44.049680000000002
 31
0.0
  0
LINE
  5
31C
  8
SYMBOL
 62
     1
 10
8.9643110000000004
 20
-45.174503999999999
 30
0.0
 11
12.665549
 21
-45.174503999999999
 31
0.0
  0
LINE
  5
31B
  8
SYMBOL
 62
     1
 10
12.665549
 20
-45.874547
 30
0.0
 11
8.9643110000000004
 21
-45.874547
 31
0.0
  0
LINE
  5
31A
  8
SYMBOL
 62
     1
 10
8.9643110000000004
 20
-38.874457
 30
0.0
 11
12.665549
 21
-38.874457
 31
0.0
  0
LINE
  5
319
  8
SYMBOL
 62
     1
 10
0.000689
 20
22.500263
 30
0.0
 11
14.000007
 21
22.500263
 31
0.0
  0
LINE
  5
318
  8
SYMBOL
 62
     1
 10
0.000689
 20
16.050355
 30
0.0
 11
14.000007
 21
16.050355
 31
0.0
  0
LINE
  5
317
  8
SYMBOL
 62
     1
 10
0.000689
 20
15.500518
 30
0.0
 11
14.000007
 21
15.500518
 31
0.0
  0
LINE
  5
316
  8
SYMBOL
 62
     1
 10
0.000689
 20
10.500306999999999
 30
0.0
 11
14.000007
 21
10.500306999999999
 31
0.0
  0
LINE
  5
315
  8
SYMBOL
 62
     1
 10
0.000689
 20
0.150551
 30
0.0
 11
14.000007
 21
0.150551
 31
0.0
  0
LINE
  5
314
  8
SYMBOL
 62
     1
 10
3.1732770000000001
 20
22.500263
 30
0.0
 11
3.1732770000000001
 21
0.150551
 31
0.0
  0
LINE
  5
313
  8
SYMBOL
 62
     1
 10
9.5687529999999992
 20
6.9504799999999998
 30
0.0
 11
10.046932
 21
7.4255589999999989
 31
0.0
  0
LINE
  5
312
  8
SYMBOL
 62
     1
 10
9.4428339999999995
 20
6.6755619999999993
 30
0.0
 11
10.32409
 21
7.5754199999999994
 31
0.0
  0
LINE
  5
311
  8
SYMBOL
 62
     1
 10
9.3672149999999998
 20
6.4754009999999997
 30
0.0
 11
10.525283
 21
7.6253739999999999
 31
0.0
  0
LINE
  5
310
  8
SYMBOL
 62
     1
 10
9.342238
 20
6.3255400000000002
 30
0.0
 11
10.676695
 21
7.6505239999999999
 31
0.0
  0
LINE
  5
30F
  8
SYMBOL
 62
     1
 10
9.342238
 20
6.1753339999999994
 30
0.0
 11
10.827591
 21
7.6505239999999999
 31
0.0
  0
LINE
  5
30E
  8
SYMBOL
 62
     1
 10
9.342238
 20
6.0254719999999988
 30
0.0
 11
10.978486
 21
7.6505239999999999
 31
0.0
  0
LINE
  5
30D
  8
SYMBOL
 62
     1
 10
9.3672149999999998
 20
5.9004149999999989
 30
0.0
 11
11.104404000000001
 21
7.6253739999999999
 31
0.0
  0
LINE
  5
30C
  8
SYMBOL
 62
     1
 10
9.3925359999999998
 20
5.8005069999999987
 30
0.0
 11
11.205518
 21
7.600225
 31
0.0
  0
LINE
  5
30B
  8
SYMBOL
 62
     1
 10
9.4175129999999996
 20
5.6754499999999988
 30
0.0
 11
11.331091000000001
 21
7.5754199999999994
 31
0.0
  0
LINE
  5
30A
  8
SYMBOL
 62
     1
 10
9.4678109999999993
 20
5.5755429999999988
 30
0.0
 11
11.432033000000001
 21
7.525466999999999
 31
0.0
  0
LINE
  5
309
  8
SYMBOL
 62
     1
 10
9.5184540000000002
 20
5.5004390000000001
 30
0.0
 11
11.532629
 21
7.4755130000000003
 31
0.0
  0
LINE
  5
308
  8
SYMBOL
 62
     1
 10
9.5687529999999992
 20
5.4005320000000001
 30
0.0
 11
11.608249000000001
 21
7.4255589999999989
 31
0.0
  0
LINE
  5
307
  8
SYMBOL
 62
     1
 10
9.6190509999999971
 20
5.3254289999999989
 30
0.0
 11
11.708845999999999
 21
7.3752599999999999
 31
0.0
  0
LINE
  5
306
  8
SYMBOL
 62
     1
 10
9.6946710000000014
 20
5.2255209999999988
 30
0.0
 11
11.784466
 21
7.3005019999999998
 31
0.0
  0
LINE
  5
305
  8
SYMBOL
 62
     1
 10
9.7449690000000011
 20
5.1504180000000002
 30
0.0
 11
11.859913000000001
 21
7.2505479999999993
 31
0.0
  0
LINE
  5
304
  8
SYMBOL
 62
     1
 10
9.8202449999999981
 20
5.1004639999999988
 30
0.0
 11
11.910212
 21
7.175444999999999
 31
0.0
  0
LINE
  5
303
  8
SYMBOL
 62
     1
 10
9.8960369999999998
 20
5.0253610000000002
 30
0.0
 11
11.985832
 21
7.1003419999999986
 31
0.0
  0
LINE
  5
302
  8
SYMBOL
 62
     1
 10
9.9716570000000004
 20
4.9754069999999988
 30
0.0
 11
12.061451999999999
 21
7.025239
 31
0.0
  0
LINE
  5
301
  8
SYMBOL
 62
     1
 10
10.072253
 20
4.9003040000000002
 30
0.0
 11
12.111750000000001
 21
6.925330999999999
 31
0.0
  0
LINE
  5
300
  8
SYMBOL
 62
     1
 10
10.17285
 20
4.8503499999999988
 30
0.0
 11
12.162048
 21
6.8502279999999987
 31
0.0
  0
LINE
  5
2FF
  8
SYMBOL
 62
     1
 10
10.248469999999999
 20
4.8255449999999991
 30
0.0
 11
12.212346999999999
 21
6.7503199999999994
 31
0.0
  0
LINE
  5
2FE
  8
SYMBOL
 62
     1
 10
10.374388
 20
4.7752470000000002
 30
0.0
 11
12.237667999999999
 21
6.6504119999999993
 31
0.0
  0
LINE
  5
2FD
  8
SYMBOL
 62
     1
 10
10.474985
 20
4.7504419999999987
 30
0.0
 11
12.262644999999999
 21
6.5253550000000002
 31
0.0
  0
LINE
  5
2FC
  8
SYMBOL
 62
     1
 10
10.601076000000001
 20
4.7252929999999989
 30
0.0
 11
12.287967
 21
6.4002980000000003
 31
0.0
  0
LINE
  5
2FB
  8
SYMBOL
 62
     1
 10
10.726993999999999
 20
4.7004879999999991
 30
0.0
 11
12.313288
 21
6.2752410000000003
 31
0.0
  0
LINE
  5
2FA
  8
SYMBOL
 62
     1
 10
10.852912
 20
4.7004879999999991
 30
0.0
 11
12.313288
 21
6.1505289999999988
 31
0.0
  0
LINE
  5
2F9
  8
SYMBOL
 62
     1
 10
11.003807
 20
4.7004879999999991
 30
0.0
 11
12.313288
 21
6.0003229999999999
 31
0.0
  0
LINE
  5
2F8
  8
SYMBOL
 62
     1
 10
11.180196
 20
4.7504419999999987
 30
0.0
 11
12.262644999999999
 21
5.8253120000000003
 31
0.0
  0
LINE
  5
2F7
  8
SYMBOL
 62
     1
 10
11.406711
 20
4.8255449999999991
 30
0.0
 11
12.18737
 21
5.6003470000000002
 31
0.0
  0
LINE
  5
2F6
  8
SYMBOL
 62
     1
 10
11.733822999999999
 20
5.0005559999999987
 30
0.0
 11
12.011153
 21
5.2754750000000001
 31
0.0
  0
LINE
  5
2F5
  8
SYMBOL
 62
     1
 10
10.827591
 20
7.6505239999999999
 30
0.0
 11
10.827591
 21
10.500306999999999
 31
0.0
  0
LINE
  5
2F4
  8
SYMBOL
 62
     1
 10
10.827591
 20
12.375472
 30
0.0
 11
10.827591
 21
15.500518
 31
0.0
  0
LINE
  5
2F3
  8
SYMBOL
 62
     1
 10
10.827591
 20
19.400366000000002
 30
0.0
 11
10.827591
 21
22.500263
 31
0.0
  0
LINE
  5
2F2
  8
SYMBOL
 62
     1
 10
9.241124000000001
 20
17.200327999999999
 30
0.0
 11
8.9643110000000004
 21
17.200327999999999
 31
0.0
  0
LINE
  5
2F1
  8
SYMBOL
 62
     1
 10
12.413885000000001
 20
17.875567
 30
0.0
 11
12.665549
 21
17.875567
 31
0.0
  0
LINE
  5
2F0
  8
SYMBOL
 62
     1
 10
9.241124000000001
 20
17.875567
 30
0.0
 11
8.9643110000000004
 21
17.875567
 31
0.0
  0
LINE
  5
2EF
  8
SYMBOL
 62
     1
 10
12.413885000000001
 20
17.200327999999999
 30
0.0
 11
12.665549
 21
17.200327999999999
 31
0.0
  0
LINE
  5
2EE
  8
SYMBOL
 62
     1
 10
12.413885000000001
 20
10.875477
 30
0.0
 11
12.665549
 21
10.875477
 31
0.0
  0
LINE
  5
2ED
  8
SYMBOL
 62
     1
 10
9.241124000000001
 20
10.875477
 30
0.0
 11
8.9643110000000004
 21
10.875477
 31
0.0
  0
LINE
  5
2EC
  8
SYMBOL
 62
     1
 10
12.413885000000001
 20
10.875477
 30
0.0
 11
9.241124000000001
 21
10.875477
 31
0.0
  0
LINE
  5
2EB
  8
SYMBOL
 62
     1
 10
12.413885000000001
 20
17.875567
 30
0.0
 11
9.241124000000001
 21
17.875567
 31
0.0
  0
LINE
  5
2EA
  8
SYMBOL
 62
     1
 10
9.241124000000001
 20
17.200327999999999
 30
0.0
 11
12.413885000000001
 21
17.200327999999999
 31
0.0
  0
LINE
  5
2E9
  8
SYMBOL
 62
     1
 10
14.000007
 20
22.500263
 30
0.0
 11
14.000007
 21
-26.195817000000002
 31
0.0
  0
LINE
  5
2E8
  8
SYMBOL
 62
     1
 10
0.000689
 20
22.500263
 30
0.0
 11
0.000689
 21
-26.195817000000002
 31
0.0
  0
LINE
  5
2E7
  8
SYMBOL
 62
     1
 10
0.000689
 20
-57.499676999999998
 30
0.0
 11
14.000007
 21
-57.499676999999998
 31
0.0
  0
LINE
  5
2E6
  8
SYMBOL
 62
     1
 10
0.000689
 20
-50.499588000000003
 30
0.0
 11
14.000007
 21
-50.499588000000003
 31
0.0
  0
LINE
  5
2E5
  8
SYMBOL
 62
     1
 10
14.000007
 20
-38.499631000000001
 30
0.0
 11
14.000007
 21
-57.499676999999998
 31
0.0
  0
LINE
  5
2E4
  8
SYMBOL
 62
     1
 10
0.000689
 20
-38.499631000000001
 30
0.0
 11
0.000689
 21
-57.499676999999998
 31
0.0
  0
LINE
  5
2E3
  8
SYMBOL
 62
     1
 10
0.000689
 20
-51.049424999999992
 30
0.0
 11
14.000007
 21
-51.049424999999992
 31
0.0
  0
LINE
  5
2E2
  8
SYMBOL
 62
     1
 10
0.000689
 20
-44.049680000000002
 30
0.0
 11
14.000007
 21
-44.049680000000002
 31
0.0
  0
LINE
  5
2E1
  8
SYMBOL
 62
     1
 10
0.000689
 20
-43.499498000000003
 30
0.0
 11
14.000007
 21
-43.499498000000003
 31
0.0
  0
LINE
  5
2E0
  8
SYMBOL
 62
     1
 10
0.000689
 20
-38.499631000000001
 30
0.0
 11
14.000007
 21
-38.499631000000001
 31
0.0
  0
LINE
  5
2DF
  8
SYMBOL
 62
     1
 10
10.827591
 20
0.150551
 30
0.0
 11
10.827591
 21
4.7004879999999991
 31
0.0
  0
LINE
  5
2DE
  8
SYMBOL
 62
     1
 10
3.1732770000000001
 20
-51.049424999999992
 30
0.0
 11
3.1732770000000001
 21
-47.39969099999999
 31
0.0
  0
LINE
  5
2DD
  8
SYMBOL
 62
     1
 10
3.1732770000000001
 20
-57.499676999999998
 30
0.0
 11
3.1732770000000001
 21
-54.399436000000001
 31
0.0
  0
LINE
  5
2DC
  8
SYMBOL
 62
     1
 10
1.3099979999999991
 20
-52.174593000000002
 30
0.0
 11
5.0112360000000002
 21
-52.174593000000002
 31
0.0
  0
LINE
  5
2DB
  8
SYMBOL
 62
     1
 10
5.0112360000000002
 20
-52.874636999999993
 30
0.0
 11
1.3099979999999991
 21
-52.874636999999993
 31
0.0
  0
LINE
  5
2DA
  8
SYMBOL
 62
     1
 10
3.1732770000000001
 20
-40.374451999999998
 30
0.0
 11
3.1732770000000001
 21
-44.049680000000002
 31
0.0
  0
LINE
  5
2D9
  8
SYMBOL
 62
     1
 10
1.3099979999999991
 20
-45.174503999999999
 30
0.0
 11
5.0112360000000002
 21
-45.174503999999999
 31
0.0
  0
LINE
  5
2D8
  8
SYMBOL
 62
     1
 10
5.0112360000000002
 20
-45.874547
 30
0.0
 11
1.3099979999999991
 21
-45.874547
 31
0.0
  0
LINE
  5
2D7
  8
SYMBOL
 62
     1
 10
1.3099979999999991
 20
-38.874457
 30
0.0
 11
5.0112360000000002
 21
-38.874457
 31
0.0
  0
LINE
  5
2D6
  8
SYMBOL
 62
     1
 10
9.6693499999999997
 20
-51.049424999999992
 30
0.0
 11
9.5937300000000008
 21
-51.099378999999999
 31
0.0
  0
LINE
  5
2D5
  8
SYMBOL
 62
     1
 10
9.5937300000000008
 20
-51.099378999999999
 30
0.0
 11
9.5184540000000002
 21
-51.174481999999998
 31
0.0
  0
LINE
  5
2D4
  8
SYMBOL
 62
     1
 10
9.5184540000000002
 20
-51.174481999999998
 30
0.0
 11
9.4428339999999995
 21
-51.224435999999997
 31
0.0
  0
LINE
  5
2D3
  8
SYMBOL
 62
     1
 10
9.4428339999999995
 20
-51.224435999999997
 30
0.0
 11
9.3925359999999998
 21
-51.299539000000003
 31
0.0
  0
LINE
  5
2D2
  8
SYMBOL
 62
     1
 10
9.3925359999999998
 20
-51.299539000000003
 30
0.0
 11
9.3169160000000009
 21
-51.374642000000001
 31
0.0
  0
LINE
  5
2D1
  8
SYMBOL
 62
     1
 10
9.3169160000000009
 20
-51.374642000000001
 30
0.0
 11
9.2666179999999994
 21
-51.474550000000001
 31
0.0
  0
LINE
  5
2D0
  8
SYMBOL
 62
     1
 10
9.2666179999999994
 20
-51.474550000000001
 30
0.0
 11
9.2161469999999994
 21
-51.549652999999999
 31
0.0
  0
LINE
  5
2CF
  8
SYMBOL
 62
     1
 10
9.2161469999999994
 20
-51.549652999999999
 30
0.0
 11
9.1658489999999997
 21
-51.624411000000002
 31
0.0
  0
LINE
  5
2CE
  8
SYMBOL
 62
     1
 10
9.1658489999999997
 20
-51.624411000000002
 30
0.0
 11
9.1155500000000007
 21
-51.724664000000011
 31
0.0
  0
LINE
  5
2CD
  8
SYMBOL
 62
     1
 10
9.1155500000000007
 20
-51.724664000000011
 30
0.0
 11
9.0649069999999998
 21
-51.799422
 31
0.0
  0
LINE
  5
2CC
  8
SYMBOL
 62
     1
 10
9.0649069999999998
 20
-51.799422
 30
0.0
 11
9.0399309999999993
 21
-51.899673999999997
 31
0.0
  0
LINE
  5
2CB
  8
SYMBOL
 62
     1
 10
9.0399309999999993
 20
-51.899673999999997
 30
0.0
 11
9.0146090000000001
 21
-51.999582000000011
 31
0.0
  0
LINE
  5
2CA
  8
SYMBOL
 62
     1
 10
1.4608929999999991
 20
-44.72457399999999
 30
0.0
 11
1.4359159999999991
 21
-44.799677000000003
 31
0.0
  0
LINE
  5
2C9
  8
SYMBOL
 62
     1
 10
1.4359159999999991
 20
-44.799677000000003
 30
0.0
 11
1.3852729999999991
 21
-44.899584999999988
 31
0.0
  0
LINE
  5
2C8
  8
SYMBOL
 62
     1
 10
1.3852729999999991
 20
-44.899584999999988
 30
0.0
 11
1.3602959999999991
 21
-44.999492999999987
 31
0.0
  0
LINE
  5
2C7
  8
SYMBOL
 62
     1
 10
1.3602959999999991
 20
-44.999492999999987
 30
0.0
 11
1.334975
 21
-45.074595999999993
 31
0.0
  0
LINE
  5
2C6
  8
SYMBOL
 62
     1
 10
1.334975
 20
-45.074595999999993
 30
0.0
 11
1.3099979999999991
 21
-45.174503999999999
 31
0.0
  0
LINE
  5
2C5
  8
SYMBOL
 62
     1
 10
1.3099979999999991
 20
-45.174503999999999
 30
0.0
 11
1.284675999999999
 21
-45.274410999999994
 31
0.0
  0
LINE
  5
2C4
  8
SYMBOL
 62
     1
 10
1.284675999999999
 20
-45.274410999999994
 30
0.0
 11
1.284675999999999
 21
-45.374664000000003
 31
0.0
  0
LINE
  5
2C3
  8
SYMBOL
 62
     1
 10
1.284675999999999
 20
-45.374664000000003
 30
0.0
 11
1.284675999999999
 21
-45.474570999999997
 31
0.0
  0
LINE
  5
2C2
  8
SYMBOL
 62
     1
 10
1.284675999999999
 20
-45.474570999999997
 30
0.0
 11
1.284675999999999
 21
-45.57447899999999
 31
0.0
  0
LINE
  5
2C1
  8
SYMBOL
 62
     1
 10
1.284675999999999
 20
-45.57447899999999
 30
0.0
 11
1.284675999999999
 21
-45.674387000000003
 31
0.0
  0
LINE
  5
2C0
  8
SYMBOL
 62
     1
 10
1.284675999999999
 20
-45.674387000000003
 30
0.0
 11
1.284675999999999
 21
-45.774639000000001
 31
0.0
  0
LINE
  5
2BF
  8
SYMBOL
 62
     1
 10
1.284675999999999
 20
-45.774639000000001
 30
0.0
 11
1.3099979999999991
 21
-45.849397999999987
 31
0.0
  0
LINE
  5
2BE
  8
SYMBOL
 62
     1
 10
1.3099979999999991
 20
-45.849397999999987
 30
0.0
 11
1.334975
 21
-45.949649999999998
 31
0.0
  0
LINE
  5
2BD
  8
SYMBOL
 62
     1
 10
1.334975
 20
-45.949649999999998
 30
0.0
 11
1.3602959999999991
 21
-46.049557999999998
 31
0.0
  0
LINE
  5
2BC
  8
SYMBOL
 62
     1
 10
1.3602959999999991
 20
-46.049557999999998
 30
0.0
 11
1.3852729999999991
 21
-46.14946599999999
 31
0.0
  0
LINE
  5
2BB
  8
SYMBOL
 62
     1
 10
1.3852729999999991
 20
-46.14946599999999
 30
0.0
 11
1.4105939999999999
 21
-46.224569000000002
 31
0.0
  0
LINE
  5
2BA
  8
SYMBOL
 62
     1
 10
1.4105939999999999
 20
-46.224569000000002
 30
0.0
 11
1.4608929999999991
 21
-46.324475999999997
 31
0.0
  0
LINE
  5
2B9
  8
SYMBOL
 62
     1
 10
1.4608929999999991
 20
-46.324475999999997
 30
0.0
 11
1.486213999999999
 21
-46.424384000000003
 31
0.0
  0
LINE
  5
2B8
  8
SYMBOL
 62
     1
 10
1.486213999999999
 20
-46.424384000000003
 30
0.0
 11
1.5366850000000001
 21
-46.499487000000002
 31
0.0
  0
LINE
  5
2B7
  8
SYMBOL
 62
     1
 10
1.5366850000000001
 20
-46.499487000000002
 30
0.0
 11
1.586983
 21
-46.574590000000001
 31
0.0
  0
LINE
  5
2B6
  8
SYMBOL
 62
     1
 10
1.586983
 20
-46.574590000000001
 30
0.0
 11
1.6626029999999989
 21
-46.649692999999999
 31
0.0
  0
LINE
  5
2B5
  8
SYMBOL
 62
     1
 10
1.6626029999999989
 20
-46.649692999999999
 30
0.0
 11
1.7129009999999989
 21
-46.749600999999991
 31
0.0
  0
LINE
  5
2B4
  8
SYMBOL
 62
     1
 10
1.7129009999999989
 20
-46.749600999999991
 30
0.0
 11
1.7885209999999989
 21
-46.799554999999998
 31
0.0
  0
LINE
  5
2B3
  8
SYMBOL
 62
     1
 10
1.7885209999999989
 20
-46.799554999999998
 30
0.0
 11
1.8388199999999999
 21
-46.874657999999997
 31
0.0
  0
LINE
  5
2B2
  8
SYMBOL
 62
     1
 10
1.8388199999999999
 20
-46.874657999999997
 30
0.0
 11
1.9140950000000001
 21
-46.949416999999997
 31
0.0
  0
LINE
  5
2B1
  8
SYMBOL
 62
     1
 10
1.9140950000000001
 20
-46.949416999999997
 30
0.0
 11
1.9897149999999999
 21
-46.999370999999996
 31
0.0
  0
LINE
  5
2B0
  8
SYMBOL
 62
     1
 10
1.9897149999999999
 20
-46.999370999999996
 30
0.0
 11
2.0903119999999991
 21
-47.074474000000002
 31
0.0
  0
LINE
  5
2AF
  8
SYMBOL
 62
     1
 10
2.0903119999999991
 20
-47.074474000000002
 30
0.0
 11
2.1659320000000002
 21
-47.124428000000002
 31
0.0
  0
LINE
  5
2AE
  8
SYMBOL
 62
     1
 10
2.1659320000000002
 20
-47.124428000000002
 30
0.0
 11
2.241724
 21
-47.174382000000001
 31
0.0
  0
LINE
  5
2AD
  8
SYMBOL
 62
     1
 10
2.241724
 20
-47.174382000000001
 30
0.0
 11
2.3423199999999991
 21
-47.224679999999999
 31
0.0
  0
LINE
  5
2AC
  8
SYMBOL
 62
     1
 10
2.3423199999999991
 20
-47.224679999999999
 30
0.0
 11
2.4179400000000002
 21
-47.249484999999993
 31
0.0
  0
LINE
  5
2AB
  8
SYMBOL
 62
     1
 10
2.4179400000000002
 20
-47.249484999999993
 30
0.0
 11
2.5185369999999989
 21
-47.299438000000002
 31
0.0
  0
LINE
  5
2AA
  8
SYMBOL
 62
     1
 10
2.5185369999999989
 20
-47.299438000000002
 30
0.0
 11
2.619133999999999
 21
-47.324587999999991
 31
0.0
  0
LINE
  5
2A9
  8
SYMBOL
 62
     1
 10
2.619133999999999
 20
-47.324587999999991
 30
0.0
 11
2.6947540000000001
 21
-47.349392000000002
 31
0.0
  0
LINE
  5
2A8
  8
SYMBOL
 62
     1
 10
2.6947540000000001
 20
-47.349392000000002
 30
0.0
 11
2.79535
 21
-47.374541999999998
 31
0.0
  0
LINE
  5
2A7
  8
SYMBOL
 62
     1
 10
2.79535
 20
-47.374541999999998
 30
0.0
 11
2.8961199999999998
 21
-47.39969099999999
 31
0.0
  0
LINE
  5
2A6
  8
SYMBOL
 62
     1
 10
2.8961199999999998
 20
-47.39969099999999
 30
0.0
 11
2.997061
 21
-47.39969099999999
 31
0.0
  0
LINE
  5
2A5
  8
SYMBOL
 62
     1
 10
2.997061
 20
-47.39969099999999
 30
0.0
 11
3.097658
 21
-47.39969099999999
 31
0.0
  0
LINE
  5
2A4
  8
SYMBOL
 62
     1
 10
3.097658
 20
-47.39969099999999
 30
0.0
 11
3.198253999999999
 21
-47.39969099999999
 31
0.0
  0
LINE
  5
2A3
  8
SYMBOL
 62
     1
 10
3.198253999999999
 20
-47.39969099999999
 30
0.0
 11
3.2991959999999989
 21
-47.39969099999999
 31
0.0
  0
LINE
  5
2A2
  8
SYMBOL
 62
     1
 10
3.2991959999999989
 20
-47.39969099999999
 30
0.0
 11
3.3997919999999988
 21
-47.39969099999999
 31
0.0
  0
LINE
  5
2A1
  8
SYMBOL
 62
     1
 10
3.3997919999999988
 20
-47.39969099999999
 30
0.0
 11
3.500562
 21
-47.374541999999998
 31
0.0
  0
LINE
  5
2A0
  8
SYMBOL
 62
     1
 10
3.500562
 20
-47.374541999999998
 30
0.0
 11
3.5761809999999992
 21
-47.349392000000002
 31
0.0
  0
LINE
  5
29F
  8
SYMBOL
 62
     1
 10
3.5761809999999992
 20
-47.349392000000002
 30
0.0
 11
3.6767780000000001
 21
-47.324587999999991
 31
0.0
  0
LINE
  5
29E
  8
SYMBOL
 62
     1
 10
3.6767780000000001
 20
-47.324587999999991
 30
0.0
 11
3.7773750000000001
 21
-47.299438000000002
 31
0.0
  0
LINE
  5
29D
  8
SYMBOL
 62
     1
 10
3.7773750000000001
 20
-47.299438000000002
 30
0.0
 11
3.8783159999999999
 21
-47.274633999999999
 31
0.0
  0
LINE
  5
29C
  8
SYMBOL
 62
     1
 10
3.8783159999999999
 20
-47.274633999999999
 30
0.0
 11
3.953592
 21
-47.224679999999999
 31
0.0
  0
LINE
  5
29B
  8
SYMBOL
 62
     1
 10
3.953592
 20
-47.224679999999999
 30
0.0
 11
4.0545330000000002
 21
-47.199531
 31
0.0
  0
LINE
  5
29A
  8
SYMBOL
 62
     1
 10
4.0545330000000002
 20
-47.199531
 30
0.0
 11
4.1299799999999998
 21
-47.149577000000001
 31
0.0
  0
LINE
  5
299
  8
SYMBOL
 62
     1
 10
4.1299799999999998
 20
-47.149577000000001
 30
0.0
 11
4.2055999999999987
 21
-47.074474000000002
 31
0.0
  0
LINE
  5
298
  8
SYMBOL
 62
     1
 10
4.2055999999999987
 20
-47.074474000000002
 30
0.0
 11
4.3061970000000001
 21
-47.024520000000003
 31
0.0
  0
LINE
  5
297
  8
SYMBOL
 62
     1
 10
4.3061970000000001
 20
-47.024520000000003
 30
0.0
 11
4.381816999999999
 21
-46.974565999999989
 31
0.0
  0
LINE
  5
296
  8
SYMBOL
 62
     1
 10
4.381816999999999
 20
-46.974565999999989
 30
0.0
 11
4.4574369999999996
 21
-46.89946299999999
 31
0.0
  0
LINE
  5
295
  8
SYMBOL
 62
     1
 10
4.4574369999999996
 20
-46.89946299999999
 30
0.0
 11
4.5077350000000003
 21
-46.824359999999999
 31
0.0
  0
LINE
  5
294
  8
SYMBOL
 62
     1
 10
4.5077350000000003
 20
-46.824359999999999
 30
0.0
 11
4.5830109999999991
 21
-46.774405999999992
 31
0.0
  0
LINE
  5
293
  8
SYMBOL
 62
     1
 10
4.5830109999999991
 20
-46.774405999999992
 30
0.0
 11
4.6336529999999989
 21
-46.674497999999993
 31
0.0
  0
LINE
  5
292
  8
SYMBOL
 62
     1
 10
4.6336529999999989
 20
-46.674497999999993
 30
0.0
 11
4.7089290000000004
 21
-46.599395000000001
 31
0.0
  0
LINE
  5
291
  8
SYMBOL
 62
     1
 10
4.7089290000000004
 20
-46.599395000000001
 30
0.0
 11
4.7593990000000002
 21
-46.524636999999998
 31
0.0
  0
LINE
  5
290
  8
SYMBOL
 62
     1
 10
4.7593990000000002
 20
-46.524636999999998
 30
0.0
 11
4.8100420000000002
 21
-46.449533000000002
 31
0.0
  0
LINE
  5
28F
  8
SYMBOL
 62
     1
 10
4.8100420000000002
 20
-46.449533000000002
 30
0.0
 11
4.860341
 21
-46.349626000000001
 31
0.0
  0
LINE
  5
28E
  8
SYMBOL
 62
     1
 10
4.860341
 20
-46.349626000000001
 30
0.0
 11
4.8853179999999989
 21
-46.274522999999988
 31
0.0
  0
LINE
  5
28D
  8
SYMBOL
 62
     1
 10
4.8853179999999989
 20
-46.274522999999988
 30
0.0
 11
4.9356159999999996
 21
-46.174615000000003
 31
0.0
  0
LINE
  5
28C
  8
SYMBOL
 62
     1
 10
4.9356159999999996
 20
-46.174615000000003
 30
0.0
 11
4.9609370000000004
 21
-46.074362999999991
 31
0.0
  0
LINE
  5
28B
  8
SYMBOL
 62
     1
 10
4.9609370000000004
 20
-46.074362999999991
 30
0.0
 11
4.9862589999999987
 21
-45.999603999999991
 31
0.0
  0
LINE
  5
28A
  8
SYMBOL
 62
     1
 10
4.9862589999999987
 20
-45.999603999999991
 30
0.0
 11
5.0112360000000002
 21
-45.899695999999992
 31
0.0
  0
LINE
  5
289
  8
SYMBOL
 62
     1
 10
5.0112360000000002
 20
-45.899695999999992
 30
0.0
 11
5.0365570000000002
 21
-45.799444000000001
 31
0.0
  0
LINE
  5
288
  8
SYMBOL
 62
     1
 10
5.0365570000000002
 20
-45.799444000000001
 30
0.0
 11
5.0365570000000002
 21
-45.699536000000002
 31
0.0
  0
LINE
  5
287
  8
SYMBOL
 62
     1
 10
5.0365570000000002
 20
-45.699536000000002
 30
0.0
 11
5.0365570000000002
 21
-45.599628000000003
 31
0.0
  0
LINE
  5
286
  8
SYMBOL
 62
     1
 10
5.0365570000000002
 20
-45.599628000000003
 30
0.0
 11
5.0365570000000002
 21
-45.499375999999991
 31
0.0
  0
LINE
  5
285
  8
SYMBOL
 62
     1
 10
5.0365570000000002
 20
-45.499375999999991
 30
0.0
 11
5.0365570000000002
 21
-45.399467999999999
 31
0.0
  0
LINE
  5
284
  8
SYMBOL
 62
     1
 10
5.0365570000000002
 20
-45.399467999999999
 30
0.0
 11
5.0365570000000002
 21
-45.29956099999999
 31
0.0
  0
LINE
  5
283
  8
SYMBOL
 62
     1
 10
5.0365570000000002
 20
-45.29956099999999
 30
0.0
 11
5.0112360000000002
 21
-45.199652999999998
 31
0.0
  0
LINE
  5
282
  8
SYMBOL
 62
     1
 10
5.0112360000000002
 20
-45.199652999999998
 30
0.0
 11
4.9862589999999987
 21
-45.124549999999999
 31
0.0
  0
LINE
  5
281
  8
SYMBOL
 62
     1
 10
4.9862589999999987
 20
-45.124549999999999
 30
0.0
 11
4.9609370000000004
 21
-45.024642
 31
0.0
  0
LINE
  5
280
  8
SYMBOL
 62
     1
 10
4.9609370000000004
 20
-45.024642
 30
0.0
 11
4.9356159999999996
 21
-44.924390000000002
 31
0.0
  0
LINE
  5
27F
  8
SYMBOL
 62
     1
 10
4.9356159999999996
 20
-44.924390000000002
 30
0.0
 11
4.9106389999999989
 21
-44.824482000000003
 31
0.0
  0
LINE
  5
27E
  8
SYMBOL
 62
     1
 10
4.9106389999999989
 20
-44.824482000000003
 30
0.0
 11
4.860341
 21
-44.74937899999999
 31
0.0
  0
LINE
  5
27D
  8
SYMBOL
 62
     1
 10
4.860341
 20
-44.74937899999999
 30
0.0
 11
4.8350189999999991
 21
-44.649470999999998
 31
0.0
  0
LINE
  5
27C
  8
SYMBOL
 62
     1
 10
4.8350189999999991
 20
-44.649470999999998
 30
0.0
 11
4.7847210000000002
 21
-44.574367999999993
 31
0.0
  0
LINE
  5
27B
  8
SYMBOL
 62
     1
 10
4.7847210000000002
 20
-44.574367999999993
 30
0.0
 11
4.7342500000000003
 21
-44.499608999999992
 31
0.0
  0
LINE
  5
27A
  8
SYMBOL
 62
     1
 10
4.7342500000000003
 20
-44.499608999999992
 30
0.0
 11
4.6586299999999996
 21
-44.399701999999998
 31
0.0
  0
LINE
  5
279
  8
SYMBOL
 62
     1
 10
4.6586299999999996
 20
-44.399701999999998
 30
0.0
 11
4.608331999999999
 21
-44.324598999999999
 31
0.0
  0
LINE
  5
278
  8
SYMBOL
 62
     1
 10
4.608331999999999
 20
-44.324598999999999
 30
0.0
 11
4.5327120000000001
 21
-44.249495000000003
 31
0.0
  0
LINE
  5
277
  8
SYMBOL
 62
     1
 10
4.5327120000000001
 20
-44.249495000000003
 30
0.0
 11
4.4574369999999996
 21
-44.199542000000001
 31
0.0
  0
LINE
  5
276
  8
SYMBOL
 62
     1
 10
4.4574369999999996
 20
-44.199542000000001
 30
0.0
 11
4.4067939999999997
 21
-44.124437999999998
 31
0.0
  0
LINE
  5
275
  8
SYMBOL
 62
     1
 10
4.4067939999999997
 20
-44.124437999999998
 30
0.0
 11
4.3315190000000001
 21
-44.049680000000002
 31
0.0
  0
LINE
  5
274
  8
SYMBOL
 62
     1
 10
1.284675999999999
 20
-38.499631000000001
 30
0.0
 11
1.284675999999999
 21
-38.599539
 31
0.0
  0
LINE
  5
273
  8
SYMBOL
 62
     1
 10
1.284675999999999
 20
-38.599539
 30
0.0
 11
1.284675999999999
 21
-38.699446999999999
 31
0.0
  0
LINE
  5
272
  8
SYMBOL
 62
     1
 10
1.284675999999999
 20
-38.699446999999999
 30
0.0
 11
1.3099979999999991
 21
-38.799354000000001
 31
0.0
  0
LINE
  5
271
  8
SYMBOL
 62
     1
 10
1.3099979999999991
 20
-38.799354000000001
 30
0.0
 11
1.3099979999999991
 21
-38.874457
 31
0.0
  0
LINE
  5
270
  8
SYMBOL
 62
     1
 10
1.3099979999999991
 20
-38.874457
 30
0.0
 11
1.334975
 21
-38.974364999999999
 31
0.0
  0
LINE
  5
26F
  8
SYMBOL
 62
     1
 10
1.334975
 20
-38.974364999999999
 30
0.0
 11
1.3602959999999991
 21
-39.074618000000001
 31
0.0
  0
LINE
  5
26E
  8
SYMBOL
 62
     1
 10
1.3602959999999991
 20
-39.074618000000001
 30
0.0
 11
1.4105939999999999
 21
-39.174525000000003
 31
0.0
  0
LINE
  5
26D
  8
SYMBOL
 62
     1
 10
1.4105939999999999
 20
-39.174525000000003
 30
0.0
 11
1.4359159999999991
 21
-39.249628000000001
 31
0.0
  0
LINE
  5
26C
  8
SYMBOL
 62
     1
 10
1.4359159999999991
 20
-39.249628000000001
 30
0.0
 11
1.486213999999999
 21
-39.349536000000001
 31
0.0
  0
LINE
  5
26B
  8
SYMBOL
 62
     1
 10
1.486213999999999
 20
-39.349536000000001
 30
0.0
 11
1.5366850000000001
 21
-39.424638999999999
 31
0.0
  0
LINE
  5
26A
  8
SYMBOL
 62
     1
 10
1.5366850000000001
 20
-39.424638999999999
 30
0.0
 11
1.586983
 21
-39.524546999999998
 31
0.0
  0
LINE
  5
269
  8
SYMBOL
 62
     1
 10
1.586983
 20
-39.524546999999998
 30
0.0
 11
1.637281999999999
 21
-39.599649999999997
 31
0.0
  0
LINE
  5
268
  8
SYMBOL
 62
     1
 10
1.637281999999999
 20
-39.599649999999997
 30
0.0
 11
1.687579999999999
 21
-39.674409000000011
 31
0.0
  0
LINE
  5
267
  8
SYMBOL
 62
     1
 10
1.6626029999999989
 20
-51.374642000000001
 30
0.0
 11
1.612304999999999
 21
-51.474550000000001
 31
0.0
  0
LINE
  5
266
  8
SYMBOL
 62
     1
 10
1.612304999999999
 20
-51.474550000000001
 30
0.0
 11
1.5616620000000001
 21
-51.549652999999999
 31
0.0
  0
LINE
  5
265
  8
SYMBOL
 62
     1
 10
1.5616620000000001
 20
-51.549652999999999
 30
0.0
 11
1.5111909999999991
 21
-51.624411000000002
 31
0.0
  0
LINE
  5
264
  8
SYMBOL
 62
     1
 10
1.5111909999999991
 20
-51.624411000000002
 30
0.0
 11
1.4608929999999991
 21
-51.724664000000011
 31
0.0
  0
LINE
  5
263
  8
SYMBOL
 62
     1
 10
1.4608929999999991
 20
-51.724664000000011
 30
0.0
 11
1.4105939999999999
 21
-51.799422
 31
0.0
  0
LINE
  5
262
  8
SYMBOL
 62
     1
 10
1.4105939999999999
 20
-51.799422
 30
0.0
 11
1.3852729999999991
 21
-51.899673999999997
 31
0.0
  0
LINE
  5
261
  8
SYMBOL
 62
     1
 10
1.3852729999999991
 20
-51.899673999999997
 30
0.0
 11
1.3602959999999991
 21
-51.999582000000011
 31
0.0
  0
LINE
  5
260
  8
SYMBOL
 62
     1
 10
1.3602959999999991
 20
-51.999582000000011
 30
0.0
 11
1.334975
 21
-52.074685000000002
 31
0.0
  0
LINE
  5
25F
  8
SYMBOL
 62
     1
 10
1.334975
 20
-52.074685000000002
 30
0.0
 11
1.3099979999999991
 21
-52.174593000000002
 31
0.0
  0
LINE
  5
25E
  8
SYMBOL
 62
     1
 10
1.3099979999999991
 20
-52.174593000000002
 30
0.0
 11
1.284675999999999
 21
-52.274501000000001
 31
0.0
  0
LINE
  5
25D
  8
SYMBOL
 62
     1
 10
1.284675999999999
 20
-52.274501000000001
 30
0.0
 11
1.284675999999999
 21
-52.374409
 31
0.0
  0
LINE
  5
25C
  8
SYMBOL
 62
     1
 10
1.284675999999999
 20
-52.374409
 30
0.0
 11
1.284675999999999
 21
-52.474660999999998
 31
0.0
  0
LINE
  5
25B
  8
SYMBOL
 62
     1
 10
1.284675999999999
 20
-52.474660999999998
 30
0.0
 11
1.284675999999999
 21
-52.574568999999997
 31
0.0
  0
LINE
  5
25A
  8
SYMBOL
 62
     1
 10
1.284675999999999
 20
-52.574568999999997
 30
0.0
 11
1.284675999999999
 21
-52.674475999999999
 31
0.0
  0
LINE
  5
259
  8
SYMBOL
 62
     1
 10
1.284675999999999
 20
-52.674475999999999
 30
0.0
 11
1.284675999999999
 21
-52.774383999999998
 31
0.0
  0
LINE
  5
258
  8
SYMBOL
 62
     1
 10
1.284675999999999
 20
-52.774383999999998
 30
0.0
 11
1.3099979999999991
 21
-52.874636999999993
 31
0.0
  0
LINE
  5
257
  8
SYMBOL
 62
     1
 10
1.3099979999999991
 20
-52.874636999999993
 30
0.0
 11
1.334975
 21
-52.949394999999988
 31
0.0
  0
LINE
  5
256
  8
SYMBOL
 62
     1
 10
1.334975
 20
-52.949394999999988
 30
0.0
 11
1.3602959999999991
 21
-53.049647
 31
0.0
  0
LINE
  5
255
  8
SYMBOL
 62
     1
 10
1.3602959999999991
 20
-53.049647
 30
0.0
 11
1.3852729999999991
 21
-53.149554999999999
 31
0.0
  0
LINE
  5
254
  8
SYMBOL
 62
     1
 10
1.3852729999999991
 20
-53.149554999999999
 30
0.0
 11
1.4105939999999999
 21
-53.249462999999999
 31
0.0
  0
LINE
  5
253
  8
SYMBOL
 62
     1
 10
1.4105939999999999
 20
-53.249462999999999
 30
0.0
 11
1.4608929999999991
 21
-53.324565999999997
 31
0.0
  0
LINE
  5
252
  8
SYMBOL
 62
     1
 10
1.4608929999999991
 20
-53.324565999999997
 30
0.0
 11
1.5111909999999991
 21
-53.424473999999996
 31
0.0
  0
LINE
  5
251
  8
SYMBOL
 62
     1
 10
1.5111909999999991
 20
-53.424473999999996
 30
0.0
 11
1.5366850000000001
 21
-53.499577000000002
 31
0.0
  0
LINE
  5
250
  8
SYMBOL
 62
     1
 10
1.5366850000000001
 20
-53.499577000000002
 30
0.0
 11
1.612304999999999
 21
-53.574680000000001
 31
0.0
  0
LINE
  5
24F
  8
SYMBOL
 62
     1
 10
1.612304999999999
 20
-53.574680000000001
 30
0.0
 11
1.6626029999999989
 21
-53.674588
 31
0.0
  0
LINE
  5
24E
  8
SYMBOL
 62
     1
 10
1.6626029999999989
 20
-53.674588
 30
0.0
 11
1.7129009999999989
 21
-53.749691000000013
 31
0.0
  0
LINE
  5
24D
  8
SYMBOL
 62
     1
 10
1.7129009999999989
 20
-53.749691000000013
 30
0.0
 11
1.7885209999999989
 21
-53.824449000000001
 31
0.0
  0
LINE
  5
24C
  8
SYMBOL
 62
     1
 10
1.7885209999999989
 20
-53.824449000000001
 30
0.0
 11
1.8637969999999999
 21
-53.874403000000001
 31
0.0
  0
LINE
  5
24B
  8
SYMBOL
 62
     1
 10
1.8637969999999999
 20
-53.874403000000001
 30
0.0
 11
1.9394169999999991
 21
-53.949506000000007
 31
0.0
  0
LINE
  5
24A
  8
SYMBOL
 62
     1
 10
1.9394169999999991
 20
-53.949506000000007
 30
0.0
 11
2.0150359999999998
 21
-53.999459999999992
 31
0.0
  0
LINE
  5
249
  8
SYMBOL
 62
     1
 10
2.0150359999999998
 20
-53.999459999999992
 30
0.0
 11
2.0903119999999991
 21
-54.074562999999991
 31
0.0
  0
LINE
  5
248
  8
SYMBOL
 62
     1
 10
2.0903119999999991
 20
-54.074562999999991
 30
0.0
 11
2.1659320000000002
 21
-54.124516999999997
 31
0.0
  0
LINE
  5
247
  8
SYMBOL
 62
     1
 10
2.1659320000000002
 20
-54.124516999999997
 30
0.0
 11
2.241724
 21
-54.174470999999997
 31
0.0
  0
LINE
  5
246
  8
SYMBOL
 62
     1
 10
2.241724
 20
-54.174470999999997
 30
0.0
 11
2.3423199999999991
 21
-54.224424999999989
 31
0.0
  0
LINE
  5
245
  8
SYMBOL
 62
     1
 10
2.3423199999999991
 20
-54.224424999999989
 30
0.0
 11
2.4179400000000002
 21
-54.249574000000003
 31
0.0
  0
LINE
  5
244
  8
SYMBOL
 62
     1
 10
2.4179400000000002
 20
-54.249574000000003
 30
0.0
 11
2.5185369999999989
 21
-54.299528000000002
 31
0.0
  0
LINE
  5
243
  8
SYMBOL
 62
     1
 10
2.5185369999999989
 20
-54.299528000000002
 30
0.0
 11
2.619133999999999
 21
-54.324677000000001
 31
0.0
  0
LINE
  5
242
  8
SYMBOL
 62
     1
 10
2.619133999999999
 20
-54.324677000000001
 30
0.0
 11
2.720075
 21
-54.349482000000002
 31
0.0
  0
LINE
  5
241
  8
SYMBOL
 62
     1
 10
2.720075
 20
-54.349482000000002
 30
0.0
 11
2.79535
 21
-54.374631000000008
 31
0.0
  0
LINE
  5
240
  8
SYMBOL
 62
     1
 10
2.79535
 20
-54.374631000000008
 30
0.0
 11
2.8961199999999998
 21
-54.374631000000008
 31
0.0
  0
LINE
  5
23F
  8
SYMBOL
 62
     1
 10
2.8961199999999998
 20
-54.374631000000008
 30
0.0
 11
2.997061
 21
-54.399436000000001
 31
0.0
  0
LINE
  5
23E
  8
SYMBOL
 62
     1
 10
2.997061
 20
-54.399436000000001
 30
0.0
 11
3.097658
 21
-54.399436000000001
 31
0.0
  0
LINE
  5
23D
  8
SYMBOL
 62
     1
 10
3.097658
 20
-54.399436000000001
 30
0.0
 11
3.198253999999999
 21
-54.399436000000001
 31
0.0
  0
LINE
  5
23C
  8
SYMBOL
 62
     1
 10
3.198253999999999
 20
-54.399436000000001
 30
0.0
 11
3.2991959999999989
 21
-54.399436000000001
 31
0.0
  0
LINE
  5
23B
  8
SYMBOL
 62
     1
 10
3.2991959999999989
 20
-54.399436000000001
 30
0.0
 11
3.3997919999999988
 21
-54.399436000000001
 31
0.0
  0
LINE
  5
23A
  8
SYMBOL
 62
     1
 10
3.3997919999999988
 20
-54.399436000000001
 30
0.0
 11
3.500562
 21
-54.374631000000008
 31
0.0
  0
LINE
  5
239
  8
SYMBOL
 62
     1
 10
3.500562
 20
-54.374631000000008
 30
0.0
 11
3.6011579999999999
 21
-54.349482000000002
 31
0.0
  0
LINE
  5
238
  8
SYMBOL
 62
     1
 10
3.6011579999999999
 20
-54.349482000000002
 30
0.0
 11
3.6767780000000001
 21
-54.324677000000001
 31
0.0
  0
LINE
  5
237
  8
SYMBOL
 62
     1
 10
3.6767780000000001
 20
-54.324677000000001
 30
0.0
 11
3.7773750000000001
 21
-54.299528000000002
 31
0.0
  0
LINE
  5
236
  8
SYMBOL
 62
     1
 10
3.7773750000000001
 20
-54.299528000000002
 30
0.0
 11
3.8783159999999999
 21
-54.27437900000001
 31
0.0
  0
LINE
  5
235
  8
SYMBOL
 62
     1
 10
3.8783159999999999
 20
-54.27437900000001
 30
0.0
 11
3.953592
 21
-54.224424999999989
 31
0.0
  0
LINE
  5
234
  8
SYMBOL
 62
     1
 10
3.953592
 20
-54.224424999999989
 30
0.0
 11
4.0545330000000002
 21
-54.174470999999997
 31
0.0
  0
LINE
  5
233
  8
SYMBOL
 62
     1
 10
4.0545330000000002
 20
-54.174470999999997
 30
0.0
 11
4.1299799999999998
 21
-54.124516999999997
 31
0.0
  0
LINE
  5
232
  8
SYMBOL
 62
     1
 10
4.1299799999999998
 20
-54.124516999999997
 30
0.0
 11
4.2309219999999996
 21
-54.074562999999991
 31
0.0
  0
LINE
  5
231
  8
SYMBOL
 62
     1
 10
4.2309219999999996
 20
-54.074562999999991
 30
0.0
 11
4.3061970000000001
 21
-54.024608999999998
 31
0.0
  0
LINE
  5
230
  8
SYMBOL
 62
     1
 10
4.3061970000000001
 20
-54.024608999999998
 30
0.0
 11
4.381816999999999
 21
-53.949506000000007
 31
0.0
  0
LINE
  5
22F
  8
SYMBOL
 62
     1
 10
4.381816999999999
 20
-53.949506000000007
 30
0.0
 11
4.4574369999999996
 21
-53.899552
 31
0.0
  0
LINE
  5
22E
  8
SYMBOL
 62
     1
 10
4.4574369999999996
 20
-53.899552
 30
0.0
 11
4.5327120000000001
 21
-53.824449000000001
 31
0.0
  0
LINE
  5
22D
  8
SYMBOL
 62
     1
 10
4.5327120000000001
 20
-53.824449000000001
 30
0.0
 11
4.5830109999999991
 21
-53.749691000000013
 31
0.0
  0
LINE
  5
22C
  8
SYMBOL
 62
     1
 10
4.5830109999999991
 20
-53.749691000000013
 30
0.0
 11
4.6586299999999996
 21
-53.674588
 31
0.0
  0
LINE
  5
22B
  8
SYMBOL
 62
     1
 10
4.6586299999999996
 20
-53.674588
 30
0.0
 11
4.7089290000000004
 21
-53.599484999999987
 31
0.0
  0
LINE
  5
22A
  8
SYMBOL
 62
     1
 10
4.7089290000000004
 20
-53.599484999999987
 30
0.0
 11
4.7593990000000002
 21
-53.524381999999989
 31
0.0
  0
LINE
  5
229
  8
SYMBOL
 62
     1
 10
4.7593990000000002
 20
-53.524381999999989
 30
0.0
 11
4.8100420000000002
 21
-53.424473999999996
 31
0.0
  0
LINE
  5
228
  8
SYMBOL
 62
     1
 10
4.8100420000000002
 20
-53.424473999999996
 30
0.0
 11
4.860341
 21
-53.349370999999998
 31
0.0
  0
LINE
  5
227
  8
SYMBOL
 62
     1
 10
4.860341
 20
-53.349370999999998
 30
0.0
 11
4.9106389999999989
 21
-53.249462999999999
 31
0.0
  0
LINE
  5
226
  8
SYMBOL
 62
     1
 10
4.9106389999999989
 20
-53.249462999999999
 30
0.0
 11
4.9356159999999996
 21
-53.17436
 31
0.0
  0
LINE
  5
225
  8
SYMBOL
 62
     1
 10
4.9356159999999996
 20
-53.17436
 30
0.0
 11
4.9609370000000004
 21
-53.074452000000001
 31
0.0
  0
LINE
  5
224
  8
SYMBOL
 62
     1
 10
4.9609370000000004
 20
-53.074452000000001
 30
0.0
 11
4.9862589999999987
 21
-52.974543999999987
 31
0.0
  0
LINE
  5
223
  8
SYMBOL
 62
     1
 10
4.9862589999999987
 20
-52.974543999999987
 30
0.0
 11
5.0112360000000002
 21
-52.874636999999993
 31
0.0
  0
LINE
  5
222
  8
SYMBOL
 62
     1
 10
5.0112360000000002
 20
-52.874636999999993
 30
0.0
 11
5.0365570000000002
 21
-52.774383999999998
 31
0.0
  0
LINE
  5
221
  8
SYMBOL
 62
     1
 10
5.0365570000000002
 20
-52.774383999999998
 30
0.0
 11
5.0365570000000002
 21
-52.699626000000002
 31
0.0
  0
LINE
  5
220
  8
SYMBOL
 62
     1
 10
5.0365570000000002
 20
-52.699626000000002
 30
0.0
 11
5.0365570000000002
 21
-52.599373
 31
0.0
  0
LINE
  5
21F
  8
SYMBOL
 62
     1
 10
5.0365570000000002
 20
-52.599373
 30
0.0
 11
5.0365570000000002
 21
-52.499466000000012
 31
0.0
  0
LINE
  5
21E
  8
SYMBOL
 62
     1
 10
5.0365570000000002
 20
-52.499466000000012
 30
0.0
 11
5.0365570000000002
 21
-52.399557999999999
 31
0.0
  0
LINE
  5
21D
  8
SYMBOL
 62
     1
 10
5.0365570000000002
 20
-52.399557999999999
 30
0.0
 11
5.0365570000000002
 21
-52.299649999999993
 31
0.0
  0
LINE
  5
21C
  8
SYMBOL
 62
     1
 10
5.0365570000000002
 20
-52.299649999999993
 30
0.0
 11
5.0112360000000002
 21
-52.199397999999988
 31
0.0
  0
LINE
  5
21B
  8
SYMBOL
 62
     1
 10
5.0112360000000002
 20
-52.199397999999988
 30
0.0
 11
4.9862589999999987
 21
-52.099490000000003
 31
0.0
  0
LINE
  5
21A
  8
SYMBOL
 62
     1
 10
4.9862589999999987
 20
-52.099490000000003
 30
0.0
 11
4.9609370000000004
 21
-51.999582000000011
 31
0.0
  0
LINE
  5
219
  8
SYMBOL
 62
     1
 10
4.9609370000000004
 20
-51.999582000000011
 30
0.0
 11
4.9356159999999996
 21
-51.924478999999998
 31
0.0
  0
LINE
  5
218
  8
SYMBOL
 62
     1
 10
4.9356159999999996
 20
-51.924478999999998
 30
0.0
 11
4.9106389999999989
 21
-51.824570999999999
 31
0.0
  0
LINE
  5
217
  8
SYMBOL
 62
     1
 10
4.9106389999999989
 20
-51.824570999999999
 30
0.0
 11
4.860341
 21
-51.724664000000011
 31
0.0
  0
LINE
  5
216
  8
SYMBOL
 62
     1
 10
4.860341
 20
-51.724664000000011
 30
0.0
 11
4.8100420000000002
 21
-51.649560999999999
 31
0.0
  0
LINE
  5
215
  8
SYMBOL
 62
     1
 10
4.8100420000000002
 20
-51.649560999999999
 30
0.0
 11
4.7847210000000002
 21
-51.549652999999999
 31
0.0
  0
LINE
  5
214
  8
SYMBOL
 62
     1
 10
4.7847210000000002
 20
-51.549652999999999
 30
0.0
 11
4.7089290000000004
 21
-51.474550000000001
 31
0.0
  0
LINE
  5
213
  8
SYMBOL
 62
     1
 10
4.7089290000000004
 20
-51.474550000000001
 30
0.0
 11
4.6586299999999996
 21
-51.399447000000002
 31
0.0
  0
LINE
  5
212
  8
SYMBOL
 62
     1
 10
4.6586299999999996
 20
-51.399447000000002
 30
0.0
 11
4.608331999999999
 21
-51.324688000000002
 31
0.0
  0
LINE
  5
211
  8
SYMBOL
 62
     1
 10
4.608331999999999
 20
-51.324688000000002
 30
0.0
 11
4.5327120000000001
 21
-51.249584999999989
 31
0.0
  0
LINE
  5
210
  8
SYMBOL
 62
     1
 10
4.5327120000000001
 20
-51.249584999999989
 30
0.0
 11
4.4574369999999996
 21
-51.174481999999998
 31
0.0
  0
LINE
  5
20F
  8
SYMBOL
 62
     1
 10
4.4574369999999996
 20
-51.174481999999998
 30
0.0
 11
4.381816999999999
 21
-51.124527999999998
 31
0.0
  0
LINE
  5
20E
  8
SYMBOL
 62
     1
 10
4.381816999999999
 20
-51.124527999999998
 30
0.0
 11
4.3061970000000001
 21
-51.049424999999992
 31
0.0
  0
LINE
  5
20D
  8
SYMBOL
 62
     1
 10
2.0150359999999998
 20
-44.049680000000002
 30
0.0
 11
1.9394169999999991
 21
-44.099634000000002
 31
0.0
  0
LINE
  5
20C
  8
SYMBOL
 62
     1
 10
1.9394169999999991
 20
-44.099634000000002
 30
0.0
 11
1.8637969999999999
 21
-44.17439199999999
 31
0.0
  0
LINE
  5
20B
  8
SYMBOL
 62
     1
 10
1.8637969999999999
 20
-44.17439199999999
 30
0.0
 11
1.8134980000000001
 21
-44.224690999999993
 31
0.0
  0
LINE
  5
20A
  8
SYMBOL
 62
     1
 10
1.8134980000000001
 20
-44.224690999999993
 30
0.0
 11
1.7378779999999989
 21
-44.299448999999989
 31
0.0
  0
LINE
  5
209
  8
SYMBOL
 62
     1
 10
1.7378779999999989
 20
-44.299448999999989
 30
0.0
 11
1.6626029999999989
 21
-44.374552000000001
 31
0.0
  0
LINE
  5
208
  8
SYMBOL
 62
     1
 10
1.6626029999999989
 20
-44.374552000000001
 30
0.0
 11
1.612304999999999
 21
-44.449655
 31
0.0
  0
LINE
  5
207
  8
SYMBOL
 62
     1
 10
1.612304999999999
 20
-44.449655
 30
0.0
 11
1.5616620000000001
 21
-44.549562999999999
 31
0.0
  0
LINE
  5
206
  8
SYMBOL
 62
     1
 10
1.5616620000000001
 20
-44.549562999999999
 30
0.0
 11
1.5111909999999991
 21
-44.624665999999991
 31
0.0
  0
LINE
  5
205
  8
SYMBOL
 62
     1
 10
1.5111909999999991
 20
-44.624665999999991
 30
0.0
 11
1.4608929999999991
 21
-44.72457399999999
 31
0.0
  0
LINE
  5
204
  8
SYMBOL
 62
     1
 10
1.687579999999999
 20
-39.674409000000011
 30
0.0
 11
1.7632000000000001
 21
-39.749512000000003
 31
0.0
  0
LINE
  5
203
  8
SYMBOL
 62
     1
 10
1.7632000000000001
 20
-39.749512000000003
 30
0.0
 11
1.8388199999999999
 21
-39.824615000000001
 31
0.0
  0
LINE
  5
202
  8
SYMBOL
 62
     1
 10
1.8388199999999999
 20
-39.824615000000001
 30
0.0
 11
1.8891180000000001
 21
-39.874569000000001
 31
0.0
  0
LINE
  5
201
  8
SYMBOL
 62
     1
 10
1.8891180000000001
 20
-39.874569000000001
 30
0.0
 11
1.9643930000000001
 21
-39.949672
 31
0.0
  0
LINE
  5
200
  8
SYMBOL
 62
     1
 10
1.9643930000000001
 20
-39.949672
 30
0.0
 11
2.0400130000000001
 21
-39.999625999999999
 31
0.0
  0
LINE
  5
1FF
  8
SYMBOL
 62
     1
 10
2.0400130000000001
 20
-39.999625999999999
 30
0.0
 11
2.1406099999999988
 21
-40.074384000000002
 31
0.0
  0
LINE
  5
1FE
  8
SYMBOL
 62
     1
 10
2.1406099999999988
 20
-40.074384000000002
 30
0.0
 11
2.2164019999999991
 21
-40.124682999999997
 31
0.0
  0
LINE
  5
1FD
  8
SYMBOL
 62
     1
 10
2.2164019999999991
 20
-40.124682999999997
 30
0.0
 11
2.2920219999999998
 21
-40.17463699999999
 31
0.0
  0
LINE
  5
1FC
  8
SYMBOL
 62
     1
 10
2.2920219999999998
 20
-40.17463699999999
 30
0.0
 11
2.3926189999999989
 21
-40.199441
 31
0.0
  0
LINE
  5
1FB
  8
SYMBOL
 62
     1
 10
2.3926189999999989
 20
-40.199441
 30
0.0
 11
2.493215999999999
 21
-40.249395
 31
0.0
  0
LINE
  5
1FA
  8
SYMBOL
 62
     1
 10
2.493215999999999
 20
-40.249395
 30
0.0
 11
2.5688349999999991
 21
-40.274543999999992
 31
0.0
  0
LINE
  5
1F9
  8
SYMBOL
 62
     1
 10
2.5688349999999991
 20
-40.274543999999992
 30
0.0
 11
2.669432
 21
-40.299692999999998
 31
0.0
  0
LINE
  5
1F8
  8
SYMBOL
 62
     1
 10
2.669432
 20
-40.299692999999998
 30
0.0
 11
2.7703739999999999
 21
-40.324497999999998
 31
0.0
  0
LINE
  5
1F7
  8
SYMBOL
 62
     1
 10
2.7703739999999999
 20
-40.324497999999998
 30
0.0
 11
2.871143
 21
-40.34964699999999
 31
0.0
  0
LINE
  5
1F6
  8
SYMBOL
 62
     1
 10
2.871143
 20
-40.34964699999999
 30
0.0
 11
2.971738999999999
 21
-40.34964699999999
 31
0.0
  0
LINE
  5
1F5
  8
SYMBOL
 62
     1
 10
2.971738999999999
 20
-40.34964699999999
 30
0.0
 11
3.0723359999999991
 21
-40.374451999999998
 31
0.0
  0
LINE
  5
1F4
  8
SYMBOL
 62
     1
 10
3.0723359999999991
 20
-40.374451999999998
 30
0.0
 11
3.1479560000000002
 21
-40.374451999999998
 31
0.0
  0
LINE
  5
1F3
  8
SYMBOL
 62
     1
 10
3.1479560000000002
 20
-40.374451999999998
 30
0.0
 11
3.2485529999999989
 21
-40.374451999999998
 31
0.0
  0
LINE
  5
1F2
  8
SYMBOL
 62
     1
 10
3.2485529999999989
 20
-40.374451999999998
 30
0.0
 11
3.349494
 21
-40.34964699999999
 31
0.0
  0
LINE
  5
1F1
  8
SYMBOL
 62
     1
 10
3.349494
 20
-40.34964699999999
 30
0.0
 11
3.450091
 21
-40.34964699999999
 31
0.0
  0
LINE
  5
1F0
  8
SYMBOL
 62
     1
 10
3.450091
 20
-40.34964699999999
 30
0.0
 11
3.5508599999999988
 21
-40.324497999999998
 31
0.0
  0
LINE
  5
1EF
  8
SYMBOL
 62
     1
 10
3.5508599999999988
 20
-40.324497999999998
 30
0.0
 11
3.6514570000000002
 21
-40.299692999999998
 31
0.0
  0
LINE
  5
1EE
  8
SYMBOL
 62
     1
 10
3.6514570000000002
 20
-40.299692999999998
 30
0.0
 11
3.7523979999999999
 21
-40.274543999999992
 31
0.0
  0
LINE
  5
1ED
  8
SYMBOL
 62
     1
 10
3.7523979999999999
 20
-40.274543999999992
 30
0.0
 11
3.8276729999999999
 21
-40.249395
 31
0.0
  0
LINE
  5
1EC
  8
SYMBOL
 62
     1
 10
3.8276729999999999
 20
-40.249395
 30
0.0
 11
3.9286150000000002
 21
-40.199441
 31
0.0
  0
LINE
  5
1EB
  8
SYMBOL
 62
     1
 10
3.9286150000000002
 20
-40.199441
 30
0.0
 11
4.0038900000000002
 21
-40.17463699999999
 31
0.0
  0
LINE
  5
1EA
  8
SYMBOL
 62
     1
 10
4.0038900000000002
 20
-40.17463699999999
 30
0.0
 11
4.1050040000000001
 21
-40.124682999999997
 31
0.0
  0
LINE
  5
1E9
  8
SYMBOL
 62
     1
 10
4.1050040000000001
 20
-40.124682999999997
 30
0.0
 11
4.1802789999999996
 21
-40.074384000000002
 31
0.0
  0
LINE
  5
1E8
  8
SYMBOL
 62
     1
 10
4.1802789999999996
 20
-40.074384000000002
 30
0.0
 11
4.2558989999999994
 21
-39.999625999999999
 31
0.0
  0
LINE
  5
1E7
  8
SYMBOL
 62
     1
 10
4.2558989999999994
 20
-39.999625999999999
 30
0.0
 11
4.3564949999999989
 21
-39.949672
 31
0.0
  0
LINE
  5
1E6
  8
SYMBOL
 62
     1
 10
4.3564949999999989
 20
-39.949672
 30
0.0
 11
4.4321149999999996
 21
-39.874569000000001
 31
0.0
  0
LINE
  5
1E5
  8
SYMBOL
 62
     1
 10
4.4321149999999996
 20
-39.874569000000001
 30
0.0
 11
4.4824140000000003
 21
-39.824615000000001
 31
0.0
  0
LINE
  5
1E4
  8
SYMBOL
 62
     1
 10
4.4824140000000003
 20
-39.824615000000001
 30
0.0
 11
4.5580339999999993
 21
-39.749512000000003
 31
0.0
  0
LINE
  5
1E3
  8
SYMBOL
 62
     1
 10
4.5580339999999993
 20
-39.749512000000003
 30
0.0
 11
4.6336529999999989
 21
-39.674409000000011
 31
0.0
  0
LINE
  5
1E2
  8
SYMBOL
 62
     1
 10
4.6336529999999989
 20
-39.674409000000011
 30
0.0
 11
4.6839519999999988
 21
-39.599649999999997
 31
0.0
  0
LINE
  5
1E1
  8
SYMBOL
 62
     1
 10
4.6839519999999988
 20
-39.599649999999997
 30
0.0
 11
4.7342500000000003
 21
-39.524546999999998
 31
0.0
  0
LINE
  5
1E0
  8
SYMBOL
 62
     1
 10
4.7342500000000003
 20
-39.524546999999998
 30
0.0
 11
4.7847210000000002
 21
-39.424638999999999
 31
0.0
  0
LINE
  5
1DF
  8
SYMBOL
 62
     1
 10
4.7847210000000002
 20
-39.424638999999999
 30
0.0
 11
4.8350189999999991
 21
-39.349536000000001
 31
0.0
  0
LINE
  5
1DE
  8
SYMBOL
 62
     1
 10
4.8350189999999991
 20
-39.349536000000001
 30
0.0
 11
4.8853179999999989
 21
-39.249628000000001
 31
0.0
  0
LINE
  5
1DD
  8
SYMBOL
 62
     1
 10
4.8853179999999989
 20
-39.249628000000001
 30
0.0
 11
4.9106389999999989
 21
-39.174525000000003
 31
0.0
  0
LINE
  5
1DC
  8
SYMBOL
 62
     1
 10
4.9106389999999989
 20
-39.174525000000003
 30
0.0
 11
4.9609370000000004
 21
-39.074618000000001
 31
0.0
  0
LINE
  5
1DB
  8
SYMBOL
 62
     1
 10
4.9609370000000004
 20
-39.074618000000001
 30
0.0
 11
4.9862589999999987
 21
-38.974364999999999
 31
0.0
  0
LINE
  5
1DA
  8
SYMBOL
 62
     1
 10
4.9862589999999987
 20
-38.974364999999999
 30
0.0
 11
5.0112360000000002
 21
-38.874457
 31
0.0
  0
LINE
  5
1D9
  8
SYMBOL
 62
     1
 10
5.0112360000000002
 20
-38.874457
 30
0.0
 11
5.0112360000000002
 21
-38.799354000000001
 31
0.0
  0
LINE
  5
1D8
  8
SYMBOL
 62
     1
 10
5.0112360000000002
 20
-38.799354000000001
 30
0.0
 11
5.0365570000000002
 21
-38.699446999999999
 31
0.0
  0
LINE
  5
1D7
  8
SYMBOL
 62
     1
 10
5.0365570000000002
 20
-38.699446999999999
 30
0.0
 11
5.0365570000000002
 21
-38.599539
 31
0.0
  0
LINE
  5
1D6
  8
SYMBOL
 62
     1
 10
5.0365570000000002
 20
-38.599539
 30
0.0
 11
5.0365570000000002
 21
-38.499631000000001
 31
0.0
  0
CIRCLE
  5
1D5
  8
SYMBOL
 62
     1
 10
10.827762999999999
 20
6.1753339999999994
 30
0.0
 40
1.4855249999999991
  0
LINE
  5
1D4
  8
SYMBOL
 62
     1
 10
8.9393339999999988
 20
-45.374664000000003
 30
0.0
 11
8.9393339999999988
 21
-45.474570999999997
 31
0.0
  0
LINE
  5
1D3
  8
SYMBOL
 62
     1
 10
8.9393339999999988
 20
-45.474570999999997
 30
0.0
 11
8.9393339999999988
 21
-45.57447899999999
 31
0.0
  0
LINE
  5
1D2
  8
SYMBOL
 62
     1
 10
8.9393339999999988
 20
-45.57447899999999
 30
0.0
 11
8.9393339999999988
 21
-45.674387000000003
 31
0.0
  0
LINE
  5
1D1
  8
SYMBOL
 62
     1
 10
8.9393339999999988
 20
-45.674387000000003
 30
0.0
 11
8.9393339999999988
 21
-45.774639000000001
 31
0.0
  0
LINE
  5
1D0
  8
SYMBOL
 62
     1
 10
8.9393339999999988
 20
-45.774639000000001
 30
0.0
 11
8.9643110000000004
 21
-45.849397999999987
 31
0.0
  0
LINE
  5
1CF
  8
SYMBOL
 62
     1
 10
8.9643110000000004
 20
-45.849397999999987
 30
0.0
 11
8.9896320000000003
 21
-45.949649999999998
 31
0.0
  0
LINE
  5
1CE
  8
SYMBOL
 62
     1
 10
8.9896320000000003
 20
-45.949649999999998
 30
0.0
 11
9.0146090000000001
 21
-46.049557999999998
 31
0.0
  0
LINE
  5
1CD
  8
SYMBOL
 62
     1
 10
9.0146090000000001
 20
-46.049557999999998
 30
0.0
 11
9.0399309999999993
 21
-46.14946599999999
 31
0.0
  0
LINE
  5
1CC
  8
SYMBOL
 62
     1
 10
9.0399309999999993
 20
-46.14946599999999
 30
0.0
 11
9.0649069999999998
 21
-46.224569000000002
 31
0.0
  0
LINE
  5
1CB
  8
SYMBOL
 62
     1
 10
9.0649069999999998
 20
-46.224569000000002
 30
0.0
 11
9.1155500000000007
 21
-46.324475999999997
 31
0.0
  0
LINE
  5
1CA
  8
SYMBOL
 62
     1
 10
9.1155500000000007
 20
-46.324475999999997
 30
0.0
 11
9.1405270000000005
 21
-46.424384000000003
 31
0.0
  0
LINE
  5
1C9
  8
SYMBOL
 62
     1
 10
9.1405270000000005
 20
-46.424384000000003
 30
0.0
 11
9.1908259999999995
 21
-46.499487000000002
 31
0.0
  0
LINE
  5
1C8
  8
SYMBOL
 62
     1
 10
9.1908259999999995
 20
-46.499487000000002
 30
0.0
 11
9.241124000000001
 21
-46.574590000000001
 31
0.0
  0
LINE
  5
1C7
  8
SYMBOL
 62
     1
 10
9.241124000000001
 20
-46.574590000000001
 30
0.0
 11
9.3169160000000009
 21
-46.649692999999999
 31
0.0
  0
LINE
  5
1C6
  8
SYMBOL
 62
     1
 10
9.3169160000000009
 20
-46.649692999999999
 30
0.0
 11
9.3672149999999998
 21
-46.749600999999991
 31
0.0
  0
LINE
  5
1C5
  8
SYMBOL
 62
     1
 10
9.3672149999999998
 20
-46.749600999999991
 30
0.0
 11
9.4428339999999995
 21
-46.799554999999998
 31
0.0
  0
LINE
  5
1C4
  8
SYMBOL
 62
     1
 10
9.4428339999999995
 20
-46.799554999999998
 30
0.0
 11
9.4931330000000003
 21
-46.874657999999997
 31
0.0
  0
LINE
  5
1C3
  8
SYMBOL
 62
     1
 10
9.4931330000000003
 20
-46.874657999999997
 30
0.0
 11
9.5687529999999992
 21
-46.949416999999997
 31
0.0
  0
LINE
  5
1C2
  8
SYMBOL
 62
     1
 10
9.5687529999999992
 20
-46.949416999999997
 30
0.0
 11
9.6440280000000005
 21
-46.999370999999996
 31
0.0
  0
LINE
  5
1C1
  8
SYMBOL
 62
     1
 10
9.6440280000000005
 20
-46.999370999999996
 30
0.0
 11
9.7449690000000011
 21
-47.074474000000002
 31
0.0
  0
LINE
  5
1C0
  8
SYMBOL
 62
     1
 10
9.7449690000000011
 20
-47.074474000000002
 30
0.0
 11
9.8202449999999981
 21
-47.124428000000002
 31
0.0
  0
LINE
  5
1BF
  8
SYMBOL
 62
     1
 10
9.8202449999999981
 20
-47.124428000000002
 30
0.0
 11
9.8960369999999998
 21
-47.174382000000001
 31
0.0
  0
LINE
  5
1BE
  8
SYMBOL
 62
     1
 10
9.8960369999999998
 20
-47.174382000000001
 30
0.0
 11
9.9966340000000002
 21
-47.224679999999999
 31
0.0
  0
LINE
  5
1BD
  8
SYMBOL
 62
     1
 10
9.9966340000000002
 20
-47.224679999999999
 30
0.0
 11
10.072253
 21
-47.249484999999993
 31
0.0
  0
LINE
  5
1BC
  8
SYMBOL
 62
     1
 10
10.072253
 20
-47.249484999999993
 30
0.0
 11
10.17285
 21
-47.299438000000002
 31
0.0
  0
LINE
  5
1BB
  8
SYMBOL
 62
     1
 10
10.17285
 20
-47.299438000000002
 30
0.0
 11
10.273792
 21
-47.324587999999991
 31
0.0
  0
LINE
  5
1BA
  8
SYMBOL
 62
     1
 10
10.273792
 20
-47.324587999999991
 30
0.0
 11
10.349067
 21
-47.349392000000002
 31
0.0
  0
LINE
  5
1B9
  8
SYMBOL
 62
     1
 10
10.349067
 20
-47.349392000000002
 30
0.0
 11
10.450008
 21
-47.374541999999998
 31
0.0
  0
LINE
  5
1B8
  8
SYMBOL
 62
     1
 10
10.450008
 20
-47.374541999999998
 30
0.0
 11
10.550777
 21
-47.39969099999999
 31
0.0
  0
LINE
  5
1B7
  8
SYMBOL
 62
     1
 10
10.550777
 20
-47.39969099999999
 30
0.0
 11
10.651374000000001
 21
-47.39969099999999
 31
0.0
  0
LINE
  5
1B6
  8
SYMBOL
 62
     1
 10
10.651374000000001
 20
-47.39969099999999
 30
0.0
 11
10.751970999999999
 21
-47.39969099999999
 31
0.0
  0
LINE
  5
1B5
  8
SYMBOL
 62
     1
 10
10.751970999999999
 20
-47.39969099999999
 30
0.0
 11
10.852912
 21
-47.39969099999999
 31
0.0
  0
LINE
  5
1B4
  8
SYMBOL
 62
     1
 10
10.852912
 20
-47.39969099999999
 30
0.0
 11
10.953509
 21
-47.39969099999999
 31
0.0
  0
LINE
  5
1B3
  8
SYMBOL
 62
     1
 10
10.953509
 20
-47.39969099999999
 30
0.0
 11
11.054106000000001
 21
-47.39969099999999
 31
0.0
  0
LINE
  5
1B2
  8
SYMBOL
 62
     1
 10
11.054106000000001
 20
-47.39969099999999
 30
0.0
 11
11.154702
 21
-47.374541999999998
 31
0.0
  0
LINE
  5
1B1
  8
SYMBOL
 62
     1
 10
11.154702
 20
-47.374541999999998
 30
0.0
 11
11.230494999999999
 21
-47.349392000000002
 31
0.0
  0
LINE
  5
1B0
  8
SYMBOL
 62
     1
 10
11.230494999999999
 20
-47.349392000000002
 30
0.0
 11
11.331091000000001
 21
-47.324587999999991
 31
0.0
  0
LINE
  5
1AF
  8
SYMBOL
 62
     1
 10
11.331091000000001
 20
-47.324587999999991
 30
0.0
 11
11.432033000000001
 21
-47.299438000000002
 31
0.0
  0
LINE
  5
1AE
  8
SYMBOL
 62
     1
 10
11.432033000000001
 20
-47.299438000000002
 30
0.0
 11
11.532629
 21
-47.274633999999999
 31
0.0
  0
LINE
  5
1AD
  8
SYMBOL
 62
     1
 10
11.532629
 20
-47.274633999999999
 30
0.0
 11
11.608249000000001
 21
-47.224679999999999
 31
0.0
  0
LINE
  5
1AC
  8
SYMBOL
 62
     1
 10
11.608249000000001
 20
-47.224679999999999
 30
0.0
 11
11.708845999999999
 21
-47.199531
 31
0.0
  0
LINE
  5
1AB
  8
SYMBOL
 62
     1
 10
11.708845999999999
 20
-47.199531
 30
0.0
 11
11.784466
 21
-47.149577000000001
 31
0.0
  0
LINE
  5
1AA
  8
SYMBOL
 62
     1
 10
11.784466
 20
-47.149577000000001
 30
0.0
 11
11.859913000000001
 21
-47.074474000000002
 31
0.0
  0
LINE
  5
1A9
  8
SYMBOL
 62
     1
 10
11.859913000000001
 20
-47.074474000000002
 30
0.0
 11
11.960855
 21
-47.024520000000003
 31
0.0
  0
LINE
  5
1A8
  8
SYMBOL
 62
     1
 10
11.960855
 20
-47.024520000000003
 30
0.0
 11
12.03613
 21
-46.974565999999989
 31
0.0
  0
LINE
  5
1A7
  8
SYMBOL
 62
     1
 10
12.03613
 20
-46.974565999999989
 30
0.0
 11
12.111750000000001
 21
-46.89946299999999
 31
0.0
  0
LINE
  5
1A6
  8
SYMBOL
 62
     1
 10
12.111750000000001
 20
-46.89946299999999
 30
0.0
 11
12.162048
 21
-46.824359999999999
 31
0.0
  0
LINE
  5
1A5
  8
SYMBOL
 62
     1
 10
12.162048
 20
-46.824359999999999
 30
0.0
 11
12.237667999999999
 21
-46.774405999999992
 31
0.0
  0
LINE
  5
1A4
  8
SYMBOL
 62
     1
 10
12.237667999999999
 20
-46.774405999999992
 30
0.0
 11
12.287967
 21
-46.674497999999993
 31
0.0
  0
LINE
  5
1A3
  8
SYMBOL
 62
     1
 10
12.287967
 20
-46.674497999999993
 30
0.0
 11
12.363586
 21
-46.599395000000001
 31
0.0
  0
LINE
  5
1A2
  8
SYMBOL
 62
     1
 10
12.363586
 20
-46.599395000000001
 30
0.0
 11
12.413885000000001
 21
-46.524636999999998
 31
0.0
  0
LINE
  5
1A1
  8
SYMBOL
 62
     1
 10
12.413885000000001
 20
-46.524636999999998
 30
0.0
 11
12.464354999999999
 21
-46.449533000000002
 31
0.0
  0
LINE
  5
1A0
  8
SYMBOL
 62
     1
 10
12.464354999999999
 20
-46.449533000000002
 30
0.0
 11
12.514654
 21
-46.349626000000001
 31
0.0
  0
LINE
  5
19F
  8
SYMBOL
 62
     1
 10
12.514654
 20
-46.349626000000001
 30
0.0
 11
12.539975
 21
-46.274522999999988
 31
0.0
  0
LINE
  5
19E
  8
SYMBOL
 62
     1
 10
12.539975
 20
-46.274522999999988
 30
0.0
 11
12.590274000000001
 21
-46.174615000000003
 31
0.0
  0
LINE
  5
19D
  8
SYMBOL
 62
     1
 10
12.590274000000001
 20
-46.174615000000003
 30
0.0
 11
12.615251000000001
 21
-46.074362999999991
 31
0.0
  0
LINE
  5
19C
  8
SYMBOL
 62
     1
 10
12.615251000000001
 20
-46.074362999999991
 30
0.0
 11
12.640572000000001
 21
-45.999603999999991
 31
0.0
  0
LINE
  5
19B
  8
SYMBOL
 62
     1
 10
12.640572000000001
 20
-45.999603999999991
 30
0.0
 11
12.665549
 21
-45.899695999999992
 31
0.0
  0
LINE
  5
19A
  8
SYMBOL
 62
     1
 10
12.665549
 20
-45.899695999999992
 30
0.0
 11
12.69087
 21
-45.799444000000001
 31
0.0
  0
LINE
  5
199
  8
SYMBOL
 62
     1
 10
12.69087
 20
-45.799444000000001
 30
0.0
 11
12.69087
 21
-45.699536000000002
 31
0.0
  0
LINE
  5
198
  8
SYMBOL
 62
     1
 10
12.69087
 20
-45.699536000000002
 30
0.0
 11
12.69087
 21
-45.599628000000003
 31
0.0
  0
LINE
  5
197
  8
SYMBOL
 62
     1
 10
12.69087
 20
-45.599628000000003
 30
0.0
 11
12.69087
 21
-45.499375999999991
 31
0.0
  0
LINE
  5
196
  8
SYMBOL
 62
     1
 10
12.69087
 20
-45.499375999999991
 30
0.0
 11
12.69087
 21
-45.399467999999999
 31
0.0
  0
LINE
  5
195
  8
SYMBOL
 62
     1
 10
12.69087
 20
-45.399467999999999
 30
0.0
 11
12.69087
 21
-45.29956099999999
 31
0.0
  0
LINE
  5
194
  8
SYMBOL
 62
     1
 10
12.69087
 20
-45.29956099999999
 30
0.0
 11
12.665549
 21
-45.199652999999998
 31
0.0
  0
LINE
  5
193
  8
SYMBOL
 62
     1
 10
12.665549
 20
-45.199652999999998
 30
0.0
 11
12.640572000000001
 21
-45.124549999999999
 31
0.0
  0
LINE
  5
192
  8
SYMBOL
 62
     1
 10
12.640572000000001
 20
-45.124549999999999
 30
0.0
 11
12.615251000000001
 21
-45.024642
 31
0.0
  0
LINE
  5
191
  8
SYMBOL
 62
     1
 10
12.615251000000001
 20
-45.024642
 30
0.0
 11
12.590274000000001
 21
-44.924390000000002
 31
0.0
  0
LINE
  5
190
  8
SYMBOL
 62
     1
 10
12.590274000000001
 20
-44.924390000000002
 30
0.0
 11
12.564952
 21
-44.824482000000003
 31
0.0
  0
LINE
  5
18F
  8
SYMBOL
 62
     1
 10
12.564952
 20
-44.824482000000003
 30
0.0
 11
12.514654
 21
-44.74937899999999
 31
0.0
  0
LINE
  5
18E
  8
SYMBOL
 62
     1
 10
12.514654
 20
-44.74937899999999
 30
0.0
 11
12.489331999999999
 21
-44.649470999999998
 31
0.0
  0
LINE
  5
18D
  8
SYMBOL
 62
     1
 10
12.489331999999999
 20
-44.649470999999998
 30
0.0
 11
12.438862
 21
-44.574367999999993
 31
0.0
  0
LINE
  5
18C
  8
SYMBOL
 62
     1
 10
12.438862
 20
-44.574367999999993
 30
0.0
 11
12.388563
 21
-44.499608999999992
 31
0.0
  0
LINE
  5
18B
  8
SYMBOL
 62
     1
 10
12.388563
 20
-44.499608999999992
 30
0.0
 11
12.313288
 21
-44.399701999999998
 31
0.0
  0
LINE
  5
18A
  8
SYMBOL
 62
     1
 10
12.313288
 20
-44.399701999999998
 30
0.0
 11
12.262644999999999
 21
-44.324598999999999
 31
0.0
  0
LINE
  5
189
  8
SYMBOL
 62
     1
 10
12.262644999999999
 20
-44.324598999999999
 30
0.0
 11
12.18737
 21
-44.249495000000003
 31
0.0
  0
LINE
  5
188
  8
SYMBOL
 62
     1
 10
12.18737
 20
-44.249495000000003
 30
0.0
 11
12.111750000000001
 21
-44.199542000000001
 31
0.0
  0
LINE
  5
187
  8
SYMBOL
 62
     1
 10
12.111750000000001
 20
-44.199542000000001
 30
0.0
 11
12.061451999999999
 21
-44.124437999999998
 31
0.0
  0
LINE
  5
186
  8
SYMBOL
 62
     1
 10
12.061451999999999
 20
-44.124437999999998
 30
0.0
 11
11.985832
 21
-44.049680000000002
 31
0.0
  0
LINE
  5
185
  8
SYMBOL
 62
     1
 10
8.9393339999999988
 20
-38.499631000000001
 30
0.0
 11
8.9393339999999988
 21
-38.599539
 31
0.0
  0
LINE
  5
184
  8
SYMBOL
 62
     1
 10
8.9393339999999988
 20
-38.599539
 30
0.0
 11
8.9393339999999988
 21
-38.699446999999999
 31
0.0
  0
LINE
  5
183
  8
SYMBOL
 62
     1
 10
8.9393339999999988
 20
-38.699446999999999
 30
0.0
 11
8.9643110000000004
 21
-38.799354000000001
 31
0.0
  0
LINE
  5
182
  8
SYMBOL
 62
     1
 10
8.9643110000000004
 20
-38.799354000000001
 30
0.0
 11
8.9643110000000004
 21
-38.874457
 31
0.0
  0
LINE
  5
181
  8
SYMBOL
 62
     1
 10
8.9643110000000004
 20
-38.874457
 30
0.0
 11
8.9896320000000003
 21
-38.974364999999999
 31
0.0
  0
LINE
  5
180
  8
SYMBOL
 62
     1
 10
8.9896320000000003
 20
-38.974364999999999
 30
0.0
 11
9.0146090000000001
 21
-39.074618000000001
 31
0.0
  0
LINE
  5
17F
  8
SYMBOL
 62
     1
 10
9.0146090000000001
 20
-39.074618000000001
 30
0.0
 11
9.0649069999999998
 21
-39.174525000000003
 31
0.0
  0
LINE
  5
17E
  8
SYMBOL
 62
     1
 10
9.0649069999999998
 20
-39.174525000000003
 30
0.0
 11
9.090228999999999
 21
-39.249628000000001
 31
0.0
  0
LINE
  5
17D
  8
SYMBOL
 62
     1
 10
9.090228999999999
 20
-39.249628000000001
 30
0.0
 11
9.1405270000000005
 21
-39.349536000000001
 31
0.0
  0
LINE
  5
17C
  8
SYMBOL
 62
     1
 10
9.1405270000000005
 20
-39.349536000000001
 30
0.0
 11
9.1908259999999995
 21
-39.424638999999999
 31
0.0
  0
LINE
  5
17B
  8
SYMBOL
 62
     1
 10
9.1908259999999995
 20
-39.424638999999999
 30
0.0
 11
9.241124000000001
 21
-39.524546999999998
 31
0.0
  0
LINE
  5
17A
  8
SYMBOL
 62
     1
 10
9.241124000000001
 20
-39.524546999999998
 30
0.0
 11
9.2915949999999992
 21
-39.599649999999997
 31
0.0
  0
LINE
  5
179
  8
SYMBOL
 62
     1
 10
9.2915949999999992
 20
-39.599649999999997
 30
0.0
 11
9.342238
 21
-39.674409000000011
 31
0.0
  0
LINE
  5
178
  8
SYMBOL
 62
     1
 10
9.342238
 20
-39.674409000000011
 30
0.0
 11
9.4175129999999996
 21
-39.749512000000003
 31
0.0
  0
LINE
  5
177
  8
SYMBOL
 62
     1
 10
9.4175129999999996
 20
-39.749512000000003
 30
0.0
 11
9.4931330000000003
 21
-39.824615000000001
 31
0.0
  0
LINE
  5
176
  8
SYMBOL
 62
     1
 10
9.4931330000000003
 20
-39.824615000000001
 30
0.0
 11
9.5434309999999982
 21
-39.874569000000001
 31
0.0
  0
LINE
  5
175
  8
SYMBOL
 62
     1
 10
9.5434309999999982
 20
-39.874569000000001
 30
0.0
 11
9.6190509999999971
 21
-39.949672
 31
0.0
  0
LINE
  5
174
  8
SYMBOL
 62
     1
 10
9.6190509999999971
 20
-39.949672
 30
0.0
 11
9.6946710000000014
 21
-39.999625999999999
 31
0.0
  0
LINE
  5
173
  8
SYMBOL
 62
     1
 10
9.6946710000000014
 20
-39.999625999999999
 30
0.0
 11
9.7952680000000001
 21
-40.074384000000002
 31
0.0
  0
LINE
  5
172
  8
SYMBOL
 62
     1
 10
9.7952680000000001
 20
-40.074384000000002
 30
0.0
 11
9.8705429999999996
 21
-40.124682999999997
 31
0.0
  0
LINE
  5
171
  8
SYMBOL
 62
     1
 10
9.0146090000000001
 20
-51.999582000000011
 30
0.0
 11
8.9896320000000003
 21
-52.074685000000002
 31
0.0
  0
LINE
  5
170
  8
SYMBOL
 62
     1
 10
8.9896320000000003
 20
-52.074685000000002
 30
0.0
 11
8.9643110000000004
 21
-52.174593000000002
 31
0.0
  0
LINE
  5
16F
  8
SYMBOL
 62
     1
 10
8.9643110000000004
 20
-52.174593000000002
 30
0.0
 11
8.9393339999999988
 21
-52.274501000000001
 31
0.0
  0
LINE
  5
16E
  8
SYMBOL
 62
     1
 10
8.9393339999999988
 20
-52.274501000000001
 30
0.0
 11
8.9393339999999988
 21
-52.374409
 31
0.0
  0
LINE
  5
16D
  8
SYMBOL
 62
     1
 10
8.9393339999999988
 20
-52.374409
 30
0.0
 11
8.9393339999999988
 21
-52.474660999999998
 31
0.0
  0
LINE
  5
16C
  8
SYMBOL
 62
     1
 10
8.9393339999999988
 20
-52.474660999999998
 30
0.0
 11
8.9393339999999988
 21
-52.574568999999997
 31
0.0
  0
LINE
  5
16B
  8
SYMBOL
 62
     1
 10
8.9393339999999988
 20
-52.574568999999997
 30
0.0
 11
8.9393339999999988
 21
-52.674475999999999
 31
0.0
  0
LINE
  5
16A
  8
SYMBOL
 62
     1
 10
8.9393339999999988
 20
-52.674475999999999
 30
0.0
 11
8.9393339999999988
 21
-52.774383999999998
 31
0.0
  0
LINE
  5
169
  8
SYMBOL
 62
     1
 10
8.9393339999999988
 20
-52.774383999999998
 30
0.0
 11
8.9643110000000004
 21
-52.874636999999993
 31
0.0
  0
LINE
  5
168
  8
SYMBOL
 62
     1
 10
8.9643110000000004
 20
-52.874636999999993
 30
0.0
 11
8.9896320000000003
 21
-52.949394999999988
 31
0.0
  0
LINE
  5
167
  8
SYMBOL
 62
     1
 10
8.9896320000000003
 20
-52.949394999999988
 30
0.0
 11
9.0146090000000001
 21
-53.049647
 31
0.0
  0
LINE
  5
166
  8
SYMBOL
 62
     1
 10
9.0146090000000001
 20
-53.049647
 30
0.0
 11
9.0399309999999993
 21
-53.149554999999999
 31
0.0
  0
LINE
  5
165
  8
SYMBOL
 62
     1
 10
9.0399309999999993
 20
-53.149554999999999
 30
0.0
 11
9.0649069999999998
 21
-53.249462999999999
 31
0.0
  0
LINE
  5
164
  8
SYMBOL
 62
     1
 10
9.0649069999999998
 20
-53.249462999999999
 30
0.0
 11
9.1155500000000007
 21
-53.324565999999997
 31
0.0
  0
LINE
  5
163
  8
SYMBOL
 62
     1
 10
9.1155500000000007
 20
-53.324565999999997
 30
0.0
 11
9.1658489999999997
 21
-53.424473999999996
 31
0.0
  0
LINE
  5
162
  8
SYMBOL
 62
     1
 10
9.1658489999999997
 20
-53.424473999999996
 30
0.0
 11
9.1908259999999995
 21
-53.499577000000002
 31
0.0
  0
LINE
  5
161
  8
SYMBOL
 62
     1
 10
9.1908259999999995
 20
-53.499577000000002
 30
0.0
 11
9.2666179999999994
 21
-53.574680000000001
 31
0.0
  0
LINE
  5
160
  8
SYMBOL
 62
     1
 10
9.2666179999999994
 20
-53.574680000000001
 30
0.0
 11
9.3169160000000009
 21
-53.674588
 31
0.0
  0
LINE
  5
15F
  8
SYMBOL
 62
     1
 10
9.3169160000000009
 20
-53.674588
 30
0.0
 11
9.3672149999999998
 21
-53.749691000000013
 31
0.0
  0
LINE
  5
15E
  8
SYMBOL
 62
     1
 10
9.3672149999999998
 20
-53.749691000000013
 30
0.0
 11
9.4428339999999995
 21
-53.824449000000001
 31
0.0
  0
LINE
  5
15D
  8
SYMBOL
 62
     1
 10
9.4428339999999995
 20
-53.824449000000001
 30
0.0
 11
9.5184540000000002
 21
-53.874403000000001
 31
0.0
  0
LINE
  5
15C
  8
SYMBOL
 62
     1
 10
9.5184540000000002
 20
-53.874403000000001
 30
0.0
 11
9.5937300000000008
 21
-53.949506000000007
 31
0.0
  0
LINE
  5
15B
  8
SYMBOL
 62
     1
 10
9.5937300000000008
 20
-53.949506000000007
 30
0.0
 11
9.6693499999999997
 21
-53.999459999999992
 31
0.0
  0
LINE
  5
15A
  8
SYMBOL
 62
     1
 10
9.6693499999999997
 20
-53.999459999999992
 30
0.0
 11
9.7449690000000011
 21
-54.074562999999991
 31
0.0
  0
LINE
  5
159
  8
SYMBOL
 62
     1
 10
9.7449690000000011
 20
-54.074562999999991
 30
0.0
 11
9.8202449999999981
 21
-54.124516999999997
 31
0.0
  0
LINE
  5
158
  8
SYMBOL
 62
     1
 10
9.8202449999999981
 20
-54.124516999999997
 30
0.0
 11
9.8960369999999998
 21
-54.174470999999997
 31
0.0
  0
LINE
  5
157
  8
SYMBOL
 62
     1
 10
9.8960369999999998
 20
-54.174470999999997
 30
0.0
 11
9.9966340000000002
 21
-54.224424999999989
 31
0.0
  0
LINE
  5
156
  8
SYMBOL
 62
     1
 10
9.9966340000000002
 20
-54.224424999999989
 30
0.0
 11
10.072253
 21
-54.249574000000003
 31
0.0
  0
LINE
  5
155
  8
SYMBOL
 62
     1
 10
10.072253
 20
-54.249574000000003
 30
0.0
 11
10.17285
 21
-54.299528000000002
 31
0.0
  0
LINE
  5
154
  8
SYMBOL
 62
     1
 10
10.17285
 20
-54.299528000000002
 30
0.0
 11
10.273792
 21
-54.324677000000001
 31
0.0
  0
LINE
  5
153
  8
SYMBOL
 62
     1
 10
10.273792
 20
-54.324677000000001
 30
0.0
 11
10.374388
 21
-54.349482000000002
 31
0.0
  0
LINE
  5
152
  8
SYMBOL
 62
     1
 10
10.374388
 20
-54.349482000000002
 30
0.0
 11
10.450008
 21
-54.374631000000008
 31
0.0
  0
LINE
  5
151
  8
SYMBOL
 62
     1
 10
10.450008
 20
-54.374631000000008
 30
0.0
 11
10.550777
 21
-54.374631000000008
 31
0.0
  0
LINE
  5
150
  8
SYMBOL
 62
     1
 10
10.550777
 20
-54.374631000000008
 30
0.0
 11
10.651374000000001
 21
-54.399436000000001
 31
0.0
  0
LINE
  5
14F
  8
SYMBOL
 62
     1
 10
10.651374000000001
 20
-54.399436000000001
 30
0.0
 11
10.751970999999999
 21
-54.399436000000001
 31
0.0
  0
LINE
  5
14E
  8
SYMBOL
 62
     1
 10
10.751970999999999
 20
-54.399436000000001
 30
0.0
 11
10.852912
 21
-54.399436000000001
 31
0.0
  0
LINE
  5
14D
  8
SYMBOL
 62
     1
 10
10.852912
 20
-54.399436000000001
 30
0.0
 11
10.953509
 21
-54.399436000000001
 31
0.0
  0
LINE
  5
14C
  8
SYMBOL
 62
     1
 10
10.953509
 20
-54.399436000000001
 30
0.0
 11
11.054106000000001
 21
-54.399436000000001
 31
0.0
  0
LINE
  5
14B
  8
SYMBOL
 62
     1
 10
11.054106000000001
 20
-54.399436000000001
 30
0.0
 11
11.154702
 21
-54.374631000000008
 31
0.0
  0
LINE
  5
14A
  8
SYMBOL
 62
     1
 10
11.154702
 20
-54.374631000000008
 30
0.0
 11
11.255815999999999
 21
-54.349482000000002
 31
0.0
  0
LINE
  5
149
  8
SYMBOL
 62
     1
 10
11.255815999999999
 20
-54.349482000000002
 30
0.0
 11
11.331091000000001
 21
-54.324677000000001
 31
0.0
  0
LINE
  5
148
  8
SYMBOL
 62
     1
 10
11.331091000000001
 20
-54.324677000000001
 30
0.0
 11
11.432033000000001
 21
-54.299528000000002
 31
0.0
  0
LINE
  5
147
  8
SYMBOL
 62
     1
 10
11.432033000000001
 20
-54.299528000000002
 30
0.0
 11
11.532629
 21
-54.27437900000001
 31
0.0
  0
LINE
  5
146
  8
SYMBOL
 62
     1
 10
11.532629
 20
-54.27437900000001
 30
0.0
 11
11.608249000000001
 21
-54.224424999999989
 31
0.0
  0
LINE
  5
145
  8
SYMBOL
 62
     1
 10
11.608249000000001
 20
-54.224424999999989
 30
0.0
 11
11.708845999999999
 21
-54.174470999999997
 31
0.0
  0
LINE
  5
144
  8
SYMBOL
 62
     1
 10
11.708845999999999
 20
-54.174470999999997
 30
0.0
 11
11.784466
 21
-54.124516999999997
 31
0.0
  0
LINE
  5
143
  8
SYMBOL
 62
     1
 10
11.784466
 20
-54.124516999999997
 30
0.0
 11
11.885235
 21
-54.074562999999991
 31
0.0
  0
LINE
  5
142
  8
SYMBOL
 62
     1
 10
11.885235
 20
-54.074562999999991
 30
0.0
 11
11.960855
 21
-54.024608999999998
 31
0.0
  0
LINE
  5
141
  8
SYMBOL
 62
     1
 10
11.960855
 20
-54.024608999999998
 30
0.0
 11
12.03613
 21
-53.949506000000007
 31
0.0
  0
LINE
  5
140
  8
SYMBOL
 62
     1
 10
12.03613
 20
-53.949506000000007
 30
0.0
 11
12.111750000000001
 21
-53.899552
 31
0.0
  0
LINE
  5
13F
  8
SYMBOL
 62
     1
 10
12.111750000000001
 20
-53.899552
 30
0.0
 11
12.18737
 21
-53.824449000000001
 31
0.0
  0
LINE
  5
13E
  8
SYMBOL
 62
     1
 10
12.18737
 20
-53.824449000000001
 30
0.0
 11
12.237667999999999
 21
-53.749691000000013
 31
0.0
  0
LINE
  5
13D
  8
SYMBOL
 62
     1
 10
12.237667999999999
 20
-53.749691000000013
 30
0.0
 11
12.313288
 21
-53.674588
 31
0.0
  0
LINE
  5
13C
  8
SYMBOL
 62
     1
 10
12.313288
 20
-53.674588
 30
0.0
 11
12.363586
 21
-53.599484999999987
 31
0.0
  0
LINE
  5
13B
  8
SYMBOL
 62
     1
 10
12.363586
 20
-53.599484999999987
 30
0.0
 11
12.413885000000001
 21
-53.524381999999989
 31
0.0
  0
LINE
  5
13A
  8
SYMBOL
 62
     1
 10
12.413885000000001
 20
-53.524381999999989
 30
0.0
 11
12.464354999999999
 21
-53.424473999999996
 31
0.0
  0
LINE
  5
139
  8
SYMBOL
 62
     1
 10
12.464354999999999
 20
-53.424473999999996
 30
0.0
 11
12.514654
 21
-53.349370999999998
 31
0.0
  0
LINE
  5
138
  8
SYMBOL
 62
     1
 10
12.514654
 20
-53.349370999999998
 30
0.0
 11
12.564952
 21
-53.249462999999999
 31
0.0
  0
LINE
  5
137
  8
SYMBOL
 62
     1
 10
12.564952
 20
-53.249462999999999
 30
0.0
 11
12.590274000000001
 21
-53.17436
 31
0.0
  0
LINE
  5
136
  8
SYMBOL
 62
     1
 10
12.590274000000001
 20
-53.17436
 30
0.0
 11
12.615251000000001
 21
-53.074452000000001
 31
0.0
  0
LINE
  5
135
  8
SYMBOL
 62
     1
 10
12.615251000000001
 20
-53.074452000000001
 30
0.0
 11
12.640572000000001
 21
-52.974543999999987
 31
0.0
  0
LINE
  5
134
  8
SYMBOL
 62
     1
 10
12.640572000000001
 20
-52.974543999999987
 30
0.0
 11
12.665549
 21
-52.874636999999993
 31
0.0
  0
LINE
  5
133
  8
SYMBOL
 62
     1
 10
12.665549
 20
-52.874636999999993
 30
0.0
 11
12.69087
 21
-52.774383999999998
 31
0.0
  0
LINE
  5
132
  8
SYMBOL
 62
     1
 10
12.69087
 20
-52.774383999999998
 30
0.0
 11
12.69087
 21
-52.699626000000002
 31
0.0
  0
LINE
  5
131
  8
SYMBOL
 62
     1
 10
12.69087
 20
-52.699626000000002
 30
0.0
 11
12.69087
 21
-52.599373
 31
0.0
  0
LINE
  5
130
  8
SYMBOL
 62
     1
 10
12.69087
 20
-52.599373
 30
0.0
 11
12.69087
 21
-52.499466000000012
 31
0.0
  0
LINE
  5
12F
  8
SYMBOL
 62
     1
 10
12.69087
 20
-52.499466000000012
 30
0.0
 11
12.69087
 21
-52.399557999999999
 31
0.0
  0
LINE
  5
12E
  8
SYMBOL
 62
     1
 10
12.69087
 20
-52.399557999999999
 30
0.0
 11
12.69087
 21
-52.299649999999993
 31
0.0
  0
LINE
  5
12D
  8
SYMBOL
 62
     1
 10
12.69087
 20
-52.299649999999993
 30
0.0
 11
12.665549
 21
-52.199397999999988
 31
0.0
  0
LINE
  5
12C
  8
SYMBOL
 62
     1
 10
12.665549
 20
-52.199397999999988
 30
0.0
 11
12.640572000000001
 21
-52.099490000000003
 31
0.0
  0
LINE
  5
12B
  8
SYMBOL
 62
     1
 10
12.640572000000001
 20
-52.099490000000003
 30
0.0
 11
12.615251000000001
 21
-51.999582000000011
 31
0.0
  0
LINE
  5
12A
  8
SYMBOL
 62
     1
 10
12.615251000000001
 20
-51.999582000000011
 30
0.0
 11
12.590274000000001
 21
-51.924478999999998
 31
0.0
  0
LINE
  5
129
  8
SYMBOL
 62
     1
 10
12.590274000000001
 20
-51.924478999999998
 30
0.0
 11
12.564952
 21
-51.824570999999999
 31
0.0
  0
LINE
  5
128
  8
SYMBOL
 62
     1
 10
12.564952
 20
-51.824570999999999
 30
0.0
 11
12.514654
 21
-51.724664000000011
 31
0.0
  0
LINE
  5
127
  8
SYMBOL
 62
     1
 10
12.514654
 20
-51.724664000000011
 30
0.0
 11
12.464354999999999
 21
-51.649560999999999
 31
0.0
  0
LINE
  5
126
  8
SYMBOL
 62
     1
 10
12.464354999999999
 20
-51.649560999999999
 30
0.0
 11
12.438862
 21
-51.549652999999999
 31
0.0
  0
LINE
  5
125
  8
SYMBOL
 62
     1
 10
12.438862
 20
-51.549652999999999
 30
0.0
 11
12.363586
 21
-51.474550000000001
 31
0.0
  0
LINE
  5
124
  8
SYMBOL
 62
     1
 10
12.363586
 20
-51.474550000000001
 30
0.0
 11
12.313288
 21
-51.399447000000002
 31
0.0
  0
LINE
  5
123
  8
SYMBOL
 62
     1
 10
12.313288
 20
-51.399447000000002
 30
0.0
 11
12.262644999999999
 21
-51.324688000000002
 31
0.0
  0
LINE
  5
122
  8
SYMBOL
 62
     1
 10
12.262644999999999
 20
-51.324688000000002
 30
0.0
 11
12.18737
 21
-51.249584999999989
 31
0.0
  0
LINE
  5
121
  8
SYMBOL
 62
     1
 10
12.18737
 20
-51.249584999999989
 30
0.0
 11
12.111750000000001
 21
-51.174481999999998
 31
0.0
  0
LINE
  5
120
  8
SYMBOL
 62
     1
 10
12.111750000000001
 20
-51.174481999999998
 30
0.0
 11
12.03613
 21
-51.124527999999998
 31
0.0
  0
LINE
  5
11F
  8
SYMBOL
 62
     1
 10
12.03613
 20
-51.124527999999998
 30
0.0
 11
11.960855
 21
-51.049424999999992
 31
0.0
  0
LINE
  5
11E
  8
SYMBOL
 62
     1
 10
9.6693499999999997
 20
-44.049680000000002
 30
0.0
 11
9.5937300000000008
 21
-44.099634000000002
 31
0.0
  0
LINE
  5
11D
  8
SYMBOL
 62
     1
 10
9.5937300000000008
 20
-44.099634000000002
 30
0.0
 11
9.5184540000000002
 21
-44.17439199999999
 31
0.0
  0
LINE
  5
11C
  8
SYMBOL
 62
     1
 10
9.5184540000000002
 20
-44.17439199999999
 30
0.0
 11
9.4678109999999993
 21
-44.224690999999993
 31
0.0
  0
LINE
  5
11B
  8
SYMBOL
 62
     1
 10
9.4678109999999993
 20
-44.224690999999993
 30
0.0
 11
9.3925359999999998
 21
-44.299448999999989
 31
0.0
  0
LINE
  5
11A
  8
SYMBOL
 62
     1
 10
9.3925359999999998
 20
-44.299448999999989
 30
0.0
 11
9.3169160000000009
 21
-44.374552000000001
 31
0.0
  0
LINE
  5
119
  8
SYMBOL
 62
     1
 10
9.3169160000000009
 20
-44.374552000000001
 30
0.0
 11
9.2666179999999994
 21
-44.449655
 31
0.0
  0
LINE
  5
118
  8
SYMBOL
 62
     1
 10
9.2666179999999994
 20
-44.449655
 30
0.0
 11
9.2161469999999994
 21
-44.549562999999999
 31
0.0
  0
LINE
  5
117
  8
SYMBOL
 62
     1
 10
9.2161469999999994
 20
-44.549562999999999
 30
0.0
 11
9.1658489999999997
 21
-44.624665999999991
 31
0.0
  0
LINE
  5
116
  8
SYMBOL
 62
     1
 10
9.1658489999999997
 20
-44.624665999999991
 30
0.0
 11
9.1155500000000007
 21
-44.72457399999999
 31
0.0
  0
LINE
  5
115
  8
SYMBOL
 62
     1
 10
9.1155500000000007
 20
-44.72457399999999
 30
0.0
 11
9.090228999999999
 21
-44.799677000000003
 31
0.0
  0
LINE
  5
114
  8
SYMBOL
 62
     1
 10
9.090228999999999
 20
-44.799677000000003
 30
0.0
 11
9.0399309999999993
 21
-44.899584999999988
 31
0.0
  0
LINE
  5
113
  8
SYMBOL
 62
     1
 10
9.0399309999999993
 20
-44.899584999999988
 30
0.0
 11
9.0146090000000001
 21
-44.999492999999987
 31
0.0
  0
LINE
  5
112
  8
SYMBOL
 62
     1
 10
9.0146090000000001
 20
-44.999492999999987
 30
0.0
 11
8.9896320000000003
 21
-45.074595999999993
 31
0.0
  0
LINE
  5
111
  8
SYMBOL
 62
     1
 10
8.9896320000000003
 20
-45.074595999999993
 30
0.0
 11
8.9643110000000004
 21
-45.174503999999999
 31
0.0
  0
LINE
  5
110
  8
SYMBOL
 62
     1
 10
8.9643110000000004
 20
-45.174503999999999
 30
0.0
 11
8.9393339999999988
 21
-45.274410999999994
 31
0.0
  0
LINE
  5
10F
  8
SYMBOL
 62
     1
 10
8.9393339999999988
 20
-45.274410999999994
 30
0.0
 11
8.9393339999999988
 21
-45.374664000000003
 31
0.0
  0
LINE
  5
10E
  8
SYMBOL
 62
     1
 10
9.6693499999999997
 20
19.000391
 30
0.0
 11
9.5937300000000008
 21
18.950437000000001
 31
0.0
  0
LINE
  5
10D
  8
SYMBOL
 62
     1
 10
9.5937300000000008
 20
18.950437000000001
 30
0.0
 11
9.5184540000000002
 21
18.875333999999999
 31
0.0
  0
LINE
  5
10C
  8
SYMBOL
 62
     1
 10
9.5184540000000002
 20
18.875333999999999
 30
0.0
 11
9.4428339999999995
 21
18.800231
 31
0.0
  0
LINE
  5
10B
  8
SYMBOL
 62
     1
 10
9.4428339999999995
 20
18.800231
 30
0.0
 11
9.3672149999999998
 21
18.725472
 31
0.0
  0
LINE
  5
10A
  8
SYMBOL
 62
     1
 10
9.3672149999999998
 20
18.725472
 30
0.0
 11
9.3169160000000009
 21
18.650369000000001
 31
0.0
  0
LINE
  5
109
  8
SYMBOL
 62
     1
 10
9.3169160000000009
 20
18.650369000000001
 30
0.0
 11
9.2666179999999994
 21
18.575265999999999
 31
0.0
  0
LINE
  5
108
  8
SYMBOL
 62
     1
 10
9.2666179999999994
 20
18.575265999999999
 30
0.0
 11
9.2161469999999994
 21
18.500506999999999
 31
0.0
  0
LINE
  5
107
  8
SYMBOL
 62
     1
 10
9.2161469999999994
 20
18.500506999999999
 30
0.0
 11
9.1658489999999997
 21
18.425404
 31
0.0
  0
LINE
  5
106
  8
SYMBOL
 62
     1
 10
9.1658489999999997
 20
18.425404
 30
0.0
 11
9.1155500000000007
 21
18.325496000000001
 31
0.0
  0
LINE
  5
105
  8
SYMBOL
 62
     1
 10
9.1155500000000007
 20
18.325496000000001
 30
0.0
 11
9.0649069999999998
 21
18.225244
 31
0.0
  0
LINE
  5
104
  8
SYMBOL
 62
     1
 10
9.0649069999999998
 20
18.225244
 30
0.0
 11
9.0399309999999993
 21
18.150486000000001
 31
0.0
  0
LINE
  5
103
  8
SYMBOL
 62
     1
 10
9.0399309999999993
 20
18.150486000000001
 30
0.0
 11
9.0146090000000001
 21
18.050232999999999
 31
0.0
  0
LINE
  5
102
  8
SYMBOL
 62
     1
 10
9.0146090000000001
 20
18.050232999999999
 30
0.0
 11
8.9896320000000003
 21
17.950326
 31
0.0
  0
LINE
  5
101
  8
SYMBOL
 62
     1
 10
8.9896320000000003
 20
17.950326
 30
0.0
 11
8.9643110000000004
 21
17.850418000000001
 31
0.0
  0
LINE
  5
100
  8
SYMBOL
 62
     1
 10
8.9643110000000004
 20
17.850418000000001
 30
0.0
 11
8.9393339999999988
 21
17.775314999999999
 31
0.0
  0
LINE
  5
FF
  8
SYMBOL
 62
     1
 10
8.9393339999999988
 20
17.775314999999999
 30
0.0
 11
8.9393339999999988
 21
17.675407
 31
0.0
  0
LINE
  5
FE
  8
SYMBOL
 62
     1
 10
8.9393339999999988
 20
17.675407
 30
0.0
 11
8.9393339999999988
 21
17.575499000000001
 31
0.0
  0
LINE
  5
FD
  8
SYMBOL
 62
     1
 10
8.9393339999999988
 20
17.575499000000001
 30
0.0
 11
8.9393339999999988
 21
17.475247
 31
0.0
  0
LINE
  5
FC
  8
SYMBOL
 62
     1
 10
8.9393339999999988
 20
17.475247
 30
0.0
 11
8.9393339999999988
 21
17.375339
 31
0.0
  0
LINE
  5
FB
  8
SYMBOL
 62
     1
 10
8.9393339999999988
 20
17.375339
 30
0.0
 11
8.9393339999999988
 21
17.275431000000001
 31
0.0
  0
LINE
  5
FA
  8
SYMBOL
 62
     1
 10
8.9393339999999988
 20
17.275431000000001
 30
0.0
 11
8.9643110000000004
 21
17.175523999999999
 31
0.0
  0
LINE
  5
F9
  8
SYMBOL
 62
     1
 10
8.9643110000000004
 20
17.175523999999999
 30
0.0
 11
8.9896320000000003
 21
17.075271000000001
 31
0.0
  0
LINE
  5
F8
  8
SYMBOL
 62
     1
 10
8.9896320000000003
 20
17.075271000000001
 30
0.0
 11
9.0146090000000001
 21
17.000513000000002
 31
0.0
  0
LINE
  5
F7
  8
SYMBOL
 62
     1
 10
9.0146090000000001
 20
17.000513000000002
 30
0.0
 11
9.0399309999999993
 21
16.900259999999999
 31
0.0
  0
LINE
  5
F6
  8
SYMBOL
 62
     1
 10
9.0399309999999993
 20
16.900259999999999
 30
0.0
 11
9.0649069999999998
 21
16.800353000000001
 31
0.0
  0
LINE
  5
F5
  8
SYMBOL
 62
     1
 10
9.0649069999999998
 20
16.800353000000001
 30
0.0
 11
9.1155500000000007
 21
16.725249999999999
 31
0.0
  0
LINE
  5
F4
  8
SYMBOL
 62
     1
 10
9.1155500000000007
 20
16.725249999999999
 30
0.0
 11
9.1658489999999997
 21
16.625342
 31
0.0
  0
LINE
  5
F3
  8
SYMBOL
 62
     1
 10
9.1658489999999997
 20
16.625342
 30
0.0
 11
9.2161469999999994
 21
16.550239000000001
 31
0.0
  0
LINE
  5
F2
  8
SYMBOL
 62
     1
 10
9.2161469999999994
 20
16.550239000000001
 30
0.0
 11
9.2666179999999994
 21
16.450330999999998
 31
0.0
  0
LINE
  5
F1
  8
SYMBOL
 62
     1
 10
9.2666179999999994
 20
16.450330999999998
 30
0.0
 11
9.3169160000000009
 21
16.375228
 31
0.0
  0
LINE
  5
F0
  8
SYMBOL
 62
     1
 10
9.3169160000000009
 20
16.375228
 30
0.0
 11
9.3925359999999998
 21
16.300469
 31
0.0
  0
LINE
  5
EF
  8
SYMBOL
 62
     1
 10
9.3925359999999998
 20
16.300469
 30
0.0
 11
9.4428339999999995
 21
16.225366000000001
 31
0.0
  0
LINE
  5
EE
  8
SYMBOL
 62
     1
 10
9.4428339999999995
 20
16.225366000000001
 30
0.0
 11
9.5184540000000002
 21
16.175411999999991
 31
0.0
  0
LINE
  5
ED
  8
SYMBOL
 62
     1
 10
9.5184540000000002
 20
16.175411999999991
 30
0.0
 11
9.5937300000000008
 21
16.100308999999999
 31
0.0
  0
LINE
  5
EC
  8
SYMBOL
 62
     1
 10
9.5937300000000008
 20
16.100308999999999
 30
0.0
 11
9.6440280000000005
 21
16.050355
 31
0.0
  0
LINE
  5
EB
  8
SYMBOL
 62
     1
 10
12.716191999999999
 20
10.500306999999999
 30
0.0
 11
12.716191999999999
 21
10.600559000000001
 31
0.0
  0
LINE
  5
EA
  8
SYMBOL
 62
     1
 10
12.716191999999999
 20
10.600559000000001
 30
0.0
 11
12.69087
 21
10.700467
 31
0.0
  0
LINE
  5
E9
  8
SYMBOL
 62
     1
 10
12.69087
 20
10.700467
 30
0.0
 11
12.69087
 21
10.800374
 31
0.0
  0
LINE
  5
E8
  8
SYMBOL
 62
     1
 10
12.69087
 20
10.800374
 30
0.0
 11
12.665549
 21
10.875477
 31
0.0
  0
LINE
  5
E7
  8
SYMBOL
 62
     1
 10
12.665549
 20
10.875477
 30
0.0
 11
12.640572000000001
 21
10.975384999999999
 31
0.0
  0
LINE
  5
E6
  8
SYMBOL
 62
     1
 10
12.640572000000001
 20
10.975384999999999
 30
0.0
 11
12.615251000000001
 21
11.075293
 31
0.0
  0
LINE
  5
E5
  8
SYMBOL
 62
     1
 10
12.615251000000001
 20
11.075293
 30
0.0
 11
12.590274000000001
 21
11.175545
 31
0.0
  0
LINE
  5
E4
  8
SYMBOL
 62
     1
 10
12.590274000000001
 20
11.175545
 30
0.0
 11
12.539975
 21
11.250304
 31
0.0
  0
LINE
  5
E3
  8
SYMBOL
 62
     1
 10
12.539975
 20
11.250304
 30
0.0
 11
12.514654
 21
11.350555999999999
 31
0.0
  0
LINE
  5
E2
  8
SYMBOL
 62
     1
 10
12.514654
 20
11.350555999999999
 30
0.0
 11
12.464354999999999
 21
11.425314999999999
 31
0.0
  0
LINE
  5
E1
  8
SYMBOL
 62
     1
 10
12.464354999999999
 20
11.425314999999999
 30
0.0
 11
12.413885000000001
 21
11.525567000000001
 31
0.0
  0
LINE
  5
E0
  8
SYMBOL
 62
     1
 10
12.413885000000001
 20
11.525567000000001
 30
0.0
 11
12.363586
 21
11.600326000000001
 31
0.0
  0
LINE
  5
DF
  8
SYMBOL
 62
     1
 10
12.363586
 20
11.600326000000001
 30
0.0
 11
12.287967
 21
11.675428999999999
 31
0.0
  0
LINE
  5
DE
  8
SYMBOL
 62
     1
 10
12.287967
 20
11.675428999999999
 30
0.0
 11
12.237667999999999
 21
11.750532
 31
0.0
  0
LINE
  5
DD
  8
SYMBOL
 62
     1
 10
12.237667999999999
 20
11.750532
 30
0.0
 11
12.162048
 21
11.825290000000001
 31
0.0
  0
LINE
  5
DC
  8
SYMBOL
 62
     1
 10
12.162048
 20
11.825290000000001
 30
0.0
 11
12.086428
 21
11.900392999999999
 31
0.0
  0
LINE
  5
DB
  8
SYMBOL
 62
     1
 10
12.086428
 20
11.900392999999999
 30
0.0
 11
12.011153
 21
11.950347000000001
 31
0.0
  0
LINE
  5
DA
  8
SYMBOL
 62
     1
 10
12.011153
 20
11.950347000000001
 30
0.0
 11
11.935533
 21
12.025449999999999
 31
0.0
  0
LINE
  5
D9
  8
SYMBOL
 62
     1
 10
11.935533
 20
12.025449999999999
 30
0.0
 11
11.859913000000001
 21
12.075404000000001
 31
0.0
  0
LINE
  5
D8
  8
SYMBOL
 62
     1
 10
11.859913000000001
 20
12.075404000000001
 30
0.0
 11
11.759143999999999
 21
12.125358
 31
0.0
  0
LINE
  5
D7
  8
SYMBOL
 62
     1
 10
11.759143999999999
 20
12.125358
 30
0.0
 11
11.683524999999999
 21
12.175312
 31
0.0
  0
LINE
  5
D6
  8
SYMBOL
 62
     1
 10
11.683524999999999
 20
12.175312
 30
0.0
 11
11.582928000000001
 21
12.225266
 31
0.0
  0
LINE
  5
D5
  8
SYMBOL
 62
     1
 10
11.582928000000001
 20
12.225266
 30
0.0
 11
11.507308
 21
12.250415
 31
0.0
  0
LINE
  5
D4
  8
SYMBOL
 62
     1
 10
11.507308
 20
12.250415
 30
0.0
 11
11.406711
 21
12.275563999999999
 31
0.0
  0
LINE
  5
D3
  8
SYMBOL
 62
     1
 10
11.406711
 20
12.275563999999999
 30
0.0
 11
11.306114000000001
 21
12.300369
 31
0.0
  0
LINE
  5
D2
  8
SYMBOL
 62
     1
 10
11.306114000000001
 20
12.300369
 30
0.0
 11
11.205518
 21
12.325518000000001
 31
0.0
  0
LINE
  5
D1
  8
SYMBOL
 62
     1
 10
11.205518
 20
12.325518000000001
 30
0.0
 11
11.129725000000001
 21
12.350322999999999
 31
0.0
  0
LINE
  5
D0
  8
SYMBOL
 62
     1
 10
11.129725000000001
 20
12.350322999999999
 30
0.0
 11
11.029128999999999
 21
12.375472
 31
0.0
  0
LINE
  5
CF
  8
SYMBOL
 62
     1
 10
11.029128999999999
 20
12.375472
 30
0.0
 11
10.928186999999999
 21
12.375472
 31
0.0
  0
LINE
  5
CE
  8
SYMBOL
 62
     1
 10
10.928186999999999
 20
12.375472
 30
0.0
 11
10.827591
 21
12.375472
 31
0.0
  0
LINE
  5
CD
  8
SYMBOL
 62
     1
 10
10.827591
 20
12.375472
 30
0.0
 11
10.726993999999999
 21
12.375472
 31
0.0
  0
LINE
  5
CC
  8
SYMBOL
 62
     1
 10
10.726993999999999
 20
12.375472
 30
0.0
 11
10.626397000000001
 21
12.375472
 31
0.0
  0
LINE
  5
CB
  8
SYMBOL
 62
     1
 10
10.626397000000001
 20
12.375472
 30
0.0
 11
10.525283
 21
12.350322999999999
 31
0.0
  0
LINE
  5
CA
  8
SYMBOL
 62
     1
 10
10.525283
 20
12.350322999999999
 30
0.0
 11
10.424687
 21
12.325518000000001
 31
0.0
  0
LINE
  5
C9
  8
SYMBOL
 62
     1
 10
10.424687
 20
12.325518000000001
 30
0.0
 11
10.32409
 21
12.325518000000001
 31
0.0
  0
LINE
  5
C8
  8
SYMBOL
 62
     1
 10
10.32409
 20
12.325518000000001
 30
0.0
 11
10.248469999999999
 21
12.275563999999999
 31
0.0
  0
LINE
  5
C7
  8
SYMBOL
 62
     1
 10
10.248469999999999
 20
12.275563999999999
 30
0.0
 11
10.147873000000001
 21
12.250415
 31
0.0
  0
LINE
  5
C6
  8
SYMBOL
 62
     1
 10
10.147873000000001
 20
12.250415
 30
0.0
 11
10.046932
 21
12.225266
 31
0.0
  0
LINE
  5
C5
  8
SYMBOL
 62
     1
 10
10.046932
 20
12.225266
 30
0.0
 11
9.9716570000000004
 21
12.175312
 31
0.0
  0
LINE
  5
C4
  8
SYMBOL
 62
     1
 10
9.9716570000000004
 20
12.175312
 30
0.0
 11
9.8705429999999996
 21
12.125358
 31
0.0
  0
LINE
  5
C3
  8
SYMBOL
 62
     1
 10
9.8705429999999996
 20
12.125358
 30
0.0
 11
9.7952680000000001
 21
12.075404000000001
 31
0.0
  0
LINE
  5
C2
  8
SYMBOL
 62
     1
 10
9.7952680000000001
 20
12.075404000000001
 30
0.0
 11
9.7196479999999994
 21
12.025449999999999
 31
0.0
  0
LINE
  5
C1
  8
SYMBOL
 62
     1
 10
9.7196479999999994
 20
12.025449999999999
 30
0.0
 11
9.6440280000000005
 21
11.950347000000001
 31
0.0
  0
LINE
  5
C0
  8
SYMBOL
 62
     1
 10
9.6440280000000005
 20
11.950347000000001
 30
0.0
 11
9.5687529999999992
 21
11.900392999999999
 31
0.0
  0
LINE
  5
BF
  8
SYMBOL
 62
     1
 10
9.5687529999999992
 20
11.900392999999999
 30
0.0
 11
9.4931330000000003
 21
11.825290000000001
 31
0.0
  0
LINE
  5
BE
  8
SYMBOL
 62
     1
 10
9.4931330000000003
 20
11.825290000000001
 30
0.0
 11
9.4175129999999996
 21
11.750532
 31
0.0
  0
LINE
  5
BD
  8
SYMBOL
 62
     1
 10
9.4175129999999996
 20
11.750532
 30
0.0
 11
9.342238
 21
11.675428999999999
 31
0.0
  0
LINE
  5
BC
  8
SYMBOL
 62
     1
 10
9.342238
 20
11.675428999999999
 30
0.0
 11
9.2915949999999992
 21
11.600326000000001
 31
0.0
  0
LINE
  5
BB
  8
SYMBOL
 62
     1
 10
9.2915949999999992
 20
11.600326000000001
 30
0.0
 11
9.241124000000001
 21
11.525567000000001
 31
0.0
  0
LINE
  5
BA
  8
SYMBOL
 62
     1
 10
9.241124000000001
 20
11.525567000000001
 30
0.0
 11
9.1908259999999995
 21
11.450464
 31
0.0
  0
LINE
  5
B9
  8
SYMBOL
 62
     1
 10
9.1908259999999995
 20
11.450464
 30
0.0
 11
9.1405270000000005
 21
11.350555999999999
 31
0.0
  0
LINE
  5
B8
  8
SYMBOL
 62
     1
 10
9.1405270000000005
 20
11.350555999999999
 30
0.0
 11
9.090228999999999
 21
11.275453000000001
 31
0.0
  0
LINE
  5
B7
  8
SYMBOL
 62
     1
 10
9.090228999999999
 20
11.275453000000001
 30
0.0
 11
9.0649069999999998
 21
11.175545
 31
0.0
  0
LINE
  5
B6
  8
SYMBOL
 62
     1
 10
9.0649069999999998
 20
11.175545
 30
0.0
 11
9.0146090000000001
 21
11.075293
 31
0.0
  0
LINE
  5
B5
  8
SYMBOL
 62
     1
 10
9.0146090000000001
 20
11.075293
 30
0.0
 11
8.9896320000000003
 21
11.000534
 31
0.0
  0
LINE
  5
B4
  8
SYMBOL
 62
     1
 10
8.9896320000000003
 20
11.000534
 30
0.0
 11
8.9643110000000004
 21
10.900282000000001
 31
0.0
  0
LINE
  5
B3
  8
SYMBOL
 62
     1
 10
8.9643110000000004
 20
10.900282000000001
 30
0.0
 11
8.9643110000000004
 21
10.800374
 31
0.0
  0
LINE
  5
B2
  8
SYMBOL
 62
     1
 10
8.9643110000000004
 20
10.800374
 30
0.0
 11
8.9393339999999988
 21
10.700467
 31
0.0
  0
LINE
  5
B1
  8
SYMBOL
 62
     1
 10
8.9393339999999988
 20
10.700467
 30
0.0
 11
8.9393339999999988
 21
10.600559000000001
 31
0.0
  0
LINE
  5
B0
  8
SYMBOL
 62
     1
 10
8.9393339999999988
 20
10.600559000000001
 30
0.0
 11
8.9393339999999988
 21
10.500306999999999
 31
0.0
  0
LINE
  5
AF
  8
SYMBOL
 62
     1
 10
2.0150359999999998
 20
-51.049424999999992
 30
0.0
 11
1.9394169999999991
 21
-51.099378999999999
 31
0.0
  0
LINE
  5
AE
  8
SYMBOL
 62
     1
 10
1.9394169999999991
 20
-51.099378999999999
 30
0.0
 11
1.8637969999999999
 21
-51.174481999999998
 31
0.0
  0
LINE
  5
AD
  8
SYMBOL
 62
     1
 10
1.8637969999999999
 20
-51.174481999999998
 30
0.0
 11
1.7885209999999989
 21
-51.224435999999997
 31
0.0
  0
LINE
  5
AC
  8
SYMBOL
 62
     1
 10
1.7885209999999989
 20
-51.224435999999997
 30
0.0
 11
1.7378779999999989
 21
-51.299539000000003
 31
0.0
  0
LINE
  5
AB
  8
SYMBOL
 62
     1
 10
1.7378779999999989
 20
-51.299539000000003
 30
0.0
 11
1.6626029999999989
 21
-51.374642000000001
 31
0.0
  0
LINE
  5
AA
  8
SYMBOL
 62
     1
 10
9.8705429999999996
 20
-40.124682999999997
 30
0.0
 11
9.9463350000000013
 21
-40.17463699999999
 31
0.0
  0
LINE
  5
A9
  8
SYMBOL
 62
     1
 10
9.9463350000000013
 20
-40.17463699999999
 30
0.0
 11
10.046932
 21
-40.199441
 31
0.0
  0
LINE
  5
A8
  8
SYMBOL
 62
     1
 10
10.046932
 20
-40.199441
 30
0.0
 11
10.147873000000001
 21
-40.249395
 31
0.0
  0
LINE
  5
A7
  8
SYMBOL
 62
     1
 10
10.147873000000001
 20
-40.249395
 30
0.0
 11
10.223148999999999
 21
-40.274543999999992
 31
0.0
  0
LINE
  5
A6
  8
SYMBOL
 62
     1
 10
10.223148999999999
 20
-40.274543999999992
 30
0.0
 11
10.32409
 21
-40.299692999999998
 31
0.0
  0
LINE
  5
A5
  8
SYMBOL
 62
     1
 10
10.32409
 20
-40.299692999999998
 30
0.0
 11
10.424687
 21
-40.324497999999998
 31
0.0
  0
LINE
  5
A4
  8
SYMBOL
 62
     1
 10
10.424687
 20
-40.324497999999998
 30
0.0
 11
10.525283
 21
-40.34964699999999
 31
0.0
  0
LINE
  5
A3
  8
SYMBOL
 62
     1
 10
10.525283
 20
-40.34964699999999
 30
0.0
 11
10.626397000000001
 21
-40.34964699999999
 31
0.0
  0
LINE
  5
A2
  8
SYMBOL
 62
     1
 10
10.626397000000001
 20
-40.34964699999999
 30
0.0
 11
10.726993999999999
 21
-40.374451999999998
 31
0.0
  0
LINE
  5
A1
  8
SYMBOL
 62
     1
 10
10.726993999999999
 20
-40.374451999999998
 30
0.0
 11
10.802269000000001
 21
-40.374451999999998
 31
0.0
  0
LINE
  5
A0
  8
SYMBOL
 62
     1
 10
10.802269000000001
 20
-40.374451999999998
 30
0.0
 11
10.90321
 21
-40.374451999999998
 31
0.0
  0
LINE
  5
9F
  8
SYMBOL
 62
     1
 10
10.90321
 20
-40.374451999999998
 30
0.0
 11
11.003807
 21
-40.34964699999999
 31
0.0
  0
LINE
  5
9E
  8
SYMBOL
 62
     1
 10
11.003807
 20
-40.34964699999999
 30
0.0
 11
11.104404000000001
 21
-40.34964699999999
 31
0.0
  0
LINE
  5
9D
  8
SYMBOL
 62
     1
 10
11.104404000000001
 20
-40.34964699999999
 30
0.0
 11
11.205518
 21
-40.324497999999998
 31
0.0
  0
LINE
  5
9C
  8
SYMBOL
 62
     1
 10
11.205518
 20
-40.324497999999998
 30
0.0
 11
11.306114000000001
 21
-40.299692999999998
 31
0.0
  0
LINE
  5
9B
  8
SYMBOL
 62
     1
 10
11.306114000000001
 20
-40.299692999999998
 30
0.0
 11
11.406711
 21
-40.274543999999992
 31
0.0
  0
LINE
  5
9A
  8
SYMBOL
 62
     1
 10
11.406711
 20
-40.274543999999992
 30
0.0
 11
11.482331
 21
-40.249395
 31
0.0
  0
LINE
  5
99
  8
SYMBOL
 62
     1
 10
11.482331
 20
-40.249395
 30
0.0
 11
11.582928000000001
 21
-40.199441
 31
0.0
  0
LINE
  5
98
  8
SYMBOL
 62
     1
 10
11.582928000000001
 20
-40.199441
 30
0.0
 11
11.658548
 21
-40.17463699999999
 31
0.0
  0
LINE
  5
97
  8
SYMBOL
 62
     1
 10
11.658548
 20
-40.17463699999999
 30
0.0
 11
11.759143999999999
 21
-40.124682999999997
 31
0.0
  0
LINE
  5
96
  8
SYMBOL
 62
     1
 10
11.759143999999999
 20
-40.124682999999997
 30
0.0
 11
11.834937
 21
-40.074384000000002
 31
0.0
  0
LINE
  5
95
  8
SYMBOL
 62
     1
 10
11.834937
 20
-40.074384000000002
 30
0.0
 11
11.910212
 21
-39.999625999999999
 31
0.0
  0
LINE
  5
94
  8
SYMBOL
 62
     1
 10
11.910212
 20
-39.999625999999999
 30
0.0
 11
12.011153
 21
-39.949672
 31
0.0
  0
LINE
  5
93
  8
SYMBOL
 62
     1
 10
12.011153
 20
-39.949672
 30
0.0
 11
12.086428
 21
-39.874569000000001
 31
0.0
  0
LINE
  5
92
  8
SYMBOL
 62
     1
 10
12.086428
 20
-39.874569000000001
 30
0.0
 11
12.137071000000001
 21
-39.824615000000001
 31
0.0
  0
LINE
  5
91
  8
SYMBOL
 62
     1
 10
12.137071000000001
 20
-39.824615000000001
 30
0.0
 11
12.212346999999999
 21
-39.749512000000003
 31
0.0
  0
LINE
  5
90
  8
SYMBOL
 62
     1
 10
12.212346999999999
 20
-39.749512000000003
 30
0.0
 11
12.287967
 21
-39.674409000000011
 31
0.0
  0
LINE
  5
8F
  8
SYMBOL
 62
     1
 10
12.287967
 20
-39.674409000000011
 30
0.0
 11
12.338265
 21
-39.599649999999997
 31
0.0
  0
LINE
  5
8E
  8
SYMBOL
 62
     1
 10
12.338265
 20
-39.599649999999997
 30
0.0
 11
12.388563
 21
-39.524546999999998
 31
0.0
  0
LINE
  5
8D
  8
SYMBOL
 62
     1
 10
12.388563
 20
-39.524546999999998
 30
0.0
 11
12.438862
 21
-39.424638999999999
 31
0.0
  0
LINE
  5
8C
  8
SYMBOL
 62
     1
 10
12.438862
 20
-39.424638999999999
 30
0.0
 11
12.489331999999999
 21
-39.349536000000001
 31
0.0
  0
LINE
  5
8B
  8
SYMBOL
 62
     1
 10
12.489331999999999
 20
-39.349536000000001
 30
0.0
 11
12.539975
 21
-39.249628000000001
 31
0.0
  0
LINE
  5
8A
  8
SYMBOL
 62
     1
 10
12.539975
 20
-39.249628000000001
 30
0.0
 11
12.564952
 21
-39.174525000000003
 31
0.0
  0
LINE
  5
89
  8
SYMBOL
 62
     1
 10
12.564952
 20
-39.174525000000003
 30
0.0
 11
12.615251000000001
 21
-39.074618000000001
 31
0.0
  0
LINE
  5
88
  8
SYMBOL
 62
     1
 10
12.615251000000001
 20
-39.074618000000001
 30
0.0
 11
12.640572000000001
 21
-38.974364999999999
 31
0.0
  0
LINE
  5
87
  8
SYMBOL
 62
     1
 10
12.640572000000001
 20
-38.974364999999999
 30
0.0
 11
12.665549
 21
-38.874457
 31
0.0
  0
LINE
  5
86
  8
SYMBOL
 62
     1
 10
12.665549
 20
-38.874457
 30
0.0
 11
12.665549
 21
-38.799354000000001
 31
0.0
  0
LINE
  5
85
  8
SYMBOL
 62
     1
 10
12.665549
 20
-38.799354000000001
 30
0.0
 11
12.69087
 21
-38.699446999999999
 31
0.0
  0
LINE
  5
84
  8
SYMBOL
 62
     1
 10
12.69087
 20
-38.699446999999999
 30
0.0
 11
12.69087
 21
-38.599539
 31
0.0
  0
LINE
  5
83
  8
SYMBOL
 62
     1
 10
12.69087
 20
-38.599539
 30
0.0
 11
12.69087
 21
-38.499631000000001
 31
0.0
  0
LINE
  5
82
  8
SYMBOL
 62
     1
 10
11.960855
 20
16.050355
 30
0.0
 11
12.03613
 21
16.100308999999999
 31
0.0
  0
LINE
  5
81
  8
SYMBOL
 62
     1
 10
12.03613
 20
16.100308999999999
 30
0.0
 11
12.111750000000001
 21
16.175411999999991
 31
0.0
  0
LINE
  5
80
  8
SYMBOL
 62
     1
 10
12.111750000000001
 20
16.175411999999991
 30
0.0
 11
12.18737
 21
16.250515
 31
0.0
  0
LINE
  5
7F
  8
SYMBOL
 62
     1
 10
12.18737
 20
16.250515
 30
0.0
 11
12.262644999999999
 21
16.300469
 31
0.0
  0
LINE
  5
7E
  8
SYMBOL
 62
     1
 10
12.262644999999999
 20
16.300469
 30
0.0
 11
12.313288
 21
16.375228
 31
0.0
  0
LINE
  5
7D
  8
SYMBOL
 62
     1
 10
12.313288
 20
16.375228
 30
0.0
 11
12.363586
 21
16.475480000000001
 31
0.0
  0
LINE
  5
7C
  8
SYMBOL
 62
     1
 10
12.363586
 20
16.475480000000001
 30
0.0
 11
12.413885000000001
 21
16.550239000000001
 31
0.0
  0
LINE
  5
7B
  8
SYMBOL
 62
     1
 10
12.413885000000001
 20
16.550239000000001
 30
0.0
 11
12.464354999999999
 21
16.625342
 31
0.0
  0
LINE
  5
7A
  8
SYMBOL
 62
     1
 10
12.464354999999999
 20
16.625342
 30
0.0
 11
12.514654
 21
16.725249999999999
 31
0.0
  0
LINE
  5
79
  8
SYMBOL
 62
     1
 10
12.514654
 20
16.725249999999999
 30
0.0
 11
12.564952
 21
16.800353000000001
 31
0.0
  0
LINE
  5
78
  8
SYMBOL
 62
     1
 10
12.564952
 20
16.800353000000001
 30
0.0
 11
12.590274000000001
 21
16.900259999999999
 31
0.0
  0
LINE
  5
77
  8
SYMBOL
 62
     1
 10
12.590274000000001
 20
16.900259999999999
 30
0.0
 11
12.615251000000001
 21
17.000513000000002
 31
0.0
  0
LINE
  5
76
  8
SYMBOL
 62
     1
 10
12.615251000000001
 20
17.000513000000002
 30
0.0
 11
12.640572000000001
 21
17.10042
 31
0.0
  0
LINE
  5
75
  8
SYMBOL
 62
     1
 10
12.640572000000001
 20
17.10042
 30
0.0
 11
12.665549
 21
17.175523999999999
 31
0.0
  0
LINE
  5
74
  8
SYMBOL
 62
     1
 10
12.665549
 20
17.175523999999999
 30
0.0
 11
12.69087
 21
17.275431000000001
 31
0.0
  0
LINE
  5
73
  8
SYMBOL
 62
     1
 10
12.69087
 20
17.275431000000001
 30
0.0
 11
12.69087
 21
17.375339
 31
0.0
  0
LINE
  5
72
  8
SYMBOL
 62
     1
 10
12.69087
 20
17.375339
 30
0.0
 11
12.69087
 21
17.475247
 31
0.0
  0
LINE
  5
71
  8
SYMBOL
 62
     1
 10
12.69087
 20
17.475247
 30
0.0
 11
12.69087
 21
17.575499000000001
 31
0.0
  0
LINE
  5
70
  8
SYMBOL
 62
     1
 10
12.69087
 20
17.575499000000001
 30
0.0
 11
12.69087
 21
17.675407
 31
0.0
  0
LINE
  5
6F
  8
SYMBOL
 62
     1
 10
12.69087
 20
17.675407
 30
0.0
 11
12.69087
 21
17.775314999999999
 31
0.0
  0
LINE
  5
6E
  8
SYMBOL
 62
     1
 10
12.69087
 20
17.775314999999999
 30
0.0
 11
12.665549
 21
17.875567
 31
0.0
  0
LINE
  5
6D
  8
SYMBOL
 62
     1
 10
12.665549
 20
17.875567
 30
0.0
 11
12.640572000000001
 21
17.975474999999999
 31
0.0
  0
LINE
  5
6C
  8
SYMBOL
 62
     1
 10
12.640572000000001
 20
17.975474999999999
 30
0.0
 11
12.615251000000001
 21
18.050232999999999
 31
0.0
  0
LINE
  5
6B
  8
SYMBOL
 62
     1
 10
12.615251000000001
 20
18.050232999999999
 30
0.0
 11
12.590274000000001
 21
18.150486000000001
 31
0.0
  0
LINE
  5
6A
  8
SYMBOL
 62
     1
 10
12.590274000000001
 20
18.150486000000001
 30
0.0
 11
12.564952
 21
18.250392999999999
 31
0.0
  0
LINE
  5
69
  8
SYMBOL
 62
     1
 10
12.564952
 20
18.250392999999999
 30
0.0
 11
12.514654
 21
18.325496000000001
 31
0.0
  0
LINE
  5
68
  8
SYMBOL
 62
     1
 10
12.514654
 20
18.325496000000001
 30
0.0
 11
12.464354999999999
 21
18.425404
 31
0.0
  0
LINE
  5
67
  8
SYMBOL
 62
     1
 10
12.464354999999999
 20
18.425404
 30
0.0
 11
12.413885000000001
 21
18.500506999999999
 31
0.0
  0
LINE
  5
66
  8
SYMBOL
 62
     1
 10
12.413885000000001
 20
18.500506999999999
 30
0.0
 11
12.363586
 21
18.575265999999999
 31
0.0
  0
LINE
  5
65
  8
SYMBOL
 62
     1
 10
12.363586
 20
18.575265999999999
 30
0.0
 11
12.313288
 21
18.675518
 31
0.0
  0
LINE
  5
64
  8
SYMBOL
 62
     1
 10
12.313288
 20
18.675518
 30
0.0
 11
12.237667999999999
 21
18.750277000000001
 31
0.0
  0
LINE
  5
63
  8
SYMBOL
 62
     1
 10
12.237667999999999
 20
18.750277000000001
 30
0.0
 11
12.18737
 21
18.825379999999999
 31
0.0
  0
LINE
  5
62
  8
SYMBOL
 62
     1
 10
12.18737
 20
18.825379999999999
 30
0.0
 11
12.111750000000001
 21
18.875333999999999
 31
0.0
  0
LINE
  5
61
  8
SYMBOL
 62
     1
 10
12.111750000000001
 20
18.875333999999999
 30
0.0
 11
12.03613
 21
18.950437000000001
 31
0.0
  0
LINE
  5
60
  8
SYMBOL
 62
     1
 10
12.03613
 20
18.950437000000001
 30
0.0
 11
11.960855
 21
19.000391
 31
0.0
  0
LINE
  5
5F
  8
SYMBOL
 62
     1
 10
11.960855
 20
19.000391
 30
0.0
 11
11.885235
 21
19.075493999999999
 31
0.0
  0
LINE
  5
5E
  8
SYMBOL
 62
     1
 10
11.885235
 20
19.075493999999999
 30
0.0
 11
11.784466
 21
19.125447999999999
 31
0.0
  0
LINE
  5
5D
  8
SYMBOL
 62
     1
 10
11.784466
 20
19.125447999999999
 30
0.0
 11
11.708845999999999
 21
19.175401000000001
 31
0.0
  0
LINE
  5
5C
  8
SYMBOL
 62
     1
 10
11.708845999999999
 20
19.175401000000001
 30
0.0
 11
11.633226000000001
 21
19.225355
 31
0.0
  0
LINE
  5
5B
  8
SYMBOL
 62
     1
 10
11.633226000000001
 20
19.225355
 30
0.0
 11
11.532629
 21
19.250505
 31
0.0
  0
LINE
  5
5A
  8
SYMBOL
 62
     1
 10
11.532629
 20
19.250505
 30
0.0
 11
11.432033000000001
 21
19.300457999999999
 31
0.0
  0
LINE
  5
59
  8
SYMBOL
 62
     1
 10
11.432033000000001
 20
19.300457999999999
 30
0.0
 11
11.356413
 21
19.325263
 31
0.0
  0
LINE
  5
58
  8
SYMBOL
 62
     1
 10
11.356413
 20
19.325263
 30
0.0
 11
11.255815999999999
 21
19.350411999999999
 31
0.0
  0
LINE
  5
57
  8
SYMBOL
 62
     1
 10
11.255815999999999
 20
19.350411999999999
 30
0.0
 11
11.154702
 21
19.375561999999999
 31
0.0
  0
LINE
  5
56
  8
SYMBOL
 62
     1
 10
11.154702
 20
19.375561999999999
 30
0.0
 11
11.054106000000001
 21
19.375561999999999
 31
0.0
  0
LINE
  5
55
  8
SYMBOL
 62
     1
 10
11.054106000000001
 20
19.375561999999999
 30
0.0
 11
10.953509
 21
19.400366000000002
 31
0.0
  0
LINE
  5
54
  8
SYMBOL
 62
     1
 10
10.953509
 20
19.400366000000002
 30
0.0
 11
10.852912
 21
19.400366000000002
 31
0.0
  0
LINE
  5
53
  8
SYMBOL
 62
     1
 10
10.852912
 20
19.400366000000002
 30
0.0
 11
10.751970999999999
 21
19.400366000000002
 31
0.0
  0
LINE
  5
52
  8
SYMBOL
 62
     1
 10
10.751970999999999
 20
19.400366000000002
 30
0.0
 11
10.651374000000001
 21
19.400366000000002
 31
0.0
  0
LINE
  5
51
  8
SYMBOL
 62
     1
 10
10.651374000000001
 20
19.400366000000002
 30
0.0
 11
10.575754
 21
19.375561999999999
 31
0.0
  0
LINE
  5
50
  8
SYMBOL
 62
     1
 10
10.575754
 20
19.375561999999999
 30
0.0
 11
10.474985
 21
19.375561999999999
 31
0.0
  0
LINE
  5
4F
  8
SYMBOL
 62
     1
 10
10.474985
 20
19.375561999999999
 30
0.0
 11
10.374388
 21
19.350411999999999
 31
0.0
  0
LINE
  5
4E
  8
SYMBOL
 62
     1
 10
10.374388
 20
19.350411999999999
 30
0.0
 11
10.273792
 21
19.325263
 31
0.0
  0
LINE
  5
4D
  8
SYMBOL
 62
     1
 10
10.273792
 20
19.325263
 30
0.0
 11
10.17285
 21
19.275309
 31
0.0
  0
LINE
  5
4C
  8
SYMBOL
 62
     1
 10
10.17285
 20
19.275309
 30
0.0
 11
10.097575000000001
 21
19.250505
 31
0.0
  0
LINE
  5
4B
  8
SYMBOL
 62
     1
 10
10.097575000000001
 20
19.250505
 30
0.0
 11
9.9966340000000002
 21
19.200551000000001
 31
0.0
  0
LINE
  5
4A
  8
SYMBOL
 62
     1
 10
9.9966340000000002
 20
19.200551000000001
 30
0.0
 11
9.9213579999999997
 21
19.175401000000001
 31
0.0
  0
LINE
  5
49
  8
SYMBOL
 62
     1
 10
9.9213579999999997
 20
19.175401000000001
 30
0.0
 11
9.8202449999999981
 21
19.125447999999999
 31
0.0
  0
LINE
  5
48
  8
SYMBOL
 62
     1
 10
9.8202449999999981
 20
19.125447999999999
 30
0.0
 11
9.7449690000000011
 21
19.075493999999999
 31
0.0
  0
LINE
  5
47
  8
SYMBOL
 62
     1
 10
9.7449690000000011
 20
19.075493999999999
 30
0.0
 11
9.6693499999999997
 21
19.000391
 31
0.0
  0
LINE
  5
337
  8
SYMBOL
 62
     1
 10
14.000007
 20
-26.195817000000002
 30
0.0
 11
14.000007
 21
-27.945924999999999
 31
0.0
  0
LINE
  5
338
  8
SYMBOL
 62
     1
 10
0.0001729999999993
 20
-31.295936000000001
 30
0.0
 11
14.000007
 21
-31.295936000000001
 31
0.0
  0
LINE
  5
339
  8
SYMBOL
 62
     1
 10
0.0001729999999993
 20
-38.545794999999998
 30
0.0
 11
0.0001729999999993
 21
-35.390087999999999
 31
0.0
  0
LINE
  5
33A
  8
SYMBOL
 62
     1
 10
0.0001729999999993
 20
-33.056725
 30
0.0
 11
14.000007
 21
-33.056725
 31
0.0
  0
LINE
  5
33B
  8
SYMBOL
 62
     1
 10
14.000007
 20
-38.545794999999998
 30
0.0
 11
0.0001729999999993
 21
-38.545794999999998
 31
0.0
  0
LINE
  5
33C
  8
SYMBOL
 62
     1
 10
14.000007
 20
-33.743676999999998
 30
0.0
 11
13.306336999999999
 21
-33.743676999999998
 31
0.0
  0
LINE
  5
33D
  8
SYMBOL
 62
     1
 10
14.000007
 20
-35.390087999999999
 30
0.0
 11
13.306336999999999
 21
-35.390087999999999
 31
0.0
  0
LINE
  5
33E
  8
SYMBOL
 62
     1
 10
14.000007
 20
-31.983232999999998
 30
0.0
 11
0.0001729999999993
 21
-31.983232999999998
 31
0.0
  0
LINE
  5
33F
  8
SYMBOL
 62
     1
 10
14.000007
 20
-30.066037000000001
 30
0.0
 11
0.6945319999999989
 21
-30.066037000000001
 31
0.0
  0
LINE
  5
340
  8
SYMBOL
 62
     1
 10
14.000007
 20
-27.945924999999999
 30
0.0
 11
0.0001729999999993
 21
-27.945924999999999
 31
0.0
  0
LINE
  5
341
  8
SYMBOL
 62
     1
 10
14.000007
 20
-26.195817000000002
 30
0.0
 11
6.1906649999999992
 21
-26.195817000000002
 31
0.0
  0
LINE
  5
342
  8
SYMBOL
 62
     1
 10
13.306336999999999
 20
-35.390087999999999
 30
0.0
 11
0.0001729999999993
 21
-35.390087999999999
 31
0.0
  0
LINE
  5
343
  8
SYMBOL
 62
     1
 10
13.306336999999999
 20
-33.743676999999998
 30
0.0
 11
0.0001729999999993
 21
-33.743676999999998
 31
0.0
  0
LINE
  5
344
  8
SYMBOL
 62
     1
 10
0.6945319999999989
 20
-30.066037000000001
 30
0.0
 11
0.0001729999999993
 21
-30.066037000000001
 31
0.0
  0
LINE
  5
345
  8
SYMBOL
 62
     1
 10
0.0001729999999993
 20
-35.390087999999999
 30
0.0
 11
0.0001729999999993
 21
-33.743676999999998
 31
0.0
  0
LINE
  5
346
  8
SYMBOL
 62
     1
 10
0.0001729999999993
 20
-33.743676999999998
 30
0.0
 11
0.0001729999999993
 21
-33.056725
 31
0.0
  0
LINE
  5
347
  8
SYMBOL
 62
     1
 10
0.0001729999999993
 20
-27.945924999999999
 30
0.0
 11
0.0001729999999993
 21
-26.195817000000002
 31
0.0
  0
LINE
  5
348
  8
SYMBOL
 62
     1
 10
0.0001729999999993
 20
-30.066037000000001
 30
0.0
 11
0.0001729999999993
 21
-29.120702999999999
 31
0.0
  0
LINE
  5
349
  8
SYMBOL
 62
     1
 10
0.0001729999999993
 20
-30.87081100000001
 30
0.0
 11
0.0001729999999993
 21
-30.066037000000001
 31
0.0
  0
LINE
  5
34A
  8
SYMBOL
 62
     1
 10
0.0001729999999993
 20
-29.120702999999999
 30
0.0
 11
0.0001729999999993
 21
-27.945924999999999
 31
0.0
  0
LINE
  5
34B
  8
SYMBOL
 62
     1
 10
0.0001729999999993
 20
-31.983232999999998
 30
0.0
 11
0.0001729999999993
 21
-31.353124999999999
 31
0.0
  0
LINE
  5
34C
  8
SYMBOL
 62
     1
 10
0.0001729999999993
 20
-33.056725
 30
0.0
 11
0.0001729999999993
 21
-31.983232999999998
 31
0.0
  0
LINE
  5
34D
  8
SYMBOL
 62
     1
 10
0.0001729999999993
 20
-31.353124999999999
 30
0.0
 11
0.0001729999999993
 21
-30.87081100000001
 31
0.0
  0
LINE
  5
34E
  8
SYMBOL
 62
     1
 10
14.000007
 20
-35.390087999999999
 30
0.0
 11
14.000007
 21
-38.545794999999998
 31
0.0
  0
LINE
  5
34F
  8
SYMBOL
 62
     1
 10
14.000007
 20
-33.743676999999998
 30
0.0
 11
14.000007
 21
-35.390087999999999
 31
0.0
  0
LINE
  5
350
  8
SYMBOL
 62
     1
 10
14.000007
 20
-27.945924999999999
 30
0.0
 11
14.000007
 21
-30.066037000000001
 31
0.0
  0
LINE
  5
351
  8
SYMBOL
 62
     1
 10
14.000007
 20
-30.066037000000001
 30
0.0
 11
14.000007
 21
-31.295936000000001
 31
0.0
  0
LINE
  5
352
  8
SYMBOL
 62
     1
 10
14.000007
 20
-31.983232999999998
 30
0.0
 11
14.000007
 21
-33.056725
 31
0.0
  0
LINE
  5
353
  8
SYMBOL
 62
     1
 10
14.000007
 20
-33.056725
 30
0.0
 11
14.000007
 21
-33.743676999999998
 31
0.0
  0
LINE
  5
354
  8
SYMBOL
 62
     1
 10
14.000007
 20
-31.295936000000001
 30
0.0
 11
14.000007
 21
-31.983232999999998
 31
0.0
  0
LINE
  5
355
  8
SYMBOL
 62
     1
 10
2.025199999999999
 20
-26.195817000000002
 30
0.0
 11
0.0001729999999993
 21
-26.195817000000002
 31
0.0
  0
LINE
  5
356
  8
SYMBOL
 62
     1
 10
6.1906649999999992
 20
-26.195817000000002
 30
0.0
 11
2.025199999999999
 21
-26.195817000000002
 31
0.0
  0
LINE
  5
357
  8
SYMBOL
 62
     1
 10
14.000007
 20
-36.615164
 30
0.0
 11
0.0001729999999993
 21
-36.615164
 31
0.0
  0
ENDSEC
  0
EOF
