  0
SECTION
  2
HEADER
  9
$ACADVER
  1
AC1015
  9
$ACADMAINTVER
 70
     6
  9
$DWGCODEPAGE
  3
ANSI_1252
  9
$INSBASE
 10
0.0
 20
0.0
 30
0.0
  9
$EXTMIN
 10
69.395417
 20
287.976483
 30
-1.0
  9
$EXTMAX
 10
1026.514554
 20
492.804657
 30
0.7
  9
$LIMMIN
 10
0.0
 20
0.0
  9
$LIMMAX
 10
12.0
 20
9.0
  9
$ORTHOMODE
 70
     0
  9
$REGENMODE
 70
     1
  9
$FILLMODE
 70
     1
  9
$QTEXTMODE
 70
     0
  9
$MIRRTEXT
 70
     0
  9
$LTSCALE
 40
10.0
  9
$ATTMODE
 70
     1
  9
$TEXTSIZE
 40
0.2
  9
$TRACEWID
 40
0.05
  9
$TEXTSTYLE
  7
STANDARD
  9
$CLAYER
  8
0
  9
$CELTYPE
  6
ByLayer
  9
$CECOLOR
 62
   256
  9
$CELTSCALE
 40
1.0
  9
$DISPSILH
 70
     0
  9
$DIMSCALE
 40
1.0
  9
$DIMASZ
 40
0.18
  9
$DIMEXO
 40
0.0625
  9
$DIMDLI
 40
0.38
  9
$DIMRND
 40
0.0
  9
$DIMDLE
 40
0.0
  9
$DIMEXE
 40
0.18
  9
$DIMTP
 40
0.0
  9
$DIMTM
 40
0.0
  9
$DIMTXT
 40
0.18
  9
$DIMCEN
 40
0.09
  9
$DIMTSZ
 40
0.0
  9
$DIMTOL
 70
     0
  9
$DIMLIM
 70
     0
  9
$DIMTIH
 70
     1
  9
$DIMTOH
 70
     1
  9
$DIMSE1
 70
     0
  9
$DIMSE2
 70
     0
  9
$DIMTAD
 70
     0
  9
$DIMZIN
 70
     0
  9
$DIMBLK
  1

  9
$DIMASO
 70
     1
  9
$DIMSHO
 70
     1
  9
$DIMPOST
  1

  9
$DIMAPOST
  1

  9
$DIMALT
 70
     0
  9
$DIMALTD
 70
     2
  9
$DIMALTF
 40
25.4
  9
$DIMLFAC
 40
1.0
  9
$DIMTOFL
 70
     0
  9
$DIMTVP
 40
0.0
  9
$DIMTIX
 70
     0
  9
$DIMSOXD
 70
     0
  9
$DIMSAH
 70
     0
  9
$DIMBLK1
  1

  9
$DIMBLK2
  1

  9
$DIMSTYLE
  2
STANDARD
  9
$DIMCLRD
 70
     0
  9
$DIMCLRE
 70
     0
  9
$DIMCLRT
 70
     0
  9
$DIMTFAC
 40
1.0
  9
$DIMGAP
 40
0.09
  9
$DIMJUST
 70
     0
  9
$DIMSD1
 70
     0
  9
$DIMSD2
 70
     0
  9
$DIMTOLJ
 70
     1
  9
$DIMTZIN
 70
     0
  9
$DIMALTZ
 70
     0
  9
$DIMALTTZ
 70
     0
  9
$DIMUPT
 70
     0
  9
$DIMDEC
 70
     4
  9
$DIMTDEC
 70
     4
  9
$DIMALTU
 70
     2
  9
$DIMALTTD
 70
     2
  9
$DIMTXSTY
  7
STANDARD
  9
$DIMAUNIT
 70
     0
  9
$DIMADEC
 70
     0
  9
$DIMALTRND
 40
0.0
  9
$DIMAZIN
 70
     0
  9
$DIMDSEP
 70
     0
  9
$DIMATFIT
 70
     3
  9
$DIMFRAC
 70
     0
  9
$DIMLDRBLK
  1

  9
$DIMLUNIT
 70
     2
  9
$DIMLWD
 70
     0
  9
$DIMLWE
 70
     0
  9
$DIMTMOVE
 70
     0
  9
$LUNITS
 70
     2
  9
$LUPREC
 70
     4
  9
$SKETCHINC
 40
0.1
  9
$FILLETRAD
 40
0.0
  9
$AUNITS
 70
     0
  9
$AUPREC
 70
     0
  9
$MENU
  1
.
  9
$ELEVATION
 40
0.0
  9
$PELEVATION
 40
0.0
  9
$THICKNESS
 40
0.0
  9
$LIMCHECK
 70
     0
  9
$CHAMFERA
 40
0.0
  9
$CHAMFERB
 40
0.0
  9
$CHAMFERC
 40
0.0
  9
$CHAMFERD
 40
0.0
  9
$SKPOLY
 70
     0
  9
$TDCREATE
 40
2453353.758792454
  9
$TDUCREATE
 40
0.000000000
  9
$TDUPDATE
 40
0.000000000
  9
$TDUUPDATE
 40
2447892.958333334
  9
$TDINDWG
 40
19583144.0627810880
  9
$TDUSRTIMER
 40
0.0000000000
  9
$USRTIMER
 70
     1
  9
$ANGBASE
 50
0.0
  9
$ANGDIR
 70
     0
  9
$PDMODE
 70
     0
  9
$PDSIZE
 40
0.0
  9
$PLINEWID
 40
0.0
  9
$SPLFRAME
 70
     0
  9
$SPLINETYPE
 70
     6
  9
$SPLINESEGS
 70
     8
  9
$HANDSEED
  5
14E9
  9
$SURFTAB1
 70
     6
  9
$SURFTAB2
 70
     6
  9
$SURFTYPE
 70
     6
  9
$SURFU
 70
     6
  9
$SURFV
 70
     6
  9
$UCSBASE
  2

  9
$UCSNAME
  2

  9
$UCSORG
 10
0.0
 20
0.0
 30
0.0
  9
$UCSXDIR
 10
1.0
 20
0.0
 30
0.0
  9
$UCSYDIR
 10
0.0
 20
1.0
 30
0.0
  9
$UCSORTHOREF
  2

  9
$UCSORTHOVIEW
 70
     0
  9
$UCSORGTOP
 10
0.0
 20
0.0
 30
0.0
  9
$UCSORGBOTTOM
 10
0.0
 20
0.0
 30
0.0
  9
$UCSORGLEFT
 10
0.0
 20
0.0
 30
0.0
  9
$UCSORGRIGHT
 10
0.0
 20
0.0
 30
0.0
  9
$UCSORGFRONT
 10
0.0
 20
0.0
 30
0.0
  9
$UCSORGBACK
 10
0.0
 20
0.0
 30
0.0
  9
$PUCSBASE
  2

  9
$PUCSNAME
  2

  9
$PUCSORG
 10
0.0
 20
0.0
 30
0.0
  9
$PUCSXDIR
 10
1.0
 20
0.0
 30
0.0
  9
$PUCSYDIR
 10
0.0
 20
1.0
 30
0.0
  9
$PUCSORTHOREF
  2

  9
$PUCSORTHOVIEW
 70
     0
  9
$PUCSORGTOP
 10
0.0
 20
0.0
 30
0.0
  9
$PUCSORGBOTTOM
 10
0.0
 20
0.0
 30
0.0
  9
$PUCSORGLEFT
 10
0.0
 20
0.0
 30
0.0
  9
$PUCSORGRIGHT
 10
0.0
 20
0.0
 30
0.0
  9
$PUCSORGFRONT
 10
0.0
 20
0.0
 30
0.0
  9
$PUCSORGBACK
 10
0.0
 20
0.0
 30
0.0
  9
$USERI1
 70
     0
  9
$USERI2
 70
     0
  9
$USERI3
 70
     0
  9
$USERI4
 70
     0
  9
$USERI5
 70
     0
  9
$USERR1
 40
0.0
  9
$USERR2
 40
0.0
  9
$USERR3
 40
0.0
  9
$USERR4
 40
0.0
  9
$USERR5
 40
0.0
  9
$WORLDVIEW
 70
     1
  9
$SHADEDGE
 70
     3
  9
$SHADEDIF
 70
    70
  9
$TILEMODE
 70
     1
  9
$MAXACTVP
 70
    64
  9
$PINSBASE
 10
0.0
 20
0.0
 30
0.0
  9
$PLIMCHECK
 70
     0
  9
$PEXTMIN
 10
0.0
 20
0.0
 30
0.0
  9
$PEXTMAX
 10
0.0
 20
0.0
 30
0.0
  9
$PLIMMIN
 10
0.0
 20
0.0
  9
$PLIMMAX
 10
0.0
 20
0.0
  9
$UNITMODE
 70
     0
  9
$VISRETAIN
 70
     1
  9
$PLINEGEN
 70
     0
  9
$PSLTSCALE
 70
     1
  9
$TREEDEPTH
 70
  3020
  9
$CMLSTYLE
  2
Standard
  9
$CMLJUST
 70
     0
  9
$CMLSCALE
 40
1.0
  9
$PROXYGRAPHICS
 70
     0
  9
$MEASUREMENT
 70
     0
  9
$CELWEIGHT
370
     0
  9
$ENDCAPS
280
     0
  9
$JOINSTYLE
280
     0
  9
$LWDISPLAY
290
     0
  9
$INSUNITS
 70
     0
  9
$HYPERLINKBASE
  1

  9
$STYLESHEET
  1

  9
$XEDIT
290
     1
  9
$CEPSNTYPE
380
     0
  9
$PSTYLEMODE
290
     1
  9
$FINGERPRINTGUID
  2

  9
$VERSIONGUID
  2

  9
$EXTNAMES
290
     1
  9
$PSVPSCALE
 40
0.0
  0
ENDSEC
  0
SECTION
  2
CLASSES
  0
CLASS
  1
LWPOLYLINE
  2
AcDbPolyline
  3
AutoCAD 2000
 90
        0
280
     0
281
     1
  0
CLASS
  1
IMAGE
  2
AcDbRasterImage
  3
ISM
 90
      127
280
     0
281
     1
  0
CLASS
  1
OLE2FRAME
  2
AcDbOle2Frame
  3
AutoCAD 2000
 90
        0
280
     0
281
     1
  0
CLASS
  1
HATCH
  2
AcDbHatch
  3
AutoCAD 2000
 90
        0
280
     0
281
     1
  0
CLASS
  1
DICTIONARYVAR
  2
AcDbDictionaryVar
  3
AutoCAD 2000
 90
        0
280
     0
281
     0
  0
CLASS
  1
RASTERVARIABLES
  2
AcDbRasterVariables
  3
ISM
 90
        0
280
     0
281
     0
  0
CLASS
  1
IMAGEDEF
  2
AcDbRasterImageDef
  3
ISM
 90
        0
280
     0
281
     0
  0
CLASS
  1
IMAGEDEF_REACTOR
  2
AcDbRasterImageDefReactor
  3
ISM
 90
        1
280
     0
281
     0
  0
CLASS
  1
IDBUFFER
  2
AcDbIdBuffer
  3
AutoCAD 2000
 90
        0
280
     0
281
     0
  0
CLASS
  1
SPATIAL_FILTER
  2
AcDbSpatialFilter
  3
AutoCAD 2000
 90
        0
280
     0
281
     0
  0
CLASS
  1
XRECORD
  2
AcDbXrecord
  3
AutoCAD 2000
 90
        0
280
     0
281
     0
  0
CLASS
  1
SORTENTSTABLE
  2
AcDbSortentsTable
  3
AutoCAD 2000
 90
        0
280
     0
281
     0
  0
CLASS
  1
LAYER_INDEX
  2
AcDbLayerIndex
  3
AutoCAD 2000
 90
        0
280
     0
281
     0
  0
CLASS
  1
SPATIAL_INDEX
  2
AcDbSpatialIndex
  3
AutoCAD 2000
 90
        0
280
     0
281
     0
  0
CLASS
  1
OBJECT_PTR
  2
CAseDLPNTableRecord
  3
"ASE-LPNTableRecord"
 90
        1
280
     0
281
     0
  0
CLASS
  1
LAYOUT
  2
AcDbLayout
  3
AutoCAD 2000
 90
        0
280
     0
281
     0
  0
CLASS
  1
PLOTSETTINGS
  2
AcDbPlotSettings
  3
AutoCAD 2000
 90
        0
280
     0
281
     0
  0
CLASS
  1
ACDBDICTIONARYWDFLT
  2
AcDbDictionaryWithDefault
  3
AutoCAD 2000
 90
        0
280
     0
281
     0
  0
CLASS
  1
ACDBPLACEHOLDER
  2
AcDbPlaceHolder
  3
AutoCAD 2000
 90
        0
280
     0
281
     0
  0
CLASS
  1
VBA_PROJECT
  2
AcDbVbaProject
  3
acadvba
 90
        0
280
     0
281
     0
  0
CLASS
  1
WIPEOUT
  2
AcDbWipeout
  3
WipeOut|AutoCAD Express Tool|expresstools@autodesk.com
 90
      127
280
     0
281
     1
  0
CLASS
  1
WIPEOUTVARIABLES
  2
AcDbWipeoutVariables
  3
WipeOut|AutoCAD Express Tool|expresstools@autodesk.com
 90
        0
280
     0
281
     0
  0
CLASS
  1
RTEXT
  2
RText
  3
RText|AutoCAD Express Tool|expresstools@autodesk.com
 90
        0
280
     0
281
     1
  0
CLASS
  1
ARCALIGNEDTEXT
  2
AcDbArcAlignedText
  3
ATEXT|AutoCAD Express Tool|expresstools@autodesk.com
 90
        0
280
     0
281
     1
  0
ENDSEC
  0
SECTION
  2
TABLES
  0
TABLE
  2
VPORT
  5
FB2
100
AcDbSymbolTable
 70
     1
  0
VPORT
  5
FD1
100
AcDbSymbolTableRecord
100
AcDbViewportTableRecord
  2
*ACTIVE
 70
     0
 10
0.0
 20
0.0
 11
1.0
 21
1.0
 12
450.328833
 22
266.374849
 13
0.0
 23
0.0
 14
0.5
 24
0.5
 15
0.5
 25
0.5
 16
0.0
 26
0.0
 36
1.0
 17
0.0
 27
0.0
 37
0.0
 40
620.078606
 41
1.701534
 42
50.0
 43
0.0
 44
0.0
 50
0.0
 51
0.0
 71
    16
 72
  1000
 73
     1
 74
     3
 75
     0
 76
     0
 77
     0
 78
     0
281
     0
 65
     0
110
0.0
120
0.0
130
0.0
111
1.0
121
0.0
131
0.0
112
0.0
122
1.0
132
0.0
345
0
346
0
 79
     0
146
0.0
  0
ENDTAB
  0
TABLE
  2
LTYPE
  5
FAF
100
AcDbSymbolTable
 70
     6
  0
LTYPE
  5
FB8
100
AcDbSymbolTableRecord
100
AcDbLinetypeTableRecord
  2
ByBlock
 70
    64
  3

 72
    65
 73
     0
 40
0.0
  0
LTYPE
  5
FB9
100
AcDbSymbolTableRecord
100
AcDbLinetypeTableRecord
  2
ByLayer
 70
    64
  3

 72
    65
 73
     0
 40
0.0
  0
LTYPE
  5
FBA
100
AcDbSymbolTableRecord
100
AcDbLinetypeTableRecord
  2
CONTINUOUS
 70
     0
  3
Solid line
 72
    65
 73
     0
 40
0.0
  0
LTYPE
  5
FBB
100
AcDbSymbolTableRecord
100
AcDbLinetypeTableRecord
  2
CENTER
 70
     0
  3
____ _ ____ _ ____ _ ____ _ ____ _ ____ _ ____
 72
    65
 73
     4
 40
0.6
 49
0.375
 74
     0
 49
-0.075
 74
     0
 49
0.075
 74
     0
 49
-0.075
 74
     0
  0
LTYPE
  5
FBC
100
AcDbSymbolTableRecord
100
AcDbLinetypeTableRecord
  2
ACAD_ISO02W100
 70
     0
  3
ISO Strichlinie __ __ __ __ __ __ __ __ __ __ _
 72
    65
 73
     2
 40
15.0
 49
12.0
 74
     0
 49
-3.0
 74
     0
  0
LTYPE
  5
FBD
100
AcDbSymbolTableRecord
100
AcDbLinetypeTableRecord
  2
DASHED
 70
     0
  3
_ _ _ _ _ _ _ _ _ _ _ _ _ _ _ _ _ _ _ _ _ _ _ _
 72
    65
 73
     2
 40
0.375
 49
0.25
 74
     0
 49
-0.125
 74
     0
  0
ENDTAB
  0
TABLE
  2
LAYER
  5
FAD
100
AcDbSymbolTable
 70
     8
  0
LAYER
  5
FBE
100
AcDbSymbolTableRecord
100
AcDbLayerTableRecord
  2
0
 70
     0
 62
     7
  6
CONTINUOUS
290
     1
370
    -3
390
0
  0
LAYER
  5
FBF
100
AcDbSymbolTableRecord
100
AcDbLayerTableRecord
  2
90000_FRAME
 70
     0
 62
     7
  6
CONTINUOUS
290
     1
370
    -3
390
0
  0
LAYER
  5
FC0
100
AcDbSymbolTableRecord
100
AcDbLayerTableRecord
  2
91000_TIP
 70
     0
 62
     7
  6
CONTINUOUS
290
     1
370
    -3
390
0
  0
LAYER
  5
FC1
100
AcDbSymbolTableRecord
100
AcDbLayerTableRecord
  2
10000_FRONT
 70
     0
 62
     7
  6
CONTINUOUS
290
     1
370
    -3
390
0
  0
LAYER
  5
FC2
100
AcDbSymbolTableRecord
100
AcDbLayerTableRecord
  2
11000_LEFT
 70
     0
 62
     7
  6
CONTINUOUS
290
     1
370
    -3
390
0
  0
LAYER
  5
FC5
100
AcDbSymbolTableRecord
100
AcDbLayerTableRecord
  2
DEFPOINTS
 70
     0
 62
     7
  6
CONTINUOUS
290
     0
370
    -3
390
0
  0
LAYER
  5
FC6
100
AcDbSymbolTableRecord
100
AcDbLayerTableRecord
  2
10100_FRONT_DIM
 70
     0
 62
     7
  6
CONTINUOUS
290
     1
370
    -3
390
0
  0
LAYER
  5
FC7
100
AcDbSymbolTableRecord
100
AcDbLayerTableRecord
  2
11100_LEFT_DIM
 70
     0
 62
     7
  6
CONTINUOUS
290
     1
370
    -3
390
0
  0
ENDTAB
  0
TABLE
  2
STYLE
  5
FAE
100
AcDbSymbolTable
 70
     1
  0
STYLE
  5
FD5
100
AcDbSymbolTableRecord
100
AcDbTextStyleTableRecord
  2
STANDARD
 70
     0
 40
0.0
 41
1.0
 50
0.0
 71
     0
 42
0.2
  3
txt.shx
  4

  0
ENDTAB
  0
TABLE
  2
VIEW
  5
FB0
100
AcDbSymbolTable
 70
     0
  0
ENDTAB
  0
TABLE
  2
UCS
  5
FB1
100
AcDbSymbolTable
 70
     0
  0
ENDTAB
  0
TABLE
  2
APPID
  5
FB3
100
AcDbSymbolTable
 70
     3
  0
APPID
  5
FD2
100
AcDbSymbolTableRecord
100
AcDbRegAppTableRecord
  2
ACAD
 70
     0
  0
APPID
  5
FD3
100
AcDbSymbolTableRecord
100
AcDbRegAppTableRecord
  2
AUSTER_ANSICHT
 70
     0
  0
APPID
  5
FD4
100
AcDbSymbolTableRecord
100
AcDbRegAppTableRecord
  2
AUSTER_FOLIE
 70
     0
  0
ENDTAB
  0
TABLE
  2
DIMSTYLE
  5
FB4
100
AcDbSymbolTable
 70
     3
100
AcDbDimStyleTable
 71
     0
  0
DIMSTYLE
105
FDF
100
AcDbSymbolTableRecord
100
AcDbDimStyleTableRecord
  2
STANDARD
 70
     0
  3

  4

 40
1.0
 41
0.18
 42
0.0625
 43
0.38
 44
0.18
 45
0.0
 46
0.0
 47
0.0
 48
0.0
 71
     0
 72
     0
 73
     1
 74
     1
 75
     0
 76
     0
 77
     0
 78
     0
 79
     0
140
0.18
141
0.09
142
0.0
143
25.4
144
1.0
145
0.0
146
1.0
147
0.09
148
0.0
170
     0
171
     2
172
     0
173
     0
174
     0
175
     0
176
     0
177
     0
178
     0
179
     0
271
     4
272
     4
273
     2
274
     2
275
     0
276
     0
277
     2
278
    46
279
     0
280
     0
281
     0
282
     0
283
     1
284
     0
285
     0
286
     0
288
     0
289
     3
340
FD5
341
0
342
0
343
0
344
0
371
    -2
372
    -2
  0
DIMSTYLE
105
FE0
100
AcDbSymbolTableRecord
100
AcDbDimStyleTableRecord
  2
DSTYLE1
 70
     0
  3

  4

 40
1.0
 41
3.0
 42
0.0
 43
0.38
 44
1.0
 45
0.0
 46
0.0
 47
0.0
 48
0.0
 71
     0
 72
     0
 73
     0
 74
     0
 75
     0
 76
     0
 77
     1
 78
     3
 79
     0
140
2.5
141
0.09
142
0.0
143
0.03937
144
1.0
145
0.0
146
1.0
147
1.0
148
0.0
170
     0
171
     2
172
     0
173
     0
174
     0
175
     0
176
     0
177
     0
178
     0
179
     0
271
     4
272
     4
273
     2
274
     2
275
     0
276
     0
277
     2
278
    46
279
     0
280
     0
281
     0
282
     0
283
     1
284
     0
285
     0
286
     0
288
     0
289
     3
340
FD5
341
0
342
0
343
0
344
0
371
    -2
372
    -2
  0
DIMSTYLE
105
FE1
100
AcDbSymbolTableRecord
100
AcDbDimStyleTableRecord
  2
H035
 70
     0
  3

  4

 40
0.0
 41
3.5
 42
0.0
 43
3.75
 44
2.0
 45
0.0
 46
0.0
 47
0.0
 48
0.0
 71
     0
 72
     0
 73
     0
 74
     0
 75
     0
 76
     0
 77
     1
 78
     8
 79
     0
140
3.5
141
2.5
142
0.0
143
0.039
144
1.0
145
0.0
146
1.0
147
0.5
148
0.0
170
     0
171
     4
172
     1
173
     0
174
     0
175
     0
176
   256
177
     7
178
     7
179
     0
271
     4
272
     4
273
     2
274
     2
275
     0
276
     0
277
     2
278
    46
279
     0
280
     0
281
     0
282
     0
283
     1
284
     0
285
     0
286
     0
288
     0
289
     3
340
FD5
341
0
342
0
343
0
344
0
371
    -2
372
    -2
  0
ENDTAB
  0
TABLE
  2
BLOCK_RECORD
  5
FDA
100
AcDbSymbolTable
 70
     2
  0
BLOCK_RECORD
  5
FD8
100
AcDbSymbolTableRecord
100
AcDbBlockTableRecord
  2
*Model_Space
340
0
  0
BLOCK_RECORD
  5
FD9
100
AcDbSymbolTableRecord
100
AcDbBlockTableRecord
  2
*Paper_Space
340
0
  0
BLOCK_RECORD
  5
FD6
100
AcDbSymbolTableRecord
100
AcDbBlockTableRecord
  2
$MODEL_SPACE
340
0
  0
BLOCK_RECORD
  5
FD7
100
AcDbSymbolTableRecord
100
AcDbBlockTableRecord
  2
$PAPER_SPACE
340
0
  0
ENDTAB
  0
ENDSEC
  0
SECTION
  2
BLOCKS
  0
BLOCK
  5
FDB
100
AcDbEntity
  8
0
390
0
100
AcDbBlockBegin
  2
*Model_Space
 70
     0
 10
0.0
 20
0.0
 30
0.0
  3
*Model_Space
  1

  0
ENDBLK
  5
FDC
100
AcDbEntity
  8
0
390
0
100
AcDbBlockEnd
  0
BLOCK
  5
FDD
100
AcDbEntity
 67
     1
  8
0
390
0
100
AcDbBlockBegin
  2
*Paper_Space
 70
     0
 10
0.0
 20
0.0
 30
0.0
  3
*Paper_Space
  1

  0
ENDBLK
  5
FDE
100
AcDbEntity
 67
     1
  8
0
390
0
100
AcDbBlockEnd
  0
BLOCK
  5
FE2
100
AcDbEntity
  8
0
100
AcDbBlockBegin
  2
$MODEL_SPACE
 70
     0
 10
0.0
 20
0.0
 30
0.0
  3
$MODEL_SPACE
  1

  0
ENDBLK
  5
21
100
AcDbEntity
  8
0
100
AcDbBlockEnd
  0
BLOCK
  5
FE3
100
AcDbEntity
  8
0
100
AcDbBlockBegin
  2
$PAPER_SPACE
 70
     0
 10
0.0
 20
0.0
 30
0.0
  3
$PAPER_SPACE
  1

  0
ENDBLK
  5
76
100
AcDbEntity
  8
0
100
AcDbBlockEnd
  0
ENDSEC
  0
SECTION
  2
ENTITIES
  0
LINE
  5
FE9
100
AcDbEntity
  8
10000_FRONT
370
    50
390
0
  6
CONTINUOUS
 62
     7
100
AcDbLine
 10
256.049999
 20
377.199999
 30
0.0
 11
211.049999
 21
377.199999
 31
0.0
  0
LINE
  5
FEA
100
AcDbEntity
  8
10000_FRONT
370
    50
390
0
  6
CONTINUOUS
 62
     7
100
AcDbLine
 10
219.639999
 20
431.149998
 30
0.0
 11
219.810625
 21
431.153917
 31
0.0
  0
LINE
  5
FEB
100
AcDbEntity
  8
10000_FRONT
370
    50
390
0
  6
CONTINUOUS
 62
     7
100
AcDbLine
 10
219.810625
 20
431.153917
 30
0.0
 11
219.983241
 21
431.165807
 31
0.0
  0
LINE
  5
FEC
100
AcDbEntity
  8
10000_FRONT
370
    50
390
0
  6
CONTINUOUS
 62
     7
100
AcDbLine
 10
219.983241
 20
431.165807
 30
0.0
 11
220.15707
 21
431.185861
 31
0.0
  0
LINE
  5
FED
100
AcDbEntity
  8
10000_FRONT
370
    50
390
0
  6
CONTINUOUS
 62
     7
100
AcDbLine
 10
220.15707
 20
431.185861
 30
0.0
 11
220.331338
 21
431.214277
 31
0.0
  0
LINE
  5
FEE
100
AcDbEntity
  8
10000_FRONT
370
    50
390
0
  6
CONTINUOUS
 62
     7
100
AcDbLine
 10
220.331338
 20
431.214277
 30
0.0
 11
220.505275
 21
431.251217
 31
0.0
  0
LINE
  5
FEF
100
AcDbEntity
  8
10000_FRONT
370
    50
390
0
  6
CONTINUOUS
 62
     7
100
AcDbLine
 10
220.505275
 20
431.251217
 30
0.0
 11
220.678158
 21
431.296628
 31
0.0
  0
LINE
  5
FF0
100
AcDbEntity
  8
10000_FRONT
370
    50
390
0
  6
CONTINUOUS
 62
     7
100
AcDbLine
 10
220.678158
 20
431.296628
 30
0.0
 11
220.849273
 21
431.350378
 31
0.0
  0
LINE
  5
FF1
100
AcDbEntity
  8
10000_FRONT
370
    50
390
0
  6
CONTINUOUS
 62
     7
100
AcDbLine
 10
220.849273
 20
431.350378
 30
0.0
 11
221.017912
 21
431.412331
 31
0.0
  0
LINE
  5
FF2
100
AcDbEntity
  8
10000_FRONT
370
    50
390
0
  6
CONTINUOUS
 62
     7
100
AcDbLine
 10
221.017912
 20
431.412331
 30
0.0
 11
221.183397
 21
431.482354
 31
0.0
  0
LINE
  5
FF3
100
AcDbEntity
  8
10000_FRONT
370
    50
390
0
  6
CONTINUOUS
 62
     7
100
AcDbLine
 10
221.183397
 20
431.482354
 30
0.0
 11
221.345185
 21
431.560176
 31
0.0
  0
LINE
  5
FF4
100
AcDbEntity
  8
10000_FRONT
370
    50
390
0
  6
CONTINUOUS
 62
     7
100
AcDbLine
 10
221.345185
 20
431.560176
 30
0.0
 11
221.502688
 21
431.645387
 31
0.0
  0
LINE
  5
FF5
100
AcDbEntity
  8
10000_FRONT
370
    50
390
0
  6
CONTINUOUS
 62
     7
100
AcDbLine
 10
221.502688
 20
431.645387
 30
0.0
 11
221.655312
 21
431.737574
 31
0.0
  0
LINE
  5
FF6
100
AcDbEntity
  8
10000_FRONT
370
    50
390
0
  6
CONTINUOUS
 62
     7
100
AcDbLine
 10
221.655312
 20
431.737574
 30
0.0
 11
221.802469
 21
431.836318
 31
0.0
  0
LINE
  5
FF7
100
AcDbEntity
  8
10000_FRONT
370
    50
390
0
  6
CONTINUOUS
 62
     7
100
AcDbLine
 10
221.802469
 20
431.836318
 30
0.0
 11
221.943655
 21
431.94107
 31
0.0
  0
LINE
  5
FF8
100
AcDbEntity
  8
10000_FRONT
370
    50
390
0
  6
CONTINUOUS
 62
     7
100
AcDbLine
 10
221.943655
 20
431.94107
 30
0.0
 11
222.07846
 21
432.051148
 31
0.0
  0
LINE
  5
FF9
100
AcDbEntity
  8
10000_FRONT
370
    50
390
0
  6
CONTINUOUS
 62
     7
100
AcDbLine
 10
222.07846
 20
432.051148
 30
0.0
 11
222.206482
 21
432.165858
 31
0.0
  0
LINE
  5
FFA
100
AcDbEntity
  8
10000_FRONT
370
    50
390
0
  6
CONTINUOUS
 62
     7
100
AcDbLine
 10
222.206482
 20
432.165858
 30
0.0
 11
222.327522
 21
432.28472
 31
0.0
  0
LINE
  5
FFB
100
AcDbEntity
  8
10000_FRONT
370
    50
390
0
  6
CONTINUOUS
 62
     7
100
AcDbLine
 10
222.327522
 20
432.28472
 30
0.0
 11
222.443888
 21
432.409952
 31
0.0
  0
LINE
  5
FFC
100
AcDbEntity
  8
10000_FRONT
370
    50
390
0
  6
CONTINUOUS
 62
     7
100
AcDbLine
 10
222.443888
 20
432.409952
 30
0.0
 11
222.555801
 21
432.542009
 31
0.0
  0
LINE
  5
FFD
100
AcDbEntity
  8
10000_FRONT
370
    50
390
0
  6
CONTINUOUS
 62
     7
100
AcDbLine
 10
222.555801
 20
432.542009
 30
0.0
 11
222.662591
 21
432.680488
 31
0.0
  0
LINE
  5
FFE
100
AcDbEntity
  8
10000_FRONT
370
    50
390
0
  6
CONTINUOUS
 62
     7
100
AcDbLine
 10
222.662591
 20
432.680488
 30
0.0
 11
222.763588
 21
432.824984
 31
0.0
  0
LINE
  5
FFF
100
AcDbEntity
  8
10000_FRONT
370
    50
390
0
  6
CONTINUOUS
 62
     7
100
AcDbLine
 10
222.763588
 20
432.824984
 30
0.0
 11
222.858191
 21
432.975043
 31
0.0
  0
LINE
  5
1000
100
AcDbEntity
  8
10000_FRONT
370
    50
390
0
  6
CONTINUOUS
 62
     7
100
AcDbLine
 10
222.858191
 20
432.975043
 30
0.0
 11
222.945978
 21
433.130099
 31
0.0
  0
LINE
  5
1001
100
AcDbEntity
  8
10000_FRONT
370
    50
390
0
  6
CONTINUOUS
 62
     7
100
AcDbLine
 10
222.945978
 20
433.130099
 30
0.0
 11
223.026552
 21
433.289566
 31
0.0
  0
LINE
  5
1002
100
AcDbEntity
  8
10000_FRONT
370
    50
390
0
  6
CONTINUOUS
 62
     7
100
AcDbLine
 10
223.026552
 20
433.289566
 30
0.0
 11
223.099519
 21
433.452856
 31
0.0
  0
LINE
  5
1003
100
AcDbEntity
  8
10000_FRONT
370
    50
390
0
  6
CONTINUOUS
 62
     7
100
AcDbLine
 10
223.099519
 20
433.452856
 30
0.0
 11
223.164542
 21
433.61942
 31
0.0
  0
LINE
  5
1004
100
AcDbEntity
  8
10000_FRONT
370
    50
390
0
  6
CONTINUOUS
 62
     7
100
AcDbLine
 10
223.164542
 20
433.61942
 30
0.0
 11
223.221473
 21
433.788656
 31
0.0
  0
LINE
  5
1005
100
AcDbEntity
  8
10000_FRONT
370
    50
390
0
  6
CONTINUOUS
 62
     7
100
AcDbLine
 10
223.221473
 20
433.788656
 30
0.0
 11
223.270195
 21
433.959865
 31
0.0
  0
LINE
  5
1006
100
AcDbEntity
  8
10000_FRONT
370
    50
390
0
  6
CONTINUOUS
 62
     7
100
AcDbLine
 10
223.270195
 20
433.959865
 30
0.0
 11
223.310584
 21
434.132352
 31
0.0
  0
LINE
  5
1007
100
AcDbEntity
  8
10000_FRONT
370
    50
390
0
  6
CONTINUOUS
 62
     7
100
AcDbLine
 10
223.310584
 20
434.132352
 30
0.0
 11
223.34254
 21
434.305414
 31
0.0
  0
LINE
  5
1008
100
AcDbEntity
  8
10000_FRONT
370
    50
390
0
  6
CONTINUOUS
 62
     7
100
AcDbLine
 10
223.34254
 20
434.305414
 30
0.0
 11
223.366153
 21
434.478316
 31
0.0
  0
LINE
  5
1009
100
AcDbEntity
  8
10000_FRONT
370
    50
390
0
  6
CONTINUOUS
 62
     7
100
AcDbLine
 10
223.366153
 20
434.478316
 30
0.0
 11
223.381621
 21
434.650301
 31
0.0
  0
LINE
  5
100A
100
AcDbEntity
  8
10000_FRONT
370
    50
390
0
  6
CONTINUOUS
 62
     7
100
AcDbLine
 10
223.381621
 20
434.650301
 30
0.0
 11
223.389148
 21
434.82061
 31
0.0
  0
LINE
  5
100B
100
AcDbEntity
  8
10000_FRONT
370
    50
390
0
  6
CONTINUOUS
 62
     7
100
AcDbLine
 10
223.389148
 20
434.82061
 30
0.0
 11
223.388923
 21
434.989258
 31
0.0
  0
LINE
  5
100C
100
AcDbEntity
  8
10000_FRONT
370
    50
390
0
  6
CONTINUOUS
 62
     7
100
AcDbLine
 10
223.388923
 20
434.989258
 30
0.0
 11
223.380945
 21
435.159607
 31
0.0
  0
LINE
  5
100D
100
AcDbEntity
  8
10000_FRONT
370
    50
390
0
  6
CONTINUOUS
 62
     7
100
AcDbLine
 10
223.380945
 20
435.159607
 30
0.0
 11
223.365027
 21
435.331519
 31
0.0
  0
LINE
  5
100E
100
AcDbEntity
  8
10000_FRONT
370
    50
390
0
  6
CONTINUOUS
 62
     7
100
AcDbLine
 10
223.365027
 20
435.331519
 30
0.0
 11
223.340977
 21
435.504245
 31
0.0
  0
LINE
  5
100F
100
AcDbEntity
  8
10000_FRONT
370
    50
390
0
  6
CONTINUOUS
 62
     7
100
AcDbLine
 10
223.340977
 20
435.504245
 30
0.0
 11
223.308606
 21
435.677034
 31
0.0
  0
LINE
  5
1010
100
AcDbEntity
  8
10000_FRONT
370
    50
390
0
  6
CONTINUOUS
 62
     7
100
AcDbLine
 10
223.308606
 20
435.677034
 30
0.0
 11
223.267842
 21
435.849163
 31
0.0
  0
LINE
  5
1011
100
AcDbEntity
  8
10000_FRONT
370
    50
390
0
  6
CONTINUOUS
 62
     7
100
AcDbLine
 10
223.267842
 20
435.849163
 30
0.0
 11
223.218795
 21
436.019942
 31
0.0
  0
LINE
  5
1012
100
AcDbEntity
  8
10000_FRONT
370
    50
390
0
  6
CONTINUOUS
 62
     7
100
AcDbLine
 10
223.218795
 20
436.019942
 30
0.0
 11
223.161587
 21
436.188686
 31
0.0
  0
LINE
  5
1013
100
AcDbEntity
  8
10000_FRONT
370
    50
390
0
  6
CONTINUOUS
 62
     7
100
AcDbLine
 10
223.161587
 20
436.188686
 30
0.0
 11
223.096342
 21
436.35471
 31
0.0
  0
LINE
  5
1014
100
AcDbEntity
  8
10000_FRONT
370
    50
390
0
  6
CONTINUOUS
 62
     7
100
AcDbLine
 10
223.096342
 20
436.35471
 30
0.0
 11
223.023216
 21
436.517424
 31
0.0
  0
LINE
  5
1015
100
AcDbEntity
  8
10000_FRONT
370
    50
390
0
  6
CONTINUOUS
 62
     7
100
AcDbLine
 10
223.023216
 20
436.517424
 30
0.0
 11
222.942548
 21
436.676289
 31
0.0
  0
LINE
  5
1016
100
AcDbEntity
  8
10000_FRONT
370
    50
390
0
  6
CONTINUOUS
 62
     7
100
AcDbLine
 10
222.942548
 20
436.676289
 30
0.0
 11
222.854729
 21
436.830731
 31
0.0
  0
LINE
  5
1017
100
AcDbEntity
  8
10000_FRONT
370
    50
390
0
  6
CONTINUOUS
 62
     7
100
AcDbLine
 10
222.854729
 20
436.830731
 30
0.0
 11
222.760153
 21
436.980175
 31
0.0
  0
LINE
  5
1018
100
AcDbEntity
  8
10000_FRONT
370
    50
390
0
  6
CONTINUOUS
 62
     7
100
AcDbLine
 10
222.760153
 20
436.980175
 30
0.0
 11
222.659239
 21
437.124064
 31
0.0
  0
LINE
  5
1019
100
AcDbEntity
  8
10000_FRONT
370
    50
390
0
  6
CONTINUOUS
 62
     7
100
AcDbLine
 10
222.659239
 20
437.124064
 30
0.0
 11
222.552584
 21
437.26196
 31
0.0
  0
LINE
  5
101A
100
AcDbEntity
  8
10000_FRONT
370
    50
390
0
  6
CONTINUOUS
 62
     7
100
AcDbLine
 10
222.552584
 20
437.26196
 30
0.0
 11
222.440848
 21
437.393464
 31
0.0
  0
LINE
  5
101B
100
AcDbEntity
  8
10000_FRONT
370
    50
390
0
  6
CONTINUOUS
 62
     7
100
AcDbLine
 10
222.440848
 20
437.393464
 30
0.0
 11
222.324692
 21
437.518181
 31
0.0
  0
LINE
  5
101C
100
AcDbEntity
  8
10000_FRONT
370
    50
390
0
  6
CONTINUOUS
 62
     7
100
AcDbLine
 10
222.324692
 20
437.518181
 30
0.0
 11
222.20387
 21
437.636587
 31
0.0
  0
LINE
  5
101D
100
AcDbEntity
  8
10000_FRONT
370
    50
390
0
  6
CONTINUOUS
 62
     7
100
AcDbLine
 10
222.20387
 20
437.636587
 30
0.0
 11
222.076072
 21
437.750891
 31
0.0
  0
LINE
  5
101E
100
AcDbEntity
  8
10000_FRONT
370
    50
390
0
  6
CONTINUOUS
 62
     7
100
AcDbLine
 10
222.076072
 20
437.750891
 30
0.0
 11
221.941499
 21
437.860603
 31
0.0
  0
LINE
  5
101F
100
AcDbEntity
  8
10000_FRONT
370
    50
390
0
  6
CONTINUOUS
 62
     7
100
AcDbLine
 10
221.941499
 20
437.860603
 30
0.0
 11
221.80055
 21
437.965032
 31
0.0
  0
LINE
  5
1020
100
AcDbEntity
  8
10000_FRONT
370
    50
390
0
  6
CONTINUOUS
 62
     7
100
AcDbLine
 10
221.80055
 20
437.965032
 30
0.0
 11
221.653632
 21
438.063494
 31
0.0
  0
LINE
  5
1021
100
AcDbEntity
  8
10000_FRONT
370
    50
390
0
  6
CONTINUOUS
 62
     7
100
AcDbLine
 10
221.653632
 20
438.063494
 30
0.0
 11
221.501241
 21
438.155437
 31
0.0
  0
LINE
  5
1022
100
AcDbEntity
  8
10000_FRONT
370
    50
390
0
  6
CONTINUOUS
 62
     7
100
AcDbLine
 10
221.501241
 20
438.155437
 30
0.0
 11
221.343965
 21
438.240444
 31
0.0
  0
LINE
  5
1023
100
AcDbEntity
  8
10000_FRONT
370
    50
390
0
  6
CONTINUOUS
 62
     7
100
AcDbLine
 10
221.343965
 20
438.240444
 30
0.0
 11
221.182394
 21
438.318096
 31
0.0
  0
LINE
  5
1024
100
AcDbEntity
  8
10000_FRONT
370
    50
390
0
  6
CONTINUOUS
 62
     7
100
AcDbLine
 10
221.182394
 20
438.318096
 30
0.0
 11
221.017109
 21
438.387981
 31
0.0
  0
LINE
  5
1025
100
AcDbEntity
  8
10000_FRONT
370
    50
390
0
  6
CONTINUOUS
 62
     7
100
AcDbLine
 10
221.017109
 20
438.387981
 30
0.0
 11
220.848652
 21
438.449829
 31
0.0
  0
LINE
  5
1026
100
AcDbEntity
  8
10000_FRONT
370
    50
390
0
  6
CONTINUOUS
 62
     7
100
AcDbLine
 10
220.848652
 20
438.449829
 30
0.0
 11
220.677698
 21
438.5035
 31
0.0
  0
LINE
  5
1027
100
AcDbEntity
  8
10000_FRONT
370
    50
390
0
  6
CONTINUOUS
 62
     7
100
AcDbLine
 10
220.677698
 20
438.5035
 30
0.0
 11
220.504955
 21
438.548855
 31
0.0
  0
LINE
  5
1028
100
AcDbEntity
  8
10000_FRONT
370
    50
390
0
  6
CONTINUOUS
 62
     7
100
AcDbLine
 10
220.504955
 20
438.548855
 30
0.0
 11
220.331132
 21
438.585758
 31
0.0
  0
LINE
  5
1029
100
AcDbEntity
  8
10000_FRONT
370
    50
390
0
  6
CONTINUOUS
 62
     7
100
AcDbLine
 10
220.331132
 20
438.585758
 30
0.0
 11
220.156954
 21
438.614151
 31
0.0
  0
LINE
  5
102A
100
AcDbEntity
  8
10000_FRONT
370
    50
390
0
  6
CONTINUOUS
 62
     7
100
AcDbLine
 10
220.156954
 20
438.614151
 30
0.0
 11
219.983188
 21
438.634193
 31
0.0
  0
LINE
  5
102B
100
AcDbEntity
  8
10000_FRONT
370
    50
390
0
  6
CONTINUOUS
 62
     7
100
AcDbLine
 10
219.983188
 20
438.634193
 30
0.0
 11
219.810612
 21
438.64608
 31
0.0
  0
LINE
  5
102C
100
AcDbEntity
  8
10000_FRONT
370
    50
390
0
  6
CONTINUOUS
 62
     7
100
AcDbLine
 10
219.810612
 20
438.64608
 30
0.0
 11
219.639999
 21
438.649998
 31
0.0
  0
ARC
  5
102D
100
AcDbEntity
  8
10000_FRONT
370
    50
390
0
  6
CONTINUOUS
 62
     7
100
AcDbCircle
 10
229.449999
 20
422.099998
 30
0.0
 40
2.7
100
AcDbArc
 50
270.000002
 51
314.950188
  0
ARC
  5
102E
100
AcDbEntity
  8
10000_FRONT
370
    50
390
0
  6
CONTINUOUS
 62
     7
100
AcDbCircle
 10
229.449999
 20
422.099998
 30
0.0
 40
2.7
100
AcDbArc
 50
45.041704
 51
89.999998
  0
ARC
  5
102F
100
AcDbEntity
  8
10000_FRONT
370
    50
390
0
  6
CONTINUOUS
 62
     7
100
AcDbCircle
 10
241.449999
 20
422.099998
 30
0.0
 40
8.0
100
AcDbArc
 50
270.000001
 51
339.739225
  0
ARC
  5
1030
100
AcDbEntity
  8
10000_FRONT
370
    50
390
0
  6
CONTINUOUS
 62
     7
100
AcDbCircle
 10
241.449999
 20
422.099998
 30
0.0
 40
8.0
100
AcDbArc
 50
89.999999
 51
163.230917
  0
ARC
  5
1031
100
AcDbEntity
  8
10000_FRONT
370
    50
390
0
  6
CONTINUOUS
 62
     7
100
AcDbCircle
 10
241.449999
 20
422.099998
 30
0.0
 40
8.0
100
AcDbArc
 50
196.771581
 51
270.000001
  0
ARC
  5
1032
100
AcDbEntity
  8
10000_FRONT
370
    50
390
0
  6
CONTINUOUS
 62
     7
100
AcDbCircle
 10
219.649999
 20
434.899998
 30
0.0
 40
3.25
100
AcDbArc
 50
270.000007
 51
89.999993
  0
ARC
  5
1033
100
AcDbEntity
  8
10000_FRONT
370
    50
390
0
  6
CONTINUOUS
 62
     7
100
AcDbCircle
 10
219.649999
 20
434.899998
 30
0.0
 40
3.45
100
AcDbArc
 50
270.000006
 51
89.999994
  0
ARC
  5
1034
100
AcDbEntity
  8
10000_FRONT
370
    50
390
0
  6
CONTINUOUS
 62
     7
100
AcDbCircle
 10
219.149999
 20
459.799998
 30
0.0
 40
3.75
100
AcDbArc
 50
270.000006
 51
286.946167
  0
LINE
  5
1035
100
AcDbEntity
  8
10000_FRONT
370
    50
390
0
  6
CONTINUOUS
 62
     7
100
AcDbLine
 10
220.243023
 20
456.212828
 30
0.0
 11
220.303188
 21
456.231726
 31
0.0
  0
LINE
  5
1036
100
AcDbEntity
  8
10000_FRONT
370
    50
390
0
  6
CONTINUOUS
 62
     7
100
AcDbLine
 10
220.303188
 20
456.231726
 30
0.0
 11
220.36232
 21
456.251371
 31
0.0
  0
LINE
  5
1037
100
AcDbEntity
  8
10000_FRONT
370
    50
390
0
  6
CONTINUOUS
 62
     7
100
AcDbLine
 10
220.36232
 20
456.251371
 30
0.0
 11
220.420319
 21
456.271715
 31
0.0
  0
LINE
  5
1038
100
AcDbEntity
  8
10000_FRONT
370
    50
390
0
  6
CONTINUOUS
 62
     7
100
AcDbLine
 10
220.420319
 20
456.271715
 30
0.0
 11
220.478816
 21
456.293344
 31
0.0
  0
LINE
  5
1039
100
AcDbEntity
  8
10000_FRONT
370
    50
390
0
  6
CONTINUOUS
 62
     7
100
AcDbLine
 10
220.478816
 20
456.293344
 30
0.0
 11
220.538768
 21
456.316645
 31
0.0
  0
LINE
  5
103A
100
AcDbEntity
  8
10000_FRONT
370
    50
390
0
  6
CONTINUOUS
 62
     7
100
AcDbLine
 10
220.538768
 20
456.316645
 30
0.0
 11
220.597682
 21
456.340708
 31
0.0
  0
LINE
  5
103B
100
AcDbEntity
  8
10000_FRONT
370
    50
390
0
  6
CONTINUOUS
 62
     7
100
AcDbLine
 10
220.597682
 20
456.340708
 30
0.0
 11
220.653019
 21
456.364386
 31
0.0
  0
ARC
  5
103C
100
AcDbEntity
  8
10000_FRONT
370
    50
390
0
  6
CONTINUOUS
 62
     7
100
AcDbCircle
 10
219.149999
 20
459.799998
 30
0.0
 40
3.75
100
AcDbArc
 50
293.628527
 51
298.454389
  0
LINE
  5
103D
100
AcDbEntity
  8
10000_FRONT
370
    50
390
0
  6
CONTINUOUS
 62
     7
100
AcDbLine
 10
220.936713
 20
456.503008
 30
0.0
 11
220.9579
 21
456.514585
 31
0.0
  0
LINE
  5
103E
100
AcDbEntity
  8
10000_FRONT
370
    50
390
0
  6
CONTINUOUS
 62
     7
100
AcDbLine
 10
220.9579
 20
456.514585
 30
0.0
 11
220.980024
 21
456.526865
 31
0.0
  0
LINE
  5
103F
100
AcDbEntity
  8
10000_FRONT
370
    50
390
0
  6
CONTINUOUS
 62
     7
100
AcDbLine
 10
220.980024
 20
456.526865
 30
0.0
 11
221.002902
 21
456.539759
 31
0.0
  0
LINE
  5
1040
100
AcDbEntity
  8
10000_FRONT
370
    50
390
0
  6
CONTINUOUS
 62
     7
100
AcDbLine
 10
221.002902
 20
456.539759
 30
0.0
 11
221.026348
 21
456.55319
 31
0.0
  0
LINE
  5
1041
100
AcDbEntity
  8
10000_FRONT
370
    50
390
0
  6
CONTINUOUS
 62
     7
100
AcDbLine
 10
221.026348
 20
456.55319
 30
0.0
 11
221.050178
 21
456.567072
 31
0.0
  0
LINE
  5
1042
100
AcDbEntity
  8
10000_FRONT
370
    50
390
0
  6
CONTINUOUS
 62
     7
100
AcDbLine
 10
221.050178
 20
456.567072
 30
0.0
 11
221.074216
 21
456.581324
 31
0.0
  0
LINE
  5
1043
100
AcDbEntity
  8
10000_FRONT
370
    50
390
0
  6
CONTINUOUS
 62
     7
100
AcDbLine
 10
221.074216
 20
456.581324
 30
0.0
 11
221.098296
 21
456.595854
 31
0.0
  0
LINE
  5
1044
100
AcDbEntity
  8
10000_FRONT
370
    50
390
0
  6
CONTINUOUS
 62
     7
100
AcDbLine
 10
221.098296
 20
456.595854
 30
0.0
 11
221.122256
 21
456.610552
 31
0.0
  0
LINE
  5
1045
100
AcDbEntity
  8
10000_FRONT
370
    50
390
0
  6
CONTINUOUS
 62
     7
100
AcDbLine
 10
221.122256
 20
456.610552
 30
0.0
 11
221.14593
 21
456.625307
 31
0.0
  0
LINE
  5
1046
100
AcDbEntity
  8
10000_FRONT
370
    50
390
0
  6
CONTINUOUS
 62
     7
100
AcDbLine
 10
221.14593
 20
456.625307
 30
0.0
 11
221.169152
 21
456.640016
 31
0.0
  0
LINE
  5
1047
100
AcDbEntity
  8
10000_FRONT
370
    50
390
0
  6
CONTINUOUS
 62
     7
100
AcDbLine
 10
221.169152
 20
456.640016
 30
0.0
 11
221.191757
 21
456.65457
 31
0.0
  0
ARC
  5
1048
100
AcDbEntity
  8
10000_FRONT
370
    50
390
0
  6
CONTINUOUS
 62
     7
100
AcDbCircle
 10
219.149999
 20
459.799998
 30
0.0
 40
3.75
100
AcDbArc
 50
302.988376
 51
89.999994
  0
ARC
  5
1049
100
AcDbEntity
  8
10000_FRONT
370
    50
390
0
  6
CONTINUOUS
 62
     7
100
AcDbCircle
 10
219.149999
 20
459.799998
 30
0.0
 40
1.5
100
AcDbArc
 50
0.0
 51
62.601839
  0
LINE
  5
104A
100
AcDbEntity
  8
10000_FRONT
370
    50
390
0
  6
CONTINUOUS
 62
     7
100
AcDbLine
 10
219.840256
 20
461.131742
 30
0.0
 11
219.772385
 21
461.164751
 31
0.0
  0
LINE
  5
104B
100
AcDbEntity
  8
10000_FRONT
370
    50
390
0
  6
CONTINUOUS
 62
     7
100
AcDbLine
 10
219.772385
 20
461.164751
 30
0.0
 11
219.702675
 21
461.194464
 31
0.0
  0
LINE
  5
104C
100
AcDbEntity
  8
10000_FRONT
370
    50
390
0
  6
CONTINUOUS
 62
     7
100
AcDbLine
 10
219.702675
 20
461.194464
 30
0.0
 11
219.631309
 21
461.220659
 31
0.0
  0
LINE
  5
104D
100
AcDbEntity
  8
10000_FRONT
370
    50
390
0
  6
CONTINUOUS
 62
     7
100
AcDbLine
 10
219.631309
 20
461.220659
 30
0.0
 11
219.558613
 21
461.243246
 31
0.0
  0
LINE
  5
104E
100
AcDbEntity
  8
10000_FRONT
370
    50
390
0
  6
CONTINUOUS
 62
     7
100
AcDbLine
 10
219.558613
 20
461.243246
 30
0.0
 11
219.484911
 21
461.262125
 31
0.0
  0
LINE
  5
104F
100
AcDbEntity
  8
10000_FRONT
370
    50
390
0
  6
CONTINUOUS
 62
     7
100
AcDbLine
 10
219.484911
 20
461.262125
 30
0.0
 11
219.410528
 21
461.277197
 31
0.0
  0
LINE
  5
1050
100
AcDbEntity
  8
10000_FRONT
370
    50
390
0
  6
CONTINUOUS
 62
     7
100
AcDbLine
 10
219.410528
 20
461.277197
 30
0.0
 11
219.335811
 21
461.28842
 31
0.0
  0
LINE
  5
1051
100
AcDbEntity
  8
10000_FRONT
370
    50
390
0
  6
CONTINUOUS
 62
     7
100
AcDbLine
 10
219.335811
 20
461.28842
 30
0.0
 11
219.261132
 21
461.295851
 31
0.0
  0
LINE
  5
1052
100
AcDbEntity
  8
10000_FRONT
370
    50
390
0
  6
CONTINUOUS
 62
     7
100
AcDbLine
 10
219.261132
 20
461.295851
 30
0.0
 11
219.186863
 21
461.299539
 31
0.0
  0
LINE
  5
1053
100
AcDbEntity
  8
10000_FRONT
370
    50
390
0
  6
CONTINUOUS
 62
     7
100
AcDbLine
 10
219.186863
 20
461.299539
 30
0.0
 11
219.113135
 21
461.299539
 31
0.0
  0
LINE
  5
1054
100
AcDbEntity
  8
10000_FRONT
370
    50
390
0
  6
CONTINUOUS
 62
     7
100
AcDbLine
 10
219.113135
 20
461.299539
 30
0.0
 11
219.038866
 21
461.295851
 31
0.0
  0
LINE
  5
1055
100
AcDbEntity
  8
10000_FRONT
370
    50
390
0
  6
CONTINUOUS
 62
     7
100
AcDbLine
 10
219.038866
 20
461.295851
 30
0.0
 11
218.964186
 21
461.28842
 31
0.0
  0
LINE
  5
1056
100
AcDbEntity
  8
10000_FRONT
370
    50
390
0
  6
CONTINUOUS
 62
     7
100
AcDbLine
 10
218.964186
 20
461.28842
 30
0.0
 11
218.88947
 21
461.277197
 31
0.0
  0
LINE
  5
1057
100
AcDbEntity
  8
10000_FRONT
370
    50
390
0
  6
CONTINUOUS
 62
     7
100
AcDbLine
 10
218.88947
 20
461.277197
 30
0.0
 11
218.815088
 21
461.262125
 31
0.0
  0
LINE
  5
1058
100
AcDbEntity
  8
10000_FRONT
370
    50
390
0
  6
CONTINUOUS
 62
     7
100
AcDbLine
 10
218.815088
 20
461.262125
 30
0.0
 11
218.741385
 21
461.243246
 31
0.0
  0
LINE
  5
1059
100
AcDbEntity
  8
10000_FRONT
370
    50
390
0
  6
CONTINUOUS
 62
     7
100
AcDbLine
 10
218.741385
 20
461.243246
 30
0.0
 11
218.668689
 21
461.220659
 31
0.0
  0
LINE
  5
105A
100
AcDbEntity
  8
10000_FRONT
370
    50
390
0
  6
CONTINUOUS
 62
     7
100
AcDbLine
 10
218.668689
 20
461.220659
 30
0.0
 11
218.597323
 21
461.194464
 31
0.0
  0
LINE
  5
105B
100
AcDbEntity
  8
10000_FRONT
370
    50
390
0
  6
CONTINUOUS
 62
     7
100
AcDbLine
 10
218.597323
 20
461.194464
 30
0.0
 11
218.527612
 21
461.164751
 31
0.0
  0
LINE
  5
105C
100
AcDbEntity
  8
10000_FRONT
370
    50
390
0
  6
CONTINUOUS
 62
     7
100
AcDbLine
 10
218.527612
 20
461.164751
 30
0.0
 11
218.459742
 21
461.131742
 31
0.0
  0
ARC
  5
105D
100
AcDbEntity
  8
10000_FRONT
370
    50
390
0
  6
CONTINUOUS
 62
     7
100
AcDbCircle
 10
219.149999
 20
459.799998
 30
0.0
 40
1.5
100
AcDbArc
 50
117.398168
 51
180.0
  0
ARC
  5
105E
100
AcDbEntity
  8
10000_FRONT
370
    50
390
0
  6
CONTINUOUS
 62
     7
100
AcDbCircle
 10
219.149999
 20
384.199998
 30
0.0
 40
3.75
100
AcDbArc
 50
270.000006
 51
89.999994
  0
ARC
  5
105F
100
AcDbEntity
  8
10000_FRONT
370
    50
390
0
  6
CONTINUOUS
 62
     7
100
AcDbCircle
 10
219.149999
 20
384.199998
 30
0.0
 40
1.5
100
AcDbArc
 50
0.0
 51
62.601866
  0
LINE
  5
1060
100
AcDbEntity
  8
10000_FRONT
370
    50
390
0
  6
CONTINUOUS
 62
     7
100
AcDbLine
 10
219.840256
 20
385.531744
 30
0.0
 11
219.772385
 21
385.564752
 31
0.0
  0
LINE
  5
1061
100
AcDbEntity
  8
10000_FRONT
370
    50
390
0
  6
CONTINUOUS
 62
     7
100
AcDbLine
 10
219.772385
 20
385.564752
 30
0.0
 11
219.702675
 21
385.594465
 31
0.0
  0
LINE
  5
1062
100
AcDbEntity
  8
10000_FRONT
370
    50
390
0
  6
CONTINUOUS
 62
     7
100
AcDbLine
 10
219.702675
 20
385.594465
 30
0.0
 11
219.631309
 21
385.620657
 31
0.0
  0
LINE
  5
1063
100
AcDbEntity
  8
10000_FRONT
370
    50
390
0
  6
CONTINUOUS
 62
     7
100
AcDbLine
 10
219.631309
 20
385.620657
 30
0.0
 11
219.558613
 21
385.643248
 31
0.0
  0
LINE
  5
1064
100
AcDbEntity
  8
10000_FRONT
370
    50
390
0
  6
CONTINUOUS
 62
     7
100
AcDbLine
 10
219.558613
 20
385.643248
 30
0.0
 11
219.484911
 21
385.662126
 31
0.0
  0
LINE
  5
1065
100
AcDbEntity
  8
10000_FRONT
370
    50
390
0
  6
CONTINUOUS
 62
     7
100
AcDbLine
 10
219.484911
 20
385.662126
 30
0.0
 11
219.410528
 21
385.677195
 31
0.0
  0
LINE
  5
1066
100
AcDbEntity
  8
10000_FRONT
370
    50
390
0
  6
CONTINUOUS
 62
     7
100
AcDbLine
 10
219.410528
 20
385.677195
 30
0.0
 11
219.335811
 21
385.688421
 31
0.0
  0
LINE
  5
1067
100
AcDbEntity
  8
10000_FRONT
370
    50
390
0
  6
CONTINUOUS
 62
     7
100
AcDbLine
 10
219.335811
 20
385.688421
 30
0.0
 11
219.261132
 21
385.695852
 31
0.0
  0
LINE
  5
1068
100
AcDbEntity
  8
10000_FRONT
370
    50
390
0
  6
CONTINUOUS
 62
     7
100
AcDbLine
 10
219.261132
 20
385.695852
 30
0.0
 11
219.186863
 21
385.699541
 31
0.0
  0
LINE
  5
1069
100
AcDbEntity
  8
10000_FRONT
370
    50
390
0
  6
CONTINUOUS
 62
     7
100
AcDbLine
 10
219.186863
 20
385.699541
 30
0.0
 11
219.113135
 21
385.699541
 31
0.0
  0
LINE
  5
106A
100
AcDbEntity
  8
10000_FRONT
370
    50
390
0
  6
CONTINUOUS
 62
     7
100
AcDbLine
 10
219.113135
 20
385.699541
 30
0.0
 11
219.038866
 21
385.695852
 31
0.0
  0
LINE
  5
106B
100
AcDbEntity
  8
10000_FRONT
370
    50
390
0
  6
CONTINUOUS
 62
     7
100
AcDbLine
 10
219.038866
 20
385.695852
 30
0.0
 11
218.964186
 21
385.688421
 31
0.0
  0
LINE
  5
106C
100
AcDbEntity
  8
10000_FRONT
370
    50
390
0
  6
CONTINUOUS
 62
     7
100
AcDbLine
 10
218.964186
 20
385.688421
 30
0.0
 11
218.88947
 21
385.677195
 31
0.0
  0
LINE
  5
106D
100
AcDbEntity
  8
10000_FRONT
370
    50
390
0
  6
CONTINUOUS
 62
     7
100
AcDbLine
 10
218.88947
 20
385.677195
 30
0.0
 11
218.815088
 21
385.662126
 31
0.0
  0
LINE
  5
106E
100
AcDbEntity
  8
10000_FRONT
370
    50
390
0
  6
CONTINUOUS
 62
     7
100
AcDbLine
 10
218.815088
 20
385.662126
 30
0.0
 11
218.741385
 21
385.643248
 31
0.0
  0
LINE
  5
106F
100
AcDbEntity
  8
10000_FRONT
370
    50
390
0
  6
CONTINUOUS
 62
     7
100
AcDbLine
 10
218.741385
 20
385.643248
 30
0.0
 11
218.668689
 21
385.620657
 31
0.0
  0
LINE
  5
1070
100
AcDbEntity
  8
10000_FRONT
370
    50
390
0
  6
CONTINUOUS
 62
     7
100
AcDbLine
 10
218.668689
 20
385.620657
 30
0.0
 11
218.597323
 21
385.594465
 31
0.0
  0
LINE
  5
1071
100
AcDbEntity
  8
10000_FRONT
370
    50
390
0
  6
CONTINUOUS
 62
     7
100
AcDbLine
 10
218.597323
 20
385.594465
 30
0.0
 11
218.527612
 21
385.564752
 31
0.0
  0
LINE
  5
1072
100
AcDbEntity
  8
10000_FRONT
370
    50
390
0
  6
CONTINUOUS
 62
     7
100
AcDbLine
 10
218.527612
 20
385.564752
 30
0.0
 11
218.459742
 21
385.531744
 31
0.0
  0
ARC
  5
1073
100
AcDbEntity
  8
10000_FRONT
370
    50
390
0
  6
CONTINUOUS
 62
     7
100
AcDbCircle
 10
219.149999
 20
384.199998
 30
0.0
 40
1.5
100
AcDbArc
 50
117.398141
 51
180.0
  0
ARC
  5
1074
100
AcDbEntity
  8
10000_FRONT
370
    50
390
0
  6
CONTINUOUS
 62
     7
100
AcDbCircle
 10
233.549999
 20
459.799998
 30
0.0
 40
3.75
100
AcDbArc
 50
270.0
 51
286.946172
  0
LINE
  5
1075
100
AcDbEntity
  8
10000_FRONT
370
    50
390
0
  6
CONTINUOUS
 62
     7
100
AcDbLine
 10
234.643023
 20
456.212828
 30
0.0
 11
234.703188
 21
456.231726
 31
0.0
  0
LINE
  5
1076
100
AcDbEntity
  8
10000_FRONT
370
    50
390
0
  6
CONTINUOUS
 62
     7
100
AcDbLine
 10
234.703188
 20
456.231726
 30
0.0
 11
234.762319
 21
456.251371
 31
0.0
  0
LINE
  5
1077
100
AcDbEntity
  8
10000_FRONT
370
    50
390
0
  6
CONTINUOUS
 62
     7
100
AcDbLine
 10
234.762319
 20
456.251371
 30
0.0
 11
234.820319
 21
456.271715
 31
0.0
  0
LINE
  5
1078
100
AcDbEntity
  8
10000_FRONT
370
    50
390
0
  6
CONTINUOUS
 62
     7
100
AcDbLine
 10
234.820319
 20
456.271715
 30
0.0
 11
234.878816
 21
456.293344
 31
0.0
  0
LINE
  5
1079
100
AcDbEntity
  8
10000_FRONT
370
    50
390
0
  6
CONTINUOUS
 62
     7
100
AcDbLine
 10
234.878816
 20
456.293344
 30
0.0
 11
234.938767
 21
456.316645
 31
0.0
  0
LINE
  5
107A
100
AcDbEntity
  8
10000_FRONT
370
    50
390
0
  6
CONTINUOUS
 62
     7
100
AcDbLine
 10
234.938767
 20
456.316645
 30
0.0
 11
234.997682
 21
456.340708
 31
0.0
  0
LINE
  5
107B
100
AcDbEntity
  8
10000_FRONT
370
    50
390
0
  6
CONTINUOUS
 62
     7
100
AcDbLine
 10
234.997682
 20
456.340708
 30
0.0
 11
235.053019
 21
456.364386
 31
0.0
  0
ARC
  5
107C
100
AcDbEntity
  8
10000_FRONT
370
    50
390
0
  6
CONTINUOUS
 62
     7
100
AcDbCircle
 10
233.549999
 20
459.799998
 30
0.0
 40
3.75
100
AcDbArc
 50
293.628532
 51
298.454384
  0
LINE
  5
107D
100
AcDbEntity
  8
10000_FRONT
370
    50
390
0
  6
CONTINUOUS
 62
     7
100
AcDbLine
 10
235.336713
 20
456.503008
 30
0.0
 11
235.3579
 21
456.514585
 31
0.0
  0
LINE
  5
107E
100
AcDbEntity
  8
10000_FRONT
370
    50
390
0
  6
CONTINUOUS
 62
     7
100
AcDbLine
 10
235.3579
 20
456.514585
 30
0.0
 11
235.380024
 21
456.526865
 31
0.0
  0
LINE
  5
107F
100
AcDbEntity
  8
10000_FRONT
370
    50
390
0
  6
CONTINUOUS
 62
     7
100
AcDbLine
 10
235.380024
 20
456.526865
 30
0.0
 11
235.402902
 21
456.539759
 31
0.0
  0
LINE
  5
1080
100
AcDbEntity
  8
10000_FRONT
370
    50
390
0
  6
CONTINUOUS
 62
     7
100
AcDbLine
 10
235.402902
 20
456.539759
 30
0.0
 11
235.426348
 21
456.55319
 31
0.0
  0
LINE
  5
1081
100
AcDbEntity
  8
10000_FRONT
370
    50
390
0
  6
CONTINUOUS
 62
     7
100
AcDbLine
 10
235.426348
 20
456.55319
 30
0.0
 11
235.450179
 21
456.567072
 31
0.0
  0
LINE
  5
1082
100
AcDbEntity
  8
10000_FRONT
370
    50
390
0
  6
CONTINUOUS
 62
     7
100
AcDbLine
 10
235.450179
 20
456.567072
 30
0.0
 11
235.474216
 21
456.581324
 31
0.0
  0
LINE
  5
1083
100
AcDbEntity
  8
10000_FRONT
370
    50
390
0
  6
CONTINUOUS
 62
     7
100
AcDbLine
 10
235.474216
 20
456.581324
 30
0.0
 11
235.498296
 21
456.595854
 31
0.0
  0
LINE
  5
1084
100
AcDbEntity
  8
10000_FRONT
370
    50
390
0
  6
CONTINUOUS
 62
     7
100
AcDbLine
 10
235.498296
 20
456.595854
 30
0.0
 11
235.522256
 21
456.610552
 31
0.0
  0
LINE
  5
1085
100
AcDbEntity
  8
10000_FRONT
370
    50
390
0
  6
CONTINUOUS
 62
     7
100
AcDbLine
 10
235.522256
 20
456.610552
 30
0.0
 11
235.54593
 21
456.625307
 31
0.0
  0
LINE
  5
1086
100
AcDbEntity
  8
10000_FRONT
370
    50
390
0
  6
CONTINUOUS
 62
     7
100
AcDbLine
 10
235.54593
 20
456.625307
 30
0.0
 11
235.569152
 21
456.640016
 31
0.0
  0
LINE
  5
1087
100
AcDbEntity
  8
10000_FRONT
370
    50
390
0
  6
CONTINUOUS
 62
     7
100
AcDbLine
 10
235.569152
 20
456.640016
 30
0.0
 11
235.591757
 21
456.65457
 31
0.0
  0
ARC
  5
1088
100
AcDbEntity
  8
10000_FRONT
370
    50
390
0
  6
CONTINUOUS
 62
     7
100
AcDbCircle
 10
233.549999
 20
459.799998
 30
0.0
 40
3.75
100
AcDbArc
 50
302.98838
 51
90.0
  0
ARC
  5
1089
100
AcDbEntity
  8
10000_FRONT
370
    50
390
0
  6
CONTINUOUS
 62
     7
100
AcDbCircle
 10
233.549999
 20
459.799998
 30
0.0
 40
1.5
100
AcDbArc
 50
0.0
 51
62.601844
  0
LINE
  5
108A
100
AcDbEntity
  8
10000_FRONT
370
    50
390
0
  6
CONTINUOUS
 62
     7
100
AcDbLine
 10
234.240255
 20
461.131742
 30
0.0
 11
234.172386
 21
461.164751
 31
0.0
  0
LINE
  5
108B
100
AcDbEntity
  8
10000_FRONT
370
    50
390
0
  6
CONTINUOUS
 62
     7
100
AcDbLine
 10
234.172386
 20
461.164751
 30
0.0
 11
234.102675
 21
461.194464
 31
0.0
  0
LINE
  5
108C
100
AcDbEntity
  8
10000_FRONT
370
    50
390
0
  6
CONTINUOUS
 62
     7
100
AcDbLine
 10
234.102675
 20
461.194464
 30
0.0
 11
234.031309
 21
461.220659
 31
0.0
  0
LINE
  5
108D
100
AcDbEntity
  8
10000_FRONT
370
    50
390
0
  6
CONTINUOUS
 62
     7
100
AcDbLine
 10
234.031309
 20
461.220659
 30
0.0
 11
233.958613
 21
461.243246
 31
0.0
  0
LINE
  5
108E
100
AcDbEntity
  8
10000_FRONT
370
    50
390
0
  6
CONTINUOUS
 62
     7
100
AcDbLine
 10
233.958613
 20
461.243246
 30
0.0
 11
233.88491
 21
461.262125
 31
0.0
  0
LINE
  5
108F
100
AcDbEntity
  8
10000_FRONT
370
    50
390
0
  6
CONTINUOUS
 62
     7
100
AcDbLine
 10
233.88491
 20
461.262125
 30
0.0
 11
233.810528
 21
461.277197
 31
0.0
  0
LINE
  5
1090
100
AcDbEntity
  8
10000_FRONT
370
    50
390
0
  6
CONTINUOUS
 62
     7
100
AcDbLine
 10
233.810528
 20
461.277197
 30
0.0
 11
233.735811
 21
461.28842
 31
0.0
  0
LINE
  5
1091
100
AcDbEntity
  8
10000_FRONT
370
    50
390
0
  6
CONTINUOUS
 62
     7
100
AcDbLine
 10
233.735811
 20
461.28842
 30
0.0
 11
233.661132
 21
461.295851
 31
0.0
  0
LINE
  5
1092
100
AcDbEntity
  8
10000_FRONT
370
    50
390
0
  6
CONTINUOUS
 62
     7
100
AcDbLine
 10
233.661132
 20
461.295851
 30
0.0
 11
233.586863
 21
461.299539
 31
0.0
  0
LINE
  5
1093
100
AcDbEntity
  8
10000_FRONT
370
    50
390
0
  6
CONTINUOUS
 62
     7
100
AcDbLine
 10
233.586863
 20
461.299539
 30
0.0
 11
233.513135
 21
461.299539
 31
0.0
  0
LINE
  5
1094
100
AcDbEntity
  8
10000_FRONT
370
    50
390
0
  6
CONTINUOUS
 62
     7
100
AcDbLine
 10
233.513135
 20
461.299539
 30
0.0
 11
233.438866
 21
461.295851
 31
0.0
  0
LINE
  5
1095
100
AcDbEntity
  8
10000_FRONT
370
    50
390
0
  6
CONTINUOUS
 62
     7
100
AcDbLine
 10
233.438866
 20
461.295851
 30
0.0
 11
233.364187
 21
461.28842
 31
0.0
  0
LINE
  5
1096
100
AcDbEntity
  8
10000_FRONT
370
    50
390
0
  6
CONTINUOUS
 62
     7
100
AcDbLine
 10
233.364187
 20
461.28842
 30
0.0
 11
233.28947
 21
461.277197
 31
0.0
  0
LINE
  5
1097
100
AcDbEntity
  8
10000_FRONT
370
    50
390
0
  6
CONTINUOUS
 62
     7
100
AcDbLine
 10
233.28947
 20
461.277197
 30
0.0
 11
233.215088
 21
461.262125
 31
0.0
  0
LINE
  5
1098
100
AcDbEntity
  8
10000_FRONT
370
    50
390
0
  6
CONTINUOUS
 62
     7
100
AcDbLine
 10
233.215088
 20
461.262125
 30
0.0
 11
233.141385
 21
461.243246
 31
0.0
  0
LINE
  5
1099
100
AcDbEntity
  8
10000_FRONT
370
    50
390
0
  6
CONTINUOUS
 62
     7
100
AcDbLine
 10
233.141385
 20
461.243246
 30
0.0
 11
233.068688
 21
461.220659
 31
0.0
  0
LINE
  5
109A
100
AcDbEntity
  8
10000_FRONT
370
    50
390
0
  6
CONTINUOUS
 62
     7
100
AcDbLine
 10
233.068688
 20
461.220659
 30
0.0
 11
232.997323
 21
461.194464
 31
0.0
  0
LINE
  5
109B
100
AcDbEntity
  8
10000_FRONT
370
    50
390
0
  6
CONTINUOUS
 62
     7
100
AcDbLine
 10
232.997323
 20
461.194464
 30
0.0
 11
232.927612
 21
461.164751
 31
0.0
  0
LINE
  5
109C
100
AcDbEntity
  8
10000_FRONT
370
    50
390
0
  6
CONTINUOUS
 62
     7
100
AcDbLine
 10
232.927612
 20
461.164751
 30
0.0
 11
232.859743
 21
461.131742
 31
0.0
  0
ARC
  5
109D
100
AcDbEntity
  8
10000_FRONT
370
    50
390
0
  6
CONTINUOUS
 62
     7
100
AcDbCircle
 10
233.549999
 20
459.799998
 30
0.0
 40
1.5
100
AcDbArc
 50
117.398158
 51
180.0
  0
ARC
  5
109E
100
AcDbEntity
  8
10000_FRONT
370
    50
390
0
  6
CONTINUOUS
 62
     7
100
AcDbCircle
 10
233.549999
 20
384.199998
 30
0.0
 40
3.75
100
AcDbArc
 50
270.0
 51
90.0
  0
ARC
  5
109F
100
AcDbEntity
  8
10000_FRONT
370
    50
390
0
  6
CONTINUOUS
 62
     7
100
AcDbCircle
 10
233.549999
 20
384.199998
 30
0.0
 40
1.5
100
AcDbArc
 50
0.0
 51
62.60187
  0
LINE
  5
10A0
100
AcDbEntity
  8
10000_FRONT
370
    50
390
0
  6
CONTINUOUS
 62
     7
100
AcDbLine
 10
234.240255
 20
385.531744
 30
0.0
 11
234.172386
 21
385.564752
 31
0.0
  0
LINE
  5
10A1
100
AcDbEntity
  8
10000_FRONT
370
    50
390
0
  6
CONTINUOUS
 62
     7
100
AcDbLine
 10
234.172386
 20
385.564752
 30
0.0
 11
234.102675
 21
385.594465
 31
0.0
  0
LINE
  5
10A2
100
AcDbEntity
  8
10000_FRONT
370
    50
390
0
  6
CONTINUOUS
 62
     7
100
AcDbLine
 10
234.102675
 20
385.594465
 30
0.0
 11
234.031309
 21
385.620657
 31
0.0
  0
LINE
  5
10A3
100
AcDbEntity
  8
10000_FRONT
370
    50
390
0
  6
CONTINUOUS
 62
     7
100
AcDbLine
 10
234.031309
 20
385.620657
 30
0.0
 11
233.958613
 21
385.643248
 31
0.0
  0
LINE
  5
10A4
100
AcDbEntity
  8
10000_FRONT
370
    50
390
0
  6
CONTINUOUS
 62
     7
100
AcDbLine
 10
233.958613
 20
385.643248
 30
0.0
 11
233.88491
 21
385.662126
 31
0.0
  0
LINE
  5
10A5
100
AcDbEntity
  8
10000_FRONT
370
    50
390
0
  6
CONTINUOUS
 62
     7
100
AcDbLine
 10
233.88491
 20
385.662126
 30
0.0
 11
233.810528
 21
385.677195
 31
0.0
  0
LINE
  5
10A6
100
AcDbEntity
  8
10000_FRONT
370
    50
390
0
  6
CONTINUOUS
 62
     7
100
AcDbLine
 10
233.810528
 20
385.677195
 30
0.0
 11
233.735811
 21
385.688421
 31
0.0
  0
LINE
  5
10A7
100
AcDbEntity
  8
10000_FRONT
370
    50
390
0
  6
CONTINUOUS
 62
     7
100
AcDbLine
 10
233.735811
 20
385.688421
 30
0.0
 11
233.661132
 21
385.695852
 31
0.0
  0
LINE
  5
10A8
100
AcDbEntity
  8
10000_FRONT
370
    50
390
0
  6
CONTINUOUS
 62
     7
100
AcDbLine
 10
233.661132
 20
385.695852
 30
0.0
 11
233.586863
 21
385.699541
 31
0.0
  0
LINE
  5
10A9
100
AcDbEntity
  8
10000_FRONT
370
    50
390
0
  6
CONTINUOUS
 62
     7
100
AcDbLine
 10
233.586863
 20
385.699541
 30
0.0
 11
233.513135
 21
385.699541
 31
0.0
  0
LINE
  5
10AA
100
AcDbEntity
  8
10000_FRONT
370
    50
390
0
  6
CONTINUOUS
 62
     7
100
AcDbLine
 10
233.513135
 20
385.699541
 30
0.0
 11
233.438866
 21
385.695852
 31
0.0
  0
LINE
  5
10AB
100
AcDbEntity
  8
10000_FRONT
370
    50
390
0
  6
CONTINUOUS
 62
     7
100
AcDbLine
 10
233.438866
 20
385.695852
 30
0.0
 11
233.364187
 21
385.688421
 31
0.0
  0
LINE
  5
10AC
100
AcDbEntity
  8
10000_FRONT
370
    50
390
0
  6
CONTINUOUS
 62
     7
100
AcDbLine
 10
233.364187
 20
385.688421
 30
0.0
 11
233.28947
 21
385.677195
 31
0.0
  0
LINE
  5
10AD
100
AcDbEntity
  8
10000_FRONT
370
    50
390
0
  6
CONTINUOUS
 62
     7
100
AcDbLine
 10
233.28947
 20
385.677195
 30
0.0
 11
233.215088
 21
385.662126
 31
0.0
  0
LINE
  5
10AE
100
AcDbEntity
  8
10000_FRONT
370
    50
390
0
  6
CONTINUOUS
 62
     7
100
AcDbLine
 10
233.215088
 20
385.662126
 30
0.0
 11
233.141385
 21
385.643248
 31
0.0
  0
LINE
  5
10AF
100
AcDbEntity
  8
10000_FRONT
370
    50
390
0
  6
CONTINUOUS
 62
     7
100
AcDbLine
 10
233.141385
 20
385.643248
 30
0.0
 11
233.068688
 21
385.620657
 31
0.0
  0
LINE
  5
10B0
100
AcDbEntity
  8
10000_FRONT
370
    50
390
0
  6
CONTINUOUS
 62
     7
100
AcDbLine
 10
233.068688
 20
385.620657
 30
0.0
 11
232.997323
 21
385.594465
 31
0.0
  0
LINE
  5
10B1
100
AcDbEntity
  8
10000_FRONT
370
    50
390
0
  6
CONTINUOUS
 62
     7
100
AcDbLine
 10
232.997323
 20
385.594465
 30
0.0
 11
232.927612
 21
385.564752
 31
0.0
  0
LINE
  5
10B2
100
AcDbEntity
  8
10000_FRONT
370
    50
390
0
  6
CONTINUOUS
 62
     7
100
AcDbLine
 10
232.927612
 20
385.564752
 30
0.0
 11
232.859743
 21
385.531744
 31
0.0
  0
ARC
  5
10B3
100
AcDbEntity
  8
10000_FRONT
370
    50
390
0
  6
CONTINUOUS
 62
     7
100
AcDbCircle
 10
233.549999
 20
384.199998
 30
0.0
 40
1.5
100
AcDbArc
 50
117.398132
 51
180.0
  0
ARC
  5
10B4
100
AcDbEntity
  8
10000_FRONT
370
    50
390
0
  6
CONTINUOUS
 62
     7
100
AcDbCircle
 10
247.949999
 20
459.799998
 30
0.0
 40
3.75
100
AcDbArc
 50
269.999994
 51
286.946169
  0
LINE
  5
10B5
100
AcDbEntity
  8
10000_FRONT
370
    50
390
0
  6
CONTINUOUS
 62
     7
100
AcDbLine
 10
249.043023
 20
456.212828
 30
0.0
 11
249.103188
 21
456.231726
 31
0.0
  0
LINE
  5
10B6
100
AcDbEntity
  8
10000_FRONT
370
    50
390
0
  6
CONTINUOUS
 62
     7
100
AcDbLine
 10
249.103188
 20
456.231726
 30
0.0
 11
249.162319
 21
456.251371
 31
0.0
  0
LINE
  5
10B7
100
AcDbEntity
  8
10000_FRONT
370
    50
390
0
  6
CONTINUOUS
 62
     7
100
AcDbLine
 10
249.162319
 20
456.251371
 30
0.0
 11
249.22032
 21
456.271715
 31
0.0
  0
LINE
  5
10B8
100
AcDbEntity
  8
10000_FRONT
370
    50
390
0
  6
CONTINUOUS
 62
     7
100
AcDbLine
 10
249.22032
 20
456.271715
 30
0.0
 11
249.278816
 21
456.293344
 31
0.0
  0
LINE
  5
10B9
100
AcDbEntity
  8
10000_FRONT
370
    50
390
0
  6
CONTINUOUS
 62
     7
100
AcDbLine
 10
249.278816
 20
456.293344
 30
0.0
 11
249.338767
 21
456.316645
 31
0.0
  0
LINE
  5
10BA
100
AcDbEntity
  8
10000_FRONT
370
    50
390
0
  6
CONTINUOUS
 62
     7
100
AcDbLine
 10
249.338767
 20
456.316645
 30
0.0
 11
249.397682
 21
456.340708
 31
0.0
  0
LINE
  5
10BB
100
AcDbEntity
  8
10000_FRONT
370
    50
390
0
  6
CONTINUOUS
 62
     7
100
AcDbLine
 10
249.397682
 20
456.340708
 30
0.0
 11
249.453019
 21
456.364386
 31
0.0
  0
ARC
  5
10BC
100
AcDbEntity
  8
10000_FRONT
370
    50
390
0
  6
CONTINUOUS
 62
     7
100
AcDbCircle
 10
247.949999
 20
459.799998
 30
0.0
 40
3.75
100
AcDbArc
 50
293.62853
 51
298.454378
  0
LINE
  5
10BD
100
AcDbEntity
  8
10000_FRONT
370
    50
390
0
  6
CONTINUOUS
 62
     7
100
AcDbLine
 10
249.736713
 20
456.503008
 30
0.0
 11
249.7579
 21
456.514585
 31
0.0
  0
LINE
  5
10BE
100
AcDbEntity
  8
10000_FRONT
370
    50
390
0
  6
CONTINUOUS
 62
     7
100
AcDbLine
 10
249.7579
 20
456.514585
 30
0.0
 11
249.780025
 21
456.526865
 31
0.0
  0
LINE
  5
10BF
100
AcDbEntity
  8
10000_FRONT
370
    50
390
0
  6
CONTINUOUS
 62
     7
100
AcDbLine
 10
249.780025
 20
456.526865
 30
0.0
 11
249.802902
 21
456.539759
 31
0.0
  0
LINE
  5
10C0
100
AcDbEntity
  8
10000_FRONT
370
    50
390
0
  6
CONTINUOUS
 62
     7
100
AcDbLine
 10
249.802902
 20
456.539759
 30
0.0
 11
249.826347
 21
456.55319
 31
0.0
  0
LINE
  5
10C1
100
AcDbEntity
  8
10000_FRONT
370
    50
390
0
  6
CONTINUOUS
 62
     7
100
AcDbLine
 10
249.826347
 20
456.55319
 30
0.0
 11
249.850178
 21
456.567072
 31
0.0
  0
LINE
  5
10C2
100
AcDbEntity
  8
10000_FRONT
370
    50
390
0
  6
CONTINUOUS
 62
     7
100
AcDbLine
 10
249.850178
 20
456.567072
 30
0.0
 11
249.874216
 21
456.581324
 31
0.0
  0
LINE
  5
10C3
100
AcDbEntity
  8
10000_FRONT
370
    50
390
0
  6
CONTINUOUS
 62
     7
100
AcDbLine
 10
249.874216
 20
456.581324
 30
0.0
 11
249.898296
 21
456.595854
 31
0.0
  0
LINE
  5
10C4
100
AcDbEntity
  8
10000_FRONT
370
    50
390
0
  6
CONTINUOUS
 62
     7
100
AcDbLine
 10
249.898296
 20
456.595854
 30
0.0
 11
249.922256
 21
456.610552
 31
0.0
  0
LINE
  5
10C5
100
AcDbEntity
  8
10000_FRONT
370
    50
390
0
  6
CONTINUOUS
 62
     7
100
AcDbLine
 10
249.922256
 20
456.610552
 30
0.0
 11
249.94593
 21
456.625307
 31
0.0
  0
LINE
  5
10C6
100
AcDbEntity
  8
10000_FRONT
370
    50
390
0
  6
CONTINUOUS
 62
     7
100
AcDbLine
 10
249.94593
 20
456.625307
 30
0.0
 11
249.969152
 21
456.640016
 31
0.0
  0
LINE
  5
10C7
100
AcDbEntity
  8
10000_FRONT
370
    50
390
0
  6
CONTINUOUS
 62
     7
100
AcDbLine
 10
249.969152
 20
456.640016
 30
0.0
 11
249.991758
 21
456.65457
 31
0.0
  0
ARC
  5
10C8
100
AcDbEntity
  8
10000_FRONT
370
    50
390
0
  6
CONTINUOUS
 62
     7
100
AcDbCircle
 10
247.949999
 20
459.799998
 30
0.0
 40
3.75
100
AcDbArc
 50
302.98839
 51
90.000006
  0
ARC
  5
10C9
100
AcDbEntity
  8
10000_FRONT
370
    50
390
0
  6
CONTINUOUS
 62
     7
100
AcDbCircle
 10
247.949999
 20
459.799998
 30
0.0
 40
1.5
100
AcDbArc
 50
0.0
 51
62.601832
  0
LINE
  5
10CA
100
AcDbEntity
  8
10000_FRONT
370
    50
390
0
  6
CONTINUOUS
 62
     7
100
AcDbLine
 10
248.640256
 20
461.131742
 30
0.0
 11
248.572386
 21
461.164751
 31
0.0
  0
LINE
  5
10CB
100
AcDbEntity
  8
10000_FRONT
370
    50
390
0
  6
CONTINUOUS
 62
     7
100
AcDbLine
 10
248.572386
 20
461.164751
 30
0.0
 11
248.502675
 21
461.194464
 31
0.0
  0
LINE
  5
10CC
100
AcDbEntity
  8
10000_FRONT
370
    50
390
0
  6
CONTINUOUS
 62
     7
100
AcDbLine
 10
248.502675
 20
461.194464
 30
0.0
 11
248.431309
 21
461.220659
 31
0.0
  0
LINE
  5
10CD
100
AcDbEntity
  8
10000_FRONT
370
    50
390
0
  6
CONTINUOUS
 62
     7
100
AcDbLine
 10
248.431309
 20
461.220659
 30
0.0
 11
248.358613
 21
461.243246
 31
0.0
  0
LINE
  5
10CE
100
AcDbEntity
  8
10000_FRONT
370
    50
390
0
  6
CONTINUOUS
 62
     7
100
AcDbLine
 10
248.358613
 20
461.243246
 30
0.0
 11
248.28491
 21
461.262125
 31
0.0
  0
LINE
  5
10CF
100
AcDbEntity
  8
10000_FRONT
370
    50
390
0
  6
CONTINUOUS
 62
     7
100
AcDbLine
 10
248.28491
 20
461.262125
 30
0.0
 11
248.210528
 21
461.277197
 31
0.0
  0
LINE
  5
10D0
100
AcDbEntity
  8
10000_FRONT
370
    50
390
0
  6
CONTINUOUS
 62
     7
100
AcDbLine
 10
248.210528
 20
461.277197
 30
0.0
 11
248.135812
 21
461.28842
 31
0.0
  0
LINE
  5
10D1
100
AcDbEntity
  8
10000_FRONT
370
    50
390
0
  6
CONTINUOUS
 62
     7
100
AcDbLine
 10
248.135812
 20
461.28842
 30
0.0
 11
248.061132
 21
461.295851
 31
0.0
  0
LINE
  5
10D2
100
AcDbEntity
  8
10000_FRONT
370
    50
390
0
  6
CONTINUOUS
 62
     7
100
AcDbLine
 10
248.061132
 20
461.295851
 30
0.0
 11
247.986863
 21
461.299539
 31
0.0
  0
LINE
  5
10D3
100
AcDbEntity
  8
10000_FRONT
370
    50
390
0
  6
CONTINUOUS
 62
     7
100
AcDbLine
 10
247.986863
 20
461.299539
 30
0.0
 11
247.913135
 21
461.299539
 31
0.0
  0
LINE
  5
10D4
100
AcDbEntity
  8
10000_FRONT
370
    50
390
0
  6
CONTINUOUS
 62
     7
100
AcDbLine
 10
247.913135
 20
461.299539
 30
0.0
 11
247.838866
 21
461.295851
 31
0.0
  0
LINE
  5
10D5
100
AcDbEntity
  8
10000_FRONT
370
    50
390
0
  6
CONTINUOUS
 62
     7
100
AcDbLine
 10
247.838866
 20
461.295851
 30
0.0
 11
247.764187
 21
461.28842
 31
0.0
  0
LINE
  5
10D6
100
AcDbEntity
  8
10000_FRONT
370
    50
390
0
  6
CONTINUOUS
 62
     7
100
AcDbLine
 10
247.764187
 20
461.28842
 30
0.0
 11
247.68947
 21
461.277197
 31
0.0
  0
LINE
  5
10D7
100
AcDbEntity
  8
10000_FRONT
370
    50
390
0
  6
CONTINUOUS
 62
     7
100
AcDbLine
 10
247.68947
 20
461.277197
 30
0.0
 11
247.615087
 21
461.262125
 31
0.0
  0
LINE
  5
10D8
100
AcDbEntity
  8
10000_FRONT
370
    50
390
0
  6
CONTINUOUS
 62
     7
100
AcDbLine
 10
247.615087
 20
461.262125
 30
0.0
 11
247.541385
 21
461.243246
 31
0.0
  0
LINE
  5
10D9
100
AcDbEntity
  8
10000_FRONT
370
    50
390
0
  6
CONTINUOUS
 62
     7
100
AcDbLine
 10
247.541385
 20
461.243246
 30
0.0
 11
247.468689
 21
461.220659
 31
0.0
  0
LINE
  5
10DA
100
AcDbEntity
  8
10000_FRONT
370
    50
390
0
  6
CONTINUOUS
 62
     7
100
AcDbLine
 10
247.468689
 20
461.220659
 30
0.0
 11
247.397323
 21
461.194464
 31
0.0
  0
LINE
  5
10DB
100
AcDbEntity
  8
10000_FRONT
370
    50
390
0
  6
CONTINUOUS
 62
     7
100
AcDbLine
 10
247.397323
 20
461.194464
 30
0.0
 11
247.327613
 21
461.164751
 31
0.0
  0
LINE
  5
10DC
100
AcDbEntity
  8
10000_FRONT
370
    50
390
0
  6
CONTINUOUS
 62
     7
100
AcDbLine
 10
247.327613
 20
461.164751
 30
0.0
 11
247.259742
 21
461.131742
 31
0.0
  0
ARC
  5
10DD
100
AcDbEntity
  8
10000_FRONT
370
    50
390
0
  6
CONTINUOUS
 62
     7
100
AcDbCircle
 10
247.949999
 20
459.799998
 30
0.0
 40
1.5
100
AcDbArc
 50
117.398161
 51
180.0
  0
ARC
  5
10DE
100
AcDbEntity
  8
10000_FRONT
370
    50
390
0
  6
CONTINUOUS
 62
     7
100
AcDbCircle
 10
247.949999
 20
384.199998
 30
0.0
 40
3.75
100
AcDbArc
 50
269.999994
 51
90.000006
  0
ARC
  5
10DF
100
AcDbEntity
  8
10000_FRONT
370
    50
390
0
  6
CONTINUOUS
 62
     7
100
AcDbCircle
 10
247.949999
 20
384.199998
 30
0.0
 40
1.5
100
AcDbArc
 50
0.0
 51
62.601859
  0
LINE
  5
10E0
100
AcDbEntity
  8
10000_FRONT
370
    50
390
0
  6
CONTINUOUS
 62
     7
100
AcDbLine
 10
248.640256
 20
385.531744
 30
0.0
 11
248.572386
 21
385.564752
 31
0.0
  0
LINE
  5
10E1
100
AcDbEntity
  8
10000_FRONT
370
    50
390
0
  6
CONTINUOUS
 62
     7
100
AcDbLine
 10
248.572386
 20
385.564752
 30
0.0
 11
248.502675
 21
385.594465
 31
0.0
  0
LINE
  5
10E2
100
AcDbEntity
  8
10000_FRONT
370
    50
390
0
  6
CONTINUOUS
 62
     7
100
AcDbLine
 10
248.502675
 20
385.594465
 30
0.0
 11
248.431309
 21
385.620657
 31
0.0
  0
LINE
  5
10E3
100
AcDbEntity
  8
10000_FRONT
370
    50
390
0
  6
CONTINUOUS
 62
     7
100
AcDbLine
 10
248.431309
 20
385.620657
 30
0.0
 11
248.358613
 21
385.643248
 31
0.0
  0
LINE
  5
10E4
100
AcDbEntity
  8
10000_FRONT
370
    50
390
0
  6
CONTINUOUS
 62
     7
100
AcDbLine
 10
248.358613
 20
385.643248
 30
0.0
 11
248.28491
 21
385.662126
 31
0.0
  0
LINE
  5
10E5
100
AcDbEntity
  8
10000_FRONT
370
    50
390
0
  6
CONTINUOUS
 62
     7
100
AcDbLine
 10
248.28491
 20
385.662126
 30
0.0
 11
248.210528
 21
385.677195
 31
0.0
  0
LINE
  5
10E6
100
AcDbEntity
  8
10000_FRONT
370
    50
390
0
  6
CONTINUOUS
 62
     7
100
AcDbLine
 10
248.210528
 20
385.677195
 30
0.0
 11
248.135812
 21
385.688421
 31
0.0
  0
LINE
  5
10E7
100
AcDbEntity
  8
10000_FRONT
370
    50
390
0
  6
CONTINUOUS
 62
     7
100
AcDbLine
 10
248.135812
 20
385.688421
 30
0.0
 11
248.061132
 21
385.695852
 31
0.0
  0
LINE
  5
10E8
100
AcDbEntity
  8
10000_FRONT
370
    50
390
0
  6
CONTINUOUS
 62
     7
100
AcDbLine
 10
248.061132
 20
385.695852
 30
0.0
 11
247.986863
 21
385.699541
 31
0.0
  0
LINE
  5
10E9
100
AcDbEntity
  8
10000_FRONT
370
    50
390
0
  6
CONTINUOUS
 62
     7
100
AcDbLine
 10
247.986863
 20
385.699541
 30
0.0
 11
247.913135
 21
385.699541
 31
0.0
  0
LINE
  5
10EA
100
AcDbEntity
  8
10000_FRONT
370
    50
390
0
  6
CONTINUOUS
 62
     7
100
AcDbLine
 10
247.913135
 20
385.699541
 30
0.0
 11
247.838866
 21
385.695852
 31
0.0
  0
LINE
  5
10EB
100
AcDbEntity
  8
10000_FRONT
370
    50
390
0
  6
CONTINUOUS
 62
     7
100
AcDbLine
 10
247.838866
 20
385.695852
 30
0.0
 11
247.764187
 21
385.688421
 31
0.0
  0
LINE
  5
10EC
100
AcDbEntity
  8
10000_FRONT
370
    50
390
0
  6
CONTINUOUS
 62
     7
100
AcDbLine
 10
247.764187
 20
385.688421
 30
0.0
 11
247.68947
 21
385.677195
 31
0.0
  0
LINE
  5
10ED
100
AcDbEntity
  8
10000_FRONT
370
    50
390
0
  6
CONTINUOUS
 62
     7
100
AcDbLine
 10
247.68947
 20
385.677195
 30
0.0
 11
247.615087
 21
385.662126
 31
0.0
  0
LINE
  5
10EE
100
AcDbEntity
  8
10000_FRONT
370
    50
390
0
  6
CONTINUOUS
 62
     7
100
AcDbLine
 10
247.615087
 20
385.662126
 30
0.0
 11
247.541385
 21
385.643248
 31
0.0
  0
LINE
  5
10EF
100
AcDbEntity
  8
10000_FRONT
370
    50
390
0
  6
CONTINUOUS
 62
     7
100
AcDbLine
 10
247.541385
 20
385.643248
 30
0.0
 11
247.468689
 21
385.620657
 31
0.0
  0
LINE
  5
10F0
100
AcDbEntity
  8
10000_FRONT
370
    50
390
0
  6
CONTINUOUS
 62
     7
100
AcDbLine
 10
247.468689
 20
385.620657
 30
0.0
 11
247.397323
 21
385.594465
 31
0.0
  0
LINE
  5
10F1
100
AcDbEntity
  8
10000_FRONT
370
    50
390
0
  6
CONTINUOUS
 62
     7
100
AcDbLine
 10
247.397323
 20
385.594465
 30
0.0
 11
247.327613
 21
385.564752
 31
0.0
  0
LINE
  5
10F2
100
AcDbEntity
  8
10000_FRONT
370
    50
390
0
  6
CONTINUOUS
 62
     7
100
AcDbLine
 10
247.327613
 20
385.564752
 30
0.0
 11
247.259742
 21
385.531744
 31
0.0
  0
ARC
  5
10F3
100
AcDbEntity
  8
10000_FRONT
370
    50
390
0
  6
CONTINUOUS
 62
     7
100
AcDbCircle
 10
247.949999
 20
384.199998
 30
0.0
 40
1.5
100
AcDbArc
 50
117.398134
 51
180.0
  0
LINE
  5
10F4
100
AcDbEntity
  8
10000_FRONT
370
    50
390
0
  6
CONTINUOUS
 62
     7
100
AcDbLine
 10
247.259742
 20
385.531744
 30
0.0
 11
247.259742
 21
387.885923
 31
0.0
  0
LINE
  5
10F5
100
AcDbEntity
  8
10000_FRONT
370
    50
390
0
  6
CONTINUOUS
 62
     7
100
AcDbLine
 10
248.640256
 20
385.531744
 30
0.0
 11
248.640256
 21
387.885923
 31
0.0
  0
LINE
  5
10F6
100
AcDbEntity
  8
10000_FRONT
370
    50
390
0
  6
CONTINUOUS
 62
     7
100
AcDbLine
 10
244.249999
 20
383.58967
 30
0.0
 11
244.249999
 21
384.810327
 31
0.0
  0
LINE
  5
10F7
100
AcDbEntity
  8
10000_FRONT
370
    50
390
0
  6
CONTINUOUS
 62
     7
100
AcDbLine
 10
247.259742
 20
380.514074
 30
0.0
 11
247.259742
 21
382.868254
 31
0.0
  0
ARC
  5
10F8
100
AcDbEntity
  8
10000_FRONT
370
    50
390
0
  6
CONTINUOUS
 62
     7
100
AcDbCircle
 10
247.949999
 20
384.199998
 30
0.0
 40
1.5
100
AcDbArc
 50
180.0
 51
242.601839
  0
ARC
  5
10F9
100
AcDbEntity
  8
10000_FRONT
370
    50
390
0
  6
CONTINUOUS
 62
     7
100
AcDbCircle
 10
247.949999
 20
384.199998
 30
0.0
 40
1.5
100
AcDbArc
 50
297.398168
 51
0.0
  0
LINE
  5
10FA
100
AcDbEntity
  8
10000_FRONT
370
    50
390
0
  6
CONTINUOUS
 62
     7
100
AcDbLine
 10
247.259742
 20
382.868254
 30
0.0
 11
247.327613
 21
382.835245
 31
0.0
  0
LINE
  5
10FB
100
AcDbEntity
  8
10000_FRONT
370
    50
390
0
  6
CONTINUOUS
 62
     7
100
AcDbLine
 10
247.327613
 20
382.835245
 30
0.0
 11
247.397323
 21
382.805532
 31
0.0
  0
LINE
  5
10FC
100
AcDbEntity
  8
10000_FRONT
370
    50
390
0
  6
CONTINUOUS
 62
     7
100
AcDbLine
 10
247.397323
 20
382.805532
 30
0.0
 11
247.468689
 21
382.779337
 31
0.0
  0
LINE
  5
10FD
100
AcDbEntity
  8
10000_FRONT
370
    50
390
0
  6
CONTINUOUS
 62
     7
100
AcDbLine
 10
247.468689
 20
382.779337
 30
0.0
 11
247.541385
 21
382.75675
 31
0.0
  0
LINE
  5
10FE
100
AcDbEntity
  8
10000_FRONT
370
    50
390
0
  6
CONTINUOUS
 62
     7
100
AcDbLine
 10
247.541385
 20
382.75675
 30
0.0
 11
247.615087
 21
382.737871
 31
0.0
  0
LINE
  5
10FF
100
AcDbEntity
  8
10000_FRONT
370
    50
390
0
  6
CONTINUOUS
 62
     7
100
AcDbLine
 10
247.615087
 20
382.737871
 30
0.0
 11
247.68947
 21
382.722799
 31
0.0
  0
LINE
  5
1100
100
AcDbEntity
  8
10000_FRONT
370
    50
390
0
  6
CONTINUOUS
 62
     7
100
AcDbLine
 10
247.68947
 20
382.722799
 30
0.0
 11
247.764187
 21
382.711576
 31
0.0
  0
LINE
  5
1101
100
AcDbEntity
  8
10000_FRONT
370
    50
390
0
  6
CONTINUOUS
 62
     7
100
AcDbLine
 10
247.764187
 20
382.711576
 30
0.0
 11
247.838866
 21
382.704145
 31
0.0
  0
LINE
  5
1102
100
AcDbEntity
  8
10000_FRONT
370
    50
390
0
  6
CONTINUOUS
 62
     7
100
AcDbLine
 10
247.838866
 20
382.704145
 30
0.0
 11
247.913135
 21
382.700457
 31
0.0
  0
LINE
  5
1103
100
AcDbEntity
  8
10000_FRONT
370
    50
390
0
  6
CONTINUOUS
 62
     7
100
AcDbLine
 10
247.913135
 20
382.700457
 30
0.0
 11
247.986863
 21
382.700457
 31
0.0
  0
LINE
  5
1104
100
AcDbEntity
  8
10000_FRONT
370
    50
390
0
  6
CONTINUOUS
 62
     7
100
AcDbLine
 10
247.986863
 20
382.700457
 30
0.0
 11
248.061132
 21
382.704145
 31
0.0
  0
LINE
  5
1105
100
AcDbEntity
  8
10000_FRONT
370
    50
390
0
  6
CONTINUOUS
 62
     7
100
AcDbLine
 10
248.061132
 20
382.704145
 30
0.0
 11
248.135812
 21
382.711576
 31
0.0
  0
LINE
  5
1106
100
AcDbEntity
  8
10000_FRONT
370
    50
390
0
  6
CONTINUOUS
 62
     7
100
AcDbLine
 10
248.135812
 20
382.711576
 30
0.0
 11
248.210528
 21
382.722799
 31
0.0
  0
LINE
  5
1107
100
AcDbEntity
  8
10000_FRONT
370
    50
390
0
  6
CONTINUOUS
 62
     7
100
AcDbLine
 10
248.210528
 20
382.722799
 30
0.0
 11
248.28491
 21
382.737871
 31
0.0
  0
LINE
  5
1108
100
AcDbEntity
  8
10000_FRONT
370
    50
390
0
  6
CONTINUOUS
 62
     7
100
AcDbLine
 10
248.28491
 20
382.737871
 30
0.0
 11
248.358613
 21
382.75675
 31
0.0
  0
LINE
  5
1109
100
AcDbEntity
  8
10000_FRONT
370
    50
390
0
  6
CONTINUOUS
 62
     7
100
AcDbLine
 10
248.358613
 20
382.75675
 30
0.0
 11
248.431309
 21
382.779337
 31
0.0
  0
LINE
  5
110A
100
AcDbEntity
  8
10000_FRONT
370
    50
390
0
  6
CONTINUOUS
 62
     7
100
AcDbLine
 10
248.431309
 20
382.779337
 30
0.0
 11
248.502675
 21
382.805532
 31
0.0
  0
LINE
  5
110B
100
AcDbEntity
  8
10000_FRONT
370
    50
390
0
  6
CONTINUOUS
 62
     7
100
AcDbLine
 10
248.502675
 20
382.805532
 30
0.0
 11
248.572386
 21
382.835245
 31
0.0
  0
LINE
  5
110C
100
AcDbEntity
  8
10000_FRONT
370
    50
390
0
  6
CONTINUOUS
 62
     7
100
AcDbLine
 10
248.572386
 20
382.835245
 30
0.0
 11
248.640256
 21
382.868254
 31
0.0
  0
LINE
  5
110D
100
AcDbEntity
  8
10000_FRONT
370
    50
390
0
  6
CONTINUOUS
 62
     7
100
AcDbLine
 10
251.649999
 20
383.58967
 30
0.0
 11
251.649999
 21
384.810327
 31
0.0
  0
LINE
  5
110E
100
AcDbEntity
  8
10000_FRONT
370
    50
390
0
  6
CONTINUOUS
 62
     7
100
AcDbLine
 10
248.640256
 20
380.514074
 30
0.0
 11
248.640256
 21
382.868254
 31
0.0
  0
ARC
  5
110F
100
AcDbEntity
  8
10000_FRONT
370
    50
390
0
  6
CONTINUOUS
 62
     7
100
AcDbCircle
 10
247.949999
 20
384.199998
 30
0.0
 40
3.75
100
AcDbArc
 50
90.000006
 51
269.999994
  0
LINE
  5
1110
100
AcDbEntity
  8
10000_FRONT
370
    50
390
0
  6
CONTINUOUS
 62
     7
100
AcDbLine
 10
247.259742
 20
461.131742
 30
0.0
 11
247.259742
 21
463.485922
 31
0.0
  0
LINE
  5
1111
100
AcDbEntity
  8
10000_FRONT
370
    50
390
0
  6
CONTINUOUS
 62
     7
100
AcDbLine
 10
248.640256
 20
461.131742
 30
0.0
 11
248.640256
 21
463.485922
 31
0.0
  0
LINE
  5
1112
100
AcDbEntity
  8
10000_FRONT
370
    50
390
0
  6
CONTINUOUS
 62
     7
100
AcDbLine
 10
244.249999
 20
459.189669
 30
0.0
 11
244.249999
 21
460.410326
 31
0.0
  0
LINE
  5
1113
100
AcDbEntity
  8
10000_FRONT
370
    50
390
0
  6
CONTINUOUS
 62
     7
100
AcDbLine
 10
247.259742
 20
456.114073
 30
0.0
 11
247.259742
 21
458.468252
 31
0.0
  0
ARC
  5
1114
100
AcDbEntity
  8
10000_FRONT
370
    50
390
0
  6
CONTINUOUS
 62
     7
100
AcDbCircle
 10
247.949999
 20
459.799998
 30
0.0
 40
1.5
100
AcDbArc
 50
180.0
 51
242.601866
  0
ARC
  5
1115
100
AcDbEntity
  8
10000_FRONT
370
    50
390
0
  6
CONTINUOUS
 62
     7
100
AcDbCircle
 10
247.949999
 20
459.799998
 30
0.0
 40
1.5
100
AcDbArc
 50
297.398141
 51
0.0
  0
LINE
  5
1116
100
AcDbEntity
  8
10000_FRONT
370
    50
390
0
  6
CONTINUOUS
 62
     7
100
AcDbLine
 10
247.259742
 20
458.468252
 30
0.0
 11
247.327613
 21
458.435244
 31
0.0
  0
LINE
  5
1117
100
AcDbEntity
  8
10000_FRONT
370
    50
390
0
  6
CONTINUOUS
 62
     7
100
AcDbLine
 10
247.327613
 20
458.435244
 30
0.0
 11
247.397323
 21
458.405531
 31
0.0
  0
LINE
  5
1118
100
AcDbEntity
  8
10000_FRONT
370
    50
390
0
  6
CONTINUOUS
 62
     7
100
AcDbLine
 10
247.397323
 20
458.405531
 30
0.0
 11
247.468689
 21
458.379339
 31
0.0
  0
LINE
  5
1119
100
AcDbEntity
  8
10000_FRONT
370
    50
390
0
  6
CONTINUOUS
 62
     7
100
AcDbLine
 10
247.468689
 20
458.379339
 30
0.0
 11
247.541385
 21
458.356748
 31
0.0
  0
LINE
  5
111A
100
AcDbEntity
  8
10000_FRONT
370
    50
390
0
  6
CONTINUOUS
 62
     7
100
AcDbLine
 10
247.541385
 20
458.356748
 30
0.0
 11
247.615087
 21
458.33787
 31
0.0
  0
LINE
  5
111B
100
AcDbEntity
  8
10000_FRONT
370
    50
390
0
  6
CONTINUOUS
 62
     7
100
AcDbLine
 10
247.615087
 20
458.33787
 30
0.0
 11
247.68947
 21
458.322801
 31
0.0
  0
LINE
  5
111C
100
AcDbEntity
  8
10000_FRONT
370
    50
390
0
  6
CONTINUOUS
 62
     7
100
AcDbLine
 10
247.68947
 20
458.322801
 30
0.0
 11
247.764187
 21
458.311575
 31
0.0
  0
LINE
  5
111D
100
AcDbEntity
  8
10000_FRONT
370
    50
390
0
  6
CONTINUOUS
 62
     7
100
AcDbLine
 10
247.764187
 20
458.311575
 30
0.0
 11
247.838866
 21
458.304144
 31
0.0
  0
LINE
  5
111E
100
AcDbEntity
  8
10000_FRONT
370
    50
390
0
  6
CONTINUOUS
 62
     7
100
AcDbLine
 10
247.838866
 20
458.304144
 30
0.0
 11
247.913135
 21
458.300455
 31
0.0
  0
LINE
  5
111F
100
AcDbEntity
  8
10000_FRONT
370
    50
390
0
  6
CONTINUOUS
 62
     7
100
AcDbLine
 10
247.913135
 20
458.300455
 30
0.0
 11
247.986863
 21
458.300455
 31
0.0
  0
LINE
  5
1120
100
AcDbEntity
  8
10000_FRONT
370
    50
390
0
  6
CONTINUOUS
 62
     7
100
AcDbLine
 10
247.986863
 20
458.300455
 30
0.0
 11
248.061132
 21
458.304144
 31
0.0
  0
LINE
  5
1121
100
AcDbEntity
  8
10000_FRONT
370
    50
390
0
  6
CONTINUOUS
 62
     7
100
AcDbLine
 10
248.061132
 20
458.304144
 30
0.0
 11
248.135812
 21
458.311575
 31
0.0
  0
LINE
  5
1122
100
AcDbEntity
  8
10000_FRONT
370
    50
390
0
  6
CONTINUOUS
 62
     7
100
AcDbLine
 10
248.135812
 20
458.311575
 30
0.0
 11
248.210528
 21
458.322801
 31
0.0
  0
LINE
  5
1123
100
AcDbEntity
  8
10000_FRONT
370
    50
390
0
  6
CONTINUOUS
 62
     7
100
AcDbLine
 10
248.210528
 20
458.322801
 30
0.0
 11
248.28491
 21
458.33787
 31
0.0
  0
LINE
  5
1124
100
AcDbEntity
  8
10000_FRONT
370
    50
390
0
  6
CONTINUOUS
 62
     7
100
AcDbLine
 10
248.28491
 20
458.33787
 30
0.0
 11
248.358613
 21
458.356748
 31
0.0
  0
LINE
  5
1125
100
AcDbEntity
  8
10000_FRONT
370
    50
390
0
  6
CONTINUOUS
 62
     7
100
AcDbLine
 10
248.358613
 20
458.356748
 30
0.0
 11
248.431309
 21
458.379339
 31
0.0
  0
LINE
  5
1126
100
AcDbEntity
  8
10000_FRONT
370
    50
390
0
  6
CONTINUOUS
 62
     7
100
AcDbLine
 10
248.431309
 20
458.379339
 30
0.0
 11
248.502675
 21
458.405531
 31
0.0
  0
LINE
  5
1127
100
AcDbEntity
  8
10000_FRONT
370
    50
390
0
  6
CONTINUOUS
 62
     7
100
AcDbLine
 10
248.502675
 20
458.405531
 30
0.0
 11
248.572386
 21
458.435244
 31
0.0
  0
LINE
  5
1128
100
AcDbEntity
  8
10000_FRONT
370
    50
390
0
  6
CONTINUOUS
 62
     7
100
AcDbLine
 10
248.572386
 20
458.435244
 30
0.0
 11
248.640256
 21
458.468252
 31
0.0
  0
LINE
  5
1129
100
AcDbEntity
  8
10000_FRONT
370
    50
390
0
  6
CONTINUOUS
 62
     7
100
AcDbLine
 10
251.649999
 20
459.189669
 30
0.0
 11
251.649999
 21
460.410326
 31
0.0
  0
LINE
  5
112A
100
AcDbEntity
  8
10000_FRONT
370
    50
390
0
  6
CONTINUOUS
 62
     7
100
AcDbLine
 10
248.640256
 20
456.114073
 30
0.0
 11
248.640256
 21
458.468252
 31
0.0
  0
ARC
  5
112B
100
AcDbEntity
  8
10000_FRONT
370
    50
390
0
  6
CONTINUOUS
 62
     7
100
AcDbCircle
 10
247.949999
 20
459.799998
 30
0.0
 40
3.75
100
AcDbArc
 50
90.000006
 51
237.011624
  0
LINE
  5
112C
100
AcDbEntity
  8
10000_FRONT
370
    50
390
0
  6
CONTINUOUS
 62
     7
100
AcDbLine
 10
245.908241
 20
456.65457
 30
0.0
 11
245.930846
 21
456.640016
 31
0.0
  0
LINE
  5
112D
100
AcDbEntity
  8
10000_FRONT
370
    50
390
0
  6
CONTINUOUS
 62
     7
100
AcDbLine
 10
245.930846
 20
456.640016
 30
0.0
 11
245.954068
 21
456.625307
 31
0.0
  0
LINE
  5
112E
100
AcDbEntity
  8
10000_FRONT
370
    50
390
0
  6
CONTINUOUS
 62
     7
100
AcDbLine
 10
245.954068
 20
456.625307
 30
0.0
 11
245.977742
 21
456.610552
 31
0.0
  0
LINE
  5
112F
100
AcDbEntity
  8
10000_FRONT
370
    50
390
0
  6
CONTINUOUS
 62
     7
100
AcDbLine
 10
245.977742
 20
456.610552
 30
0.0
 11
246.001702
 21
456.595854
 31
0.0
  0
LINE
  5
1130
100
AcDbEntity
  8
10000_FRONT
370
    50
390
0
  6
CONTINUOUS
 62
     7
100
AcDbLine
 10
246.001702
 20
456.595854
 30
0.0
 11
246.025782
 21
456.581324
 31
0.0
  0
LINE
  5
1131
100
AcDbEntity
  8
10000_FRONT
370
    50
390
0
  6
CONTINUOUS
 62
     7
100
AcDbLine
 10
246.025782
 20
456.581324
 30
0.0
 11
246.04982
 21
456.567072
 31
0.0
  0
LINE
  5
1132
100
AcDbEntity
  8
10000_FRONT
370
    50
390
0
  6
CONTINUOUS
 62
     7
100
AcDbLine
 10
246.04982
 20
456.567072
 30
0.0
 11
246.07365
 21
456.55319
 31
0.0
  0
LINE
  5
1133
100
AcDbEntity
  8
10000_FRONT
370
    50
390
0
  6
CONTINUOUS
 62
     7
100
AcDbLine
 10
246.07365
 20
456.55319
 30
0.0
 11
246.097096
 21
456.539759
 31
0.0
  0
LINE
  5
1134
100
AcDbEntity
  8
10000_FRONT
370
    50
390
0
  6
CONTINUOUS
 62
     7
100
AcDbLine
 10
246.097096
 20
456.539759
 30
0.0
 11
246.119974
 21
456.526865
 31
0.0
  0
LINE
  5
1135
100
AcDbEntity
  8
10000_FRONT
370
    50
390
0
  6
CONTINUOUS
 62
     7
100
AcDbLine
 10
246.119974
 20
456.526865
 30
0.0
 11
246.142098
 21
456.514585
 31
0.0
  0
LINE
  5
1136
100
AcDbEntity
  8
10000_FRONT
370
    50
390
0
  6
CONTINUOUS
 62
     7
100
AcDbLine
 10
246.142098
 20
456.514585
 30
0.0
 11
246.163278
 21
456.503012
 31
0.0
  0
ARC
  5
1137
100
AcDbEntity
  8
10000_FRONT
370
    50
390
0
  6
CONTINUOUS
 62
     7
100
AcDbCircle
 10
247.949999
 20
459.799998
 30
0.0
 40
3.75
100
AcDbArc
 50
241.545611
 51
246.371473
  0
LINE
  5
1138
100
AcDbEntity
  8
10000_FRONT
370
    50
390
0
  6
CONTINUOUS
 62
     7
100
AcDbLine
 10
246.446979
 20
456.364386
 30
0.0
 11
246.481625
 21
456.349447
 31
0.0
  0
LINE
  5
1139
100
AcDbEntity
  8
10000_FRONT
370
    50
390
0
  6
CONTINUOUS
 62
     7
100
AcDbLine
 10
246.481625
 20
456.349447
 30
0.0
 11
246.518142
 21
456.334124
 31
0.0
  0
LINE
  5
113A
100
AcDbEntity
  8
10000_FRONT
370
    50
390
0
  6
CONTINUOUS
 62
     7
100
AcDbLine
 10
246.518142
 20
456.334124
 30
0.0
 11
246.555794
 21
456.318815
 31
0.0
  0
LINE
  5
113B
100
AcDbEntity
  8
10000_FRONT
370
    50
390
0
  6
CONTINUOUS
 62
     7
100
AcDbLine
 10
246.555794
 20
456.318815
 30
0.0
 11
246.593963
 21
456.303781
 31
0.0
  0
LINE
  5
113C
100
AcDbEntity
  8
10000_FRONT
370
    50
390
0
  6
CONTINUOUS
 62
     7
100
AcDbLine
 10
246.593963
 20
456.303781
 30
0.0
 11
246.631997
 21
456.289259
 31
0.0
  0
LINE
  5
113D
100
AcDbEntity
  8
10000_FRONT
370
    50
390
0
  6
CONTINUOUS
 62
     7
100
AcDbLine
 10
246.631997
 20
456.289259
 30
0.0
 11
246.669246
 21
456.275488
 31
0.0
  0
LINE
  5
113E
100
AcDbEntity
  8
10000_FRONT
370
    50
390
0
  6
CONTINUOUS
 62
     7
100
AcDbLine
 10
246.669246
 20
456.275488
 30
0.0
 11
246.705896
 21
456.262388
 31
0.0
  0
LINE
  5
113F
100
AcDbEntity
  8
10000_FRONT
370
    50
390
0
  6
CONTINUOUS
 62
     7
100
AcDbLine
 10
246.705896
 20
456.262388
 30
0.0
 11
246.743008
 21
456.249555
 31
0.0
  0
LINE
  5
1140
100
AcDbEntity
  8
10000_FRONT
370
    50
390
0
  6
CONTINUOUS
 62
     7
100
AcDbLine
 10
246.743008
 20
456.249555
 30
0.0
 11
246.780576
 21
456.237009
 31
0.0
  0
LINE
  5
1141
100
AcDbEntity
  8
10000_FRONT
370
    50
390
0
  6
CONTINUOUS
 62
     7
100
AcDbLine
 10
246.780576
 20
456.237009
 30
0.0
 11
246.818574
 21
456.224764
 31
0.0
  0
LINE
  5
1142
100
AcDbEntity
  8
10000_FRONT
370
    50
390
0
  6
CONTINUOUS
 62
     7
100
AcDbLine
 10
246.818574
 20
456.224764
 30
0.0
 11
246.856975
 21
456.212828
 31
0.0
  0
ARC
  5
1143
100
AcDbEntity
  8
10000_FRONT
370
    50
390
0
  6
CONTINUOUS
 62
     7
100
AcDbCircle
 10
247.949999
 20
459.799998
 30
0.0
 40
3.75
100
AcDbArc
 50
253.053833
 51
269.999994
  0
LINE
  5
1144
100
AcDbEntity
  8
10000_FRONT
370
    50
390
0
  6
CONTINUOUS
 62
     7
100
AcDbLine
 10
232.859743
 20
385.531744
 30
0.0
 11
232.859743
 21
387.885923
 31
0.0
  0
LINE
  5
1145
100
AcDbEntity
  8
10000_FRONT
370
    50
390
0
  6
CONTINUOUS
 62
     7
100
AcDbLine
 10
234.240255
 20
385.531744
 30
0.0
 11
234.240255
 21
387.885923
 31
0.0
  0
LINE
  5
1146
100
AcDbEntity
  8
10000_FRONT
370
    50
390
0
  6
CONTINUOUS
 62
     7
100
AcDbLine
 10
229.849999
 20
383.58967
 30
0.0
 11
229.849999
 21
384.810327
 31
0.0
  0
LINE
  5
1147
100
AcDbEntity
  8
10000_FRONT
370
    50
390
0
  6
CONTINUOUS
 62
     7
100
AcDbLine
 10
232.859743
 20
380.514074
 30
0.0
 11
232.859743
 21
382.868254
 31
0.0
  0
ARC
  5
1148
100
AcDbEntity
  8
10000_FRONT
370
    50
390
0
  6
CONTINUOUS
 62
     7
100
AcDbCircle
 10
233.549999
 20
384.199998
 30
0.0
 40
1.5
100
AcDbArc
 50
180.0
 51
242.601842
  0
ARC
  5
1149
100
AcDbEntity
  8
10000_FRONT
370
    50
390
0
  6
CONTINUOUS
 62
     7
100
AcDbCircle
 10
233.549999
 20
384.199998
 30
0.0
 40
1.5
100
AcDbArc
 50
297.398156
 51
0.0
  0
LINE
  5
114A
100
AcDbEntity
  8
10000_FRONT
370
    50
390
0
  6
CONTINUOUS
 62
     7
100
AcDbLine
 10
232.859743
 20
382.868254
 30
0.0
 11
232.927612
 21
382.835245
 31
0.0
  0
LINE
  5
114B
100
AcDbEntity
  8
10000_FRONT
370
    50
390
0
  6
CONTINUOUS
 62
     7
100
AcDbLine
 10
232.927612
 20
382.835245
 30
0.0
 11
232.997323
 21
382.805532
 31
0.0
  0
LINE
  5
114C
100
AcDbEntity
  8
10000_FRONT
370
    50
390
0
  6
CONTINUOUS
 62
     7
100
AcDbLine
 10
232.997323
 20
382.805532
 30
0.0
 11
233.068688
 21
382.779337
 31
0.0
  0
LINE
  5
114D
100
AcDbEntity
  8
10000_FRONT
370
    50
390
0
  6
CONTINUOUS
 62
     7
100
AcDbLine
 10
233.068688
 20
382.779337
 30
0.0
 11
233.141385
 21
382.75675
 31
0.0
  0
LINE
  5
114E
100
AcDbEntity
  8
10000_FRONT
370
    50
390
0
  6
CONTINUOUS
 62
     7
100
AcDbLine
 10
233.141385
 20
382.75675
 30
0.0
 11
233.215088
 21
382.737871
 31
0.0
  0
LINE
  5
114F
100
AcDbEntity
  8
10000_FRONT
370
    50
390
0
  6
CONTINUOUS
 62
     7
100
AcDbLine
 10
233.215088
 20
382.737871
 30
0.0
 11
233.28947
 21
382.722799
 31
0.0
  0
LINE
  5
1150
100
AcDbEntity
  8
10000_FRONT
370
    50
390
0
  6
CONTINUOUS
 62
     7
100
AcDbLine
 10
233.28947
 20
382.722799
 30
0.0
 11
233.364187
 21
382.711576
 31
0.0
  0
LINE
  5
1151
100
AcDbEntity
  8
10000_FRONT
370
    50
390
0
  6
CONTINUOUS
 62
     7
100
AcDbLine
 10
233.364187
 20
382.711576
 30
0.0
 11
233.438866
 21
382.704145
 31
0.0
  0
LINE
  5
1152
100
AcDbEntity
  8
10000_FRONT
370
    50
390
0
  6
CONTINUOUS
 62
     7
100
AcDbLine
 10
233.438866
 20
382.704145
 30
0.0
 11
233.513135
 21
382.700457
 31
0.0
  0
LINE
  5
1153
100
AcDbEntity
  8
10000_FRONT
370
    50
390
0
  6
CONTINUOUS
 62
     7
100
AcDbLine
 10
233.513135
 20
382.700457
 30
0.0
 11
233.586863
 21
382.700457
 31
0.0
  0
LINE
  5
1154
100
AcDbEntity
  8
10000_FRONT
370
    50
390
0
  6
CONTINUOUS
 62
     7
100
AcDbLine
 10
233.586863
 20
382.700457
 30
0.0
 11
233.661132
 21
382.704145
 31
0.0
  0
LINE
  5
1155
100
AcDbEntity
  8
10000_FRONT
370
    50
390
0
  6
CONTINUOUS
 62
     7
100
AcDbLine
 10
233.661132
 20
382.704145
 30
0.0
 11
233.735811
 21
382.711576
 31
0.0
  0
LINE
  5
1156
100
AcDbEntity
  8
10000_FRONT
370
    50
390
0
  6
CONTINUOUS
 62
     7
100
AcDbLine
 10
233.735811
 20
382.711576
 30
0.0
 11
233.810528
 21
382.722799
 31
0.0
  0
LINE
  5
1157
100
AcDbEntity
  8
10000_FRONT
370
    50
390
0
  6
CONTINUOUS
 62
     7
100
AcDbLine
 10
233.810528
 20
382.722799
 30
0.0
 11
233.88491
 21
382.737871
 31
0.0
  0
LINE
  5
1158
100
AcDbEntity
  8
10000_FRONT
370
    50
390
0
  6
CONTINUOUS
 62
     7
100
AcDbLine
 10
233.88491
 20
382.737871
 30
0.0
 11
233.958613
 21
382.75675
 31
0.0
  0
LINE
  5
1159
100
AcDbEntity
  8
10000_FRONT
370
    50
390
0
  6
CONTINUOUS
 62
     7
100
AcDbLine
 10
233.958613
 20
382.75675
 30
0.0
 11
234.031309
 21
382.779337
 31
0.0
  0
LINE
  5
115A
100
AcDbEntity
  8
10000_FRONT
370
    50
390
0
  6
CONTINUOUS
 62
     7
100
AcDbLine
 10
234.031309
 20
382.779337
 30
0.0
 11
234.102675
 21
382.805532
 31
0.0
  0
LINE
  5
115B
100
AcDbEntity
  8
10000_FRONT
370
    50
390
0
  6
CONTINUOUS
 62
     7
100
AcDbLine
 10
234.102675
 20
382.805532
 30
0.0
 11
234.172386
 21
382.835245
 31
0.0
  0
LINE
  5
115C
100
AcDbEntity
  8
10000_FRONT
370
    50
390
0
  6
CONTINUOUS
 62
     7
100
AcDbLine
 10
234.172386
 20
382.835245
 30
0.0
 11
234.240255
 21
382.868254
 31
0.0
  0
LINE
  5
115D
100
AcDbEntity
  8
10000_FRONT
370
    50
390
0
  6
CONTINUOUS
 62
     7
100
AcDbLine
 10
237.249999
 20
383.58967
 30
0.0
 11
237.249999
 21
384.810327
 31
0.0
  0
LINE
  5
115E
100
AcDbEntity
  8
10000_FRONT
370
    50
390
0
  6
CONTINUOUS
 62
     7
100
AcDbLine
 10
234.240255
 20
380.514074
 30
0.0
 11
234.240255
 21
382.868254
 31
0.0
  0
ARC
  5
115F
100
AcDbEntity
  8
10000_FRONT
370
    50
390
0
  6
CONTINUOUS
 62
     7
100
AcDbCircle
 10
233.549999
 20
384.199998
 30
0.0
 40
3.75
100
AcDbArc
 50
90.0
 51
270.0
  0
LINE
  5
1160
100
AcDbEntity
  8
10000_FRONT
370
    50
390
0
  6
CONTINUOUS
 62
     7
100
AcDbLine
 10
232.859743
 20
461.131742
 30
0.0
 11
232.859743
 21
463.485922
 31
0.0
  0
LINE
  5
1161
100
AcDbEntity
  8
10000_FRONT
370
    50
390
0
  6
CONTINUOUS
 62
     7
100
AcDbLine
 10
234.240255
 20
461.131742
 30
0.0
 11
234.240255
 21
463.485922
 31
0.0
  0
LINE
  5
1162
100
AcDbEntity
  8
10000_FRONT
370
    50
390
0
  6
CONTINUOUS
 62
     7
100
AcDbLine
 10
229.849999
 20
459.189669
 30
0.0
 11
229.849999
 21
460.410326
 31
0.0
  0
LINE
  5
1163
100
AcDbEntity
  8
10000_FRONT
370
    50
390
0
  6
CONTINUOUS
 62
     7
100
AcDbLine
 10
232.859743
 20
456.114073
 30
0.0
 11
232.859743
 21
458.468252
 31
0.0
  0
ARC
  5
1164
100
AcDbEntity
  8
10000_FRONT
370
    50
390
0
  6
CONTINUOUS
 62
     7
100
AcDbCircle
 10
233.549999
 20
459.799998
 30
0.0
 40
1.5
100
AcDbArc
 50
180.0
 51
242.601868
  0
ARC
  5
1165
100
AcDbEntity
  8
10000_FRONT
370
    50
390
0
  6
CONTINUOUS
 62
     7
100
AcDbCircle
 10
233.549999
 20
459.799998
 30
0.0
 40
1.5
100
AcDbArc
 50
297.39813
 51
0.0
  0
LINE
  5
1166
100
AcDbEntity
  8
10000_FRONT
370
    50
390
0
  6
CONTINUOUS
 62
     7
100
AcDbLine
 10
232.859743
 20
458.468252
 30
0.0
 11
232.927612
 21
458.435244
 31
0.0
  0
LINE
  5
1167
100
AcDbEntity
  8
10000_FRONT
370
    50
390
0
  6
CONTINUOUS
 62
     7
100
AcDbLine
 10
232.927612
 20
458.435244
 30
0.0
 11
232.997323
 21
458.405531
 31
0.0
  0
LINE
  5
1168
100
AcDbEntity
  8
10000_FRONT
370
    50
390
0
  6
CONTINUOUS
 62
     7
100
AcDbLine
 10
232.997323
 20
458.405531
 30
0.0
 11
233.068688
 21
458.379339
 31
0.0
  0
LINE
  5
1169
100
AcDbEntity
  8
10000_FRONT
370
    50
390
0
  6
CONTINUOUS
 62
     7
100
AcDbLine
 10
233.068688
 20
458.379339
 30
0.0
 11
233.141385
 21
458.356748
 31
0.0
  0
LINE
  5
116A
100
AcDbEntity
  8
10000_FRONT
370
    50
390
0
  6
CONTINUOUS
 62
     7
100
AcDbLine
 10
233.141385
 20
458.356748
 30
0.0
 11
233.215088
 21
458.33787
 31
0.0
  0
LINE
  5
116B
100
AcDbEntity
  8
10000_FRONT
370
    50
390
0
  6
CONTINUOUS
 62
     7
100
AcDbLine
 10
233.215088
 20
458.33787
 30
0.0
 11
233.28947
 21
458.322801
 31
0.0
  0
LINE
  5
116C
100
AcDbEntity
  8
10000_FRONT
370
    50
390
0
  6
CONTINUOUS
 62
     7
100
AcDbLine
 10
233.28947
 20
458.322801
 30
0.0
 11
233.364187
 21
458.311575
 31
0.0
  0
LINE
  5
116D
100
AcDbEntity
  8
10000_FRONT
370
    50
390
0
  6
CONTINUOUS
 62
     7
100
AcDbLine
 10
233.364187
 20
458.311575
 30
0.0
 11
233.438866
 21
458.304144
 31
0.0
  0
LINE
  5
116E
100
AcDbEntity
  8
10000_FRONT
370
    50
390
0
  6
CONTINUOUS
 62
     7
100
AcDbLine
 10
233.438866
 20
458.304144
 30
0.0
 11
233.513135
 21
458.300455
 31
0.0
  0
LINE
  5
116F
100
AcDbEntity
  8
10000_FRONT
370
    50
390
0
  6
CONTINUOUS
 62
     7
100
AcDbLine
 10
233.513135
 20
458.300455
 30
0.0
 11
233.586863
 21
458.300455
 31
0.0
  0
LINE
  5
1170
100
AcDbEntity
  8
10000_FRONT
370
    50
390
0
  6
CONTINUOUS
 62
     7
100
AcDbLine
 10
233.586863
 20
458.300455
 30
0.0
 11
233.661132
 21
458.304144
 31
0.0
  0
LINE
  5
1171
100
AcDbEntity
  8
10000_FRONT
370
    50
390
0
  6
CONTINUOUS
 62
     7
100
AcDbLine
 10
233.661132
 20
458.304144
 30
0.0
 11
233.735811
 21
458.311575
 31
0.0
  0
LINE
  5
1172
100
AcDbEntity
  8
10000_FRONT
370
    50
390
0
  6
CONTINUOUS
 62
     7
100
AcDbLine
 10
233.735811
 20
458.311575
 30
0.0
 11
233.810528
 21
458.322801
 31
0.0
  0
LINE
  5
1173
100
AcDbEntity
  8
10000_FRONT
370
    50
390
0
  6
CONTINUOUS
 62
     7
100
AcDbLine
 10
233.810528
 20
458.322801
 30
0.0
 11
233.88491
 21
458.33787
 31
0.0
  0
LINE
  5
1174
100
AcDbEntity
  8
10000_FRONT
370
    50
390
0
  6
CONTINUOUS
 62
     7
100
AcDbLine
 10
233.88491
 20
458.33787
 30
0.0
 11
233.958613
 21
458.356748
 31
0.0
  0
LINE
  5
1175
100
AcDbEntity
  8
10000_FRONT
370
    50
390
0
  6
CONTINUOUS
 62
     7
100
AcDbLine
 10
233.958613
 20
458.356748
 30
0.0
 11
234.031309
 21
458.379339
 31
0.0
  0
LINE
  5
1176
100
AcDbEntity
  8
10000_FRONT
370
    50
390
0
  6
CONTINUOUS
 62
     7
100
AcDbLine
 10
234.031309
 20
458.379339
 30
0.0
 11
234.102675
 21
458.405531
 31
0.0
  0
LINE
  5
1177
100
AcDbEntity
  8
10000_FRONT
370
    50
390
0
  6
CONTINUOUS
 62
     7
100
AcDbLine
 10
234.102675
 20
458.405531
 30
0.0
 11
234.172386
 21
458.435244
 31
0.0
  0
LINE
  5
1178
100
AcDbEntity
  8
10000_FRONT
370
    50
390
0
  6
CONTINUOUS
 62
     7
100
AcDbLine
 10
234.172386
 20
458.435244
 30
0.0
 11
234.240255
 21
458.468252
 31
0.0
  0
LINE
  5
1179
100
AcDbEntity
  8
10000_FRONT
370
    50
390
0
  6
CONTINUOUS
 62
     7
100
AcDbLine
 10
237.249999
 20
459.189669
 30
0.0
 11
237.249999
 21
460.410326
 31
0.0
  0
LINE
  5
117A
100
AcDbEntity
  8
10000_FRONT
370
    50
390
0
  6
CONTINUOUS
 62
     7
100
AcDbLine
 10
234.240255
 20
456.114073
 30
0.0
 11
234.240255
 21
458.468252
 31
0.0
  0
ARC
  5
117B
100
AcDbEntity
  8
10000_FRONT
370
    50
390
0
  6
CONTINUOUS
 62
     7
100
AcDbCircle
 10
233.549999
 20
459.799998
 30
0.0
 40
3.75
100
AcDbArc
 50
90.0
 51
237.01162
  0
LINE
  5
117C
100
AcDbEntity
  8
10000_FRONT
370
    50
390
0
  6
CONTINUOUS
 62
     7
100
AcDbLine
 10
231.508241
 20
456.65457
 30
0.0
 11
231.530846
 21
456.640016
 31
0.0
  0
LINE
  5
117D
100
AcDbEntity
  8
10000_FRONT
370
    50
390
0
  6
CONTINUOUS
 62
     7
100
AcDbLine
 10
231.530846
 20
456.640016
 30
0.0
 11
231.554068
 21
456.625307
 31
0.0
  0
LINE
  5
117E
100
AcDbEntity
  8
10000_FRONT
370
    50
390
0
  6
CONTINUOUS
 62
     7
100
AcDbLine
 10
231.554068
 20
456.625307
 30
0.0
 11
231.577742
 21
456.610552
 31
0.0
  0
LINE
  5
117F
100
AcDbEntity
  8
10000_FRONT
370
    50
390
0
  6
CONTINUOUS
 62
     7
100
AcDbLine
 10
231.577742
 20
456.610552
 30
0.0
 11
231.601702
 21
456.595854
 31
0.0
  0
LINE
  5
1180
100
AcDbEntity
  8
10000_FRONT
370
    50
390
0
  6
CONTINUOUS
 62
     7
100
AcDbLine
 10
231.601702
 20
456.595854
 30
0.0
 11
231.625782
 21
456.581324
 31
0.0
  0
LINE
  5
1181
100
AcDbEntity
  8
10000_FRONT
370
    50
390
0
  6
CONTINUOUS
 62
     7
100
AcDbLine
 10
231.625782
 20
456.581324
 30
0.0
 11
231.649819
 21
456.567072
 31
0.0
  0
LINE
  5
1182
100
AcDbEntity
  8
10000_FRONT
370
    50
390
0
  6
CONTINUOUS
 62
     7
100
AcDbLine
 10
231.649819
 20
456.567072
 30
0.0
 11
231.67365
 21
456.55319
 31
0.0
  0
LINE
  5
1183
100
AcDbEntity
  8
10000_FRONT
370
    50
390
0
  6
CONTINUOUS
 62
     7
100
AcDbLine
 10
231.67365
 20
456.55319
 30
0.0
 11
231.697096
 21
456.539759
 31
0.0
  0
LINE
  5
1184
100
AcDbEntity
  8
10000_FRONT
370
    50
390
0
  6
CONTINUOUS
 62
     7
100
AcDbLine
 10
231.697096
 20
456.539759
 30
0.0
 11
231.719974
 21
456.526865
 31
0.0
  0
LINE
  5
1185
100
AcDbEntity
  8
10000_FRONT
370
    50
390
0
  6
CONTINUOUS
 62
     7
100
AcDbLine
 10
231.719974
 20
456.526865
 30
0.0
 11
231.742098
 21
456.514585
 31
0.0
  0
LINE
  5
1186
100
AcDbEntity
  8
10000_FRONT
370
    50
390
0
  6
CONTINUOUS
 62
     7
100
AcDbLine
 10
231.742098
 20
456.514585
 30
0.0
 11
231.763279
 21
456.503012
 31
0.0
  0
ARC
  5
1187
100
AcDbEntity
  8
10000_FRONT
370
    50
390
0
  6
CONTINUOUS
 62
     7
100
AcDbCircle
 10
233.549999
 20
459.799998
 30
0.0
 40
3.75
100
AcDbArc
 50
241.545616
 51
246.371468
  0
LINE
  5
1188
100
AcDbEntity
  8
10000_FRONT
370
    50
390
0
  6
CONTINUOUS
 62
     7
100
AcDbLine
 10
232.046979
 20
456.364386
 30
0.0
 11
232.081626
 21
456.349447
 31
0.0
  0
LINE
  5
1189
100
AcDbEntity
  8
10000_FRONT
370
    50
390
0
  6
CONTINUOUS
 62
     7
100
AcDbLine
 10
232.081626
 20
456.349447
 30
0.0
 11
232.118142
 21
456.334124
 31
0.0
  0
LINE
  5
118A
100
AcDbEntity
  8
10000_FRONT
370
    50
390
0
  6
CONTINUOUS
 62
     7
100
AcDbLine
 10
232.118142
 20
456.334124
 30
0.0
 11
232.155795
 21
456.318815
 31
0.0
  0
LINE
  5
118B
100
AcDbEntity
  8
10000_FRONT
370
    50
390
0
  6
CONTINUOUS
 62
     7
100
AcDbLine
 10
232.155795
 20
456.318815
 30
0.0
 11
232.193963
 21
456.303781
 31
0.0
  0
LINE
  5
118C
100
AcDbEntity
  8
10000_FRONT
370
    50
390
0
  6
CONTINUOUS
 62
     7
100
AcDbLine
 10
232.193963
 20
456.303781
 30
0.0
 11
232.231997
 21
456.289259
 31
0.0
  0
LINE
  5
118D
100
AcDbEntity
  8
10000_FRONT
370
    50
390
0
  6
CONTINUOUS
 62
     7
100
AcDbLine
 10
232.231997
 20
456.289259
 30
0.0
 11
232.269246
 21
456.275488
 31
0.0
  0
LINE
  5
118E
100
AcDbEntity
  8
10000_FRONT
370
    50
390
0
  6
CONTINUOUS
 62
     7
100
AcDbLine
 10
232.269246
 20
456.275488
 30
0.0
 11
232.305896
 21
456.262388
 31
0.0
  0
LINE
  5
118F
100
AcDbEntity
  8
10000_FRONT
370
    50
390
0
  6
CONTINUOUS
 62
     7
100
AcDbLine
 10
232.305896
 20
456.262388
 30
0.0
 11
232.343009
 21
456.249555
 31
0.0
  0
LINE
  5
1190
100
AcDbEntity
  8
10000_FRONT
370
    50
390
0
  6
CONTINUOUS
 62
     7
100
AcDbLine
 10
232.343009
 20
456.249555
 30
0.0
 11
232.380576
 21
456.237009
 31
0.0
  0
LINE
  5
1191
100
AcDbEntity
  8
10000_FRONT
370
    50
390
0
  6
CONTINUOUS
 62
     7
100
AcDbLine
 10
232.380576
 20
456.237009
 30
0.0
 11
232.418574
 21
456.224764
 31
0.0
  0
LINE
  5
1192
100
AcDbEntity
  8
10000_FRONT
370
    50
390
0
  6
CONTINUOUS
 62
     7
100
AcDbLine
 10
232.418574
 20
456.224764
 30
0.0
 11
232.456975
 21
456.212828
 31
0.0
  0
ARC
  5
1193
100
AcDbEntity
  8
10000_FRONT
370
    50
390
0
  6
CONTINUOUS
 62
     7
100
AcDbCircle
 10
233.549999
 20
459.799998
 30
0.0
 40
3.75
100
AcDbArc
 50
253.053828
 51
270.0
  0
LINE
  5
1194
100
AcDbEntity
  8
10000_FRONT
370
    50
390
0
  6
CONTINUOUS
 62
     7
100
AcDbLine
 10
218.459742
 20
385.531744
 30
0.0
 11
218.459742
 21
387.885923
 31
0.0
  0
LINE
  5
1195
100
AcDbEntity
  8
10000_FRONT
370
    50
390
0
  6
CONTINUOUS
 62
     7
100
AcDbLine
 10
219.840256
 20
385.531744
 30
0.0
 11
219.840256
 21
387.885923
 31
0.0
  0
LINE
  5
1196
100
AcDbEntity
  8
10000_FRONT
370
    50
390
0
  6
CONTINUOUS
 62
     7
100
AcDbLine
 10
215.449999
 20
383.58967
 30
0.0
 11
215.449999
 21
384.810327
 31
0.0
  0
LINE
  5
1197
100
AcDbEntity
  8
10000_FRONT
370
    50
390
0
  6
CONTINUOUS
 62
     7
100
AcDbLine
 10
218.459742
 20
380.514074
 30
0.0
 11
218.459742
 21
382.868254
 31
0.0
  0
ARC
  5
1198
100
AcDbEntity
  8
10000_FRONT
370
    50
390
0
  6
CONTINUOUS
 62
     7
100
AcDbCircle
 10
219.149999
 20
384.199998
 30
0.0
 40
1.5
100
AcDbArc
 50
180.0
 51
242.601832
  0
ARC
  5
1199
100
AcDbEntity
  8
10000_FRONT
370
    50
390
0
  6
CONTINUOUS
 62
     7
100
AcDbCircle
 10
219.149999
 20
384.199998
 30
0.0
 40
1.5
100
AcDbArc
 50
297.398161
 51
0.0
  0
LINE
  5
119A
100
AcDbEntity
  8
10000_FRONT
370
    50
390
0
  6
CONTINUOUS
 62
     7
100
AcDbLine
 10
218.459742
 20
382.868254
 30
0.0
 11
218.527612
 21
382.835245
 31
0.0
  0
LINE
  5
119B
100
AcDbEntity
  8
10000_FRONT
370
    50
390
0
  6
CONTINUOUS
 62
     7
100
AcDbLine
 10
218.527612
 20
382.835245
 30
0.0
 11
218.597323
 21
382.805532
 31
0.0
  0
LINE
  5
119C
100
AcDbEntity
  8
10000_FRONT
370
    50
390
0
  6
CONTINUOUS
 62
     7
100
AcDbLine
 10
218.597323
 20
382.805532
 30
0.0
 11
218.668689
 21
382.779337
 31
0.0
  0
LINE
  5
119D
100
AcDbEntity
  8
10000_FRONT
370
    50
390
0
  6
CONTINUOUS
 62
     7
100
AcDbLine
 10
218.668689
 20
382.779337
 30
0.0
 11
218.741385
 21
382.75675
 31
0.0
  0
LINE
  5
119E
100
AcDbEntity
  8
10000_FRONT
370
    50
390
0
  6
CONTINUOUS
 62
     7
100
AcDbLine
 10
218.741385
 20
382.75675
 30
0.0
 11
218.815088
 21
382.737871
 31
0.0
  0
LINE
  5
119F
100
AcDbEntity
  8
10000_FRONT
370
    50
390
0
  6
CONTINUOUS
 62
     7
100
AcDbLine
 10
218.815088
 20
382.737871
 30
0.0
 11
218.88947
 21
382.722799
 31
0.0
  0
LINE
  5
11A0
100
AcDbEntity
  8
10000_FRONT
370
    50
390
0
  6
CONTINUOUS
 62
     7
100
AcDbLine
 10
218.88947
 20
382.722799
 30
0.0
 11
218.964186
 21
382.711576
 31
0.0
  0
LINE
  5
11A1
100
AcDbEntity
  8
10000_FRONT
370
    50
390
0
  6
CONTINUOUS
 62
     7
100
AcDbLine
 10
218.964186
 20
382.711576
 30
0.0
 11
219.038866
 21
382.704145
 31
0.0
  0
LINE
  5
11A2
100
AcDbEntity
  8
10000_FRONT
370
    50
390
0
  6
CONTINUOUS
 62
     7
100
AcDbLine
 10
219.038866
 20
382.704145
 30
0.0
 11
219.113135
 21
382.700457
 31
0.0
  0
LINE
  5
11A3
100
AcDbEntity
  8
10000_FRONT
370
    50
390
0
  6
CONTINUOUS
 62
     7
100
AcDbLine
 10
219.113135
 20
382.700457
 30
0.0
 11
219.186863
 21
382.700457
 31
0.0
  0
LINE
  5
11A4
100
AcDbEntity
  8
10000_FRONT
370
    50
390
0
  6
CONTINUOUS
 62
     7
100
AcDbLine
 10
219.186863
 20
382.700457
 30
0.0
 11
219.261132
 21
382.704145
 31
0.0
  0
LINE
  5
11A5
100
AcDbEntity
  8
10000_FRONT
370
    50
390
0
  6
CONTINUOUS
 62
     7
100
AcDbLine
 10
219.261132
 20
382.704145
 30
0.0
 11
219.335811
 21
382.711576
 31
0.0
  0
LINE
  5
11A6
100
AcDbEntity
  8
10000_FRONT
370
    50
390
0
  6
CONTINUOUS
 62
     7
100
AcDbLine
 10
219.335811
 20
382.711576
 30
0.0
 11
219.410528
 21
382.722799
 31
0.0
  0
LINE
  5
11A7
100
AcDbEntity
  8
10000_FRONT
370
    50
390
0
  6
CONTINUOUS
 62
     7
100
AcDbLine
 10
219.410528
 20
382.722799
 30
0.0
 11
219.484911
 21
382.737871
 31
0.0
  0
LINE
  5
11A8
100
AcDbEntity
  8
10000_FRONT
370
    50
390
0
  6
CONTINUOUS
 62
     7
100
AcDbLine
 10
219.484911
 20
382.737871
 30
0.0
 11
219.558613
 21
382.75675
 31
0.0
  0
LINE
  5
11A9
100
AcDbEntity
  8
10000_FRONT
370
    50
390
0
  6
CONTINUOUS
 62
     7
100
AcDbLine
 10
219.558613
 20
382.75675
 30
0.0
 11
219.631309
 21
382.779337
 31
0.0
  0
LINE
  5
11AA
100
AcDbEntity
  8
10000_FRONT
370
    50
390
0
  6
CONTINUOUS
 62
     7
100
AcDbLine
 10
219.631309
 20
382.779337
 30
0.0
 11
219.702675
 21
382.805532
 31
0.0
  0
LINE
  5
11AB
100
AcDbEntity
  8
10000_FRONT
370
    50
390
0
  6
CONTINUOUS
 62
     7
100
AcDbLine
 10
219.702675
 20
382.805532
 30
0.0
 11
219.772385
 21
382.835245
 31
0.0
  0
LINE
  5
11AC
100
AcDbEntity
  8
10000_FRONT
370
    50
390
0
  6
CONTINUOUS
 62
     7
100
AcDbLine
 10
219.772385
 20
382.835245
 30
0.0
 11
219.840256
 21
382.868254
 31
0.0
  0
LINE
  5
11AD
100
AcDbEntity
  8
10000_FRONT
370
    50
390
0
  6
CONTINUOUS
 62
     7
100
AcDbLine
 10
222.849999
 20
383.58967
 30
0.0
 11
222.849999
 21
384.810327
 31
0.0
  0
LINE
  5
11AE
100
AcDbEntity
  8
10000_FRONT
370
    50
390
0
  6
CONTINUOUS
 62
     7
100
AcDbLine
 10
219.840256
 20
380.514074
 30
0.0
 11
219.840256
 21
382.868254
 31
0.0
  0
ARC
  5
11AF
100
AcDbEntity
  8
10000_FRONT
370
    50
390
0
  6
CONTINUOUS
 62
     7
100
AcDbCircle
 10
219.149999
 20
384.199998
 30
0.0
 40
3.75
100
AcDbArc
 50
89.999994
 51
270.000006
  0
LINE
  5
11B0
100
AcDbEntity
  8
10000_FRONT
370
    50
390
0
  6
CONTINUOUS
 62
     7
100
AcDbLine
 10
218.459742
 20
461.131742
 30
0.0
 11
218.459742
 21
463.485922
 31
0.0
  0
LINE
  5
11B1
100
AcDbEntity
  8
10000_FRONT
370
    50
390
0
  6
CONTINUOUS
 62
     7
100
AcDbLine
 10
219.840256
 20
461.131742
 30
0.0
 11
219.840256
 21
463.485922
 31
0.0
  0
LINE
  5
11B2
100
AcDbEntity
  8
10000_FRONT
370
    50
390
0
  6
CONTINUOUS
 62
     7
100
AcDbLine
 10
215.449999
 20
459.189669
 30
0.0
 11
215.449999
 21
460.410326
 31
0.0
  0
LINE
  5
11B3
100
AcDbEntity
  8
10000_FRONT
370
    50
390
0
  6
CONTINUOUS
 62
     7
100
AcDbLine
 10
218.459742
 20
456.114073
 30
0.0
 11
218.459742
 21
458.468252
 31
0.0
  0
ARC
  5
11B4
100
AcDbEntity
  8
10000_FRONT
370
    50
390
0
  6
CONTINUOUS
 62
     7
100
AcDbCircle
 10
219.149999
 20
459.799998
 30
0.0
 40
1.5
100
AcDbArc
 50
180.0
 51
242.601859
  0
ARC
  5
11B5
100
AcDbEntity
  8
10000_FRONT
370
    50
390
0
  6
CONTINUOUS
 62
     7
100
AcDbCircle
 10
219.149999
 20
459.799998
 30
0.0
 40
1.5
100
AcDbArc
 50
297.398134
 51
0.0
  0
LINE
  5
11B6
100
AcDbEntity
  8
10000_FRONT
370
    50
390
0
  6
CONTINUOUS
 62
     7
100
AcDbLine
 10
218.459742
 20
458.468252
 30
0.0
 11
218.527612
 21
458.435244
 31
0.0
  0
LINE
  5
11B7
100
AcDbEntity
  8
10000_FRONT
370
    50
390
0
  6
CONTINUOUS
 62
     7
100
AcDbLine
 10
218.527612
 20
458.435244
 30
0.0
 11
218.597323
 21
458.405531
 31
0.0
  0
LINE
  5
11B8
100
AcDbEntity
  8
10000_FRONT
370
    50
390
0
  6
CONTINUOUS
 62
     7
100
AcDbLine
 10
218.597323
 20
458.405531
 30
0.0
 11
218.668689
 21
458.379339
 31
0.0
  0
LINE
  5
11B9
100
AcDbEntity
  8
10000_FRONT
370
    50
390
0
  6
CONTINUOUS
 62
     7
100
AcDbLine
 10
218.668689
 20
458.379339
 30
0.0
 11
218.741385
 21
458.356748
 31
0.0
  0
LINE
  5
11BA
100
AcDbEntity
  8
10000_FRONT
370
    50
390
0
  6
CONTINUOUS
 62
     7
100
AcDbLine
 10
218.741385
 20
458.356748
 30
0.0
 11
218.815088
 21
458.33787
 31
0.0
  0
LINE
  5
11BB
100
AcDbEntity
  8
10000_FRONT
370
    50
390
0
  6
CONTINUOUS
 62
     7
100
AcDbLine
 10
218.815088
 20
458.33787
 30
0.0
 11
218.88947
 21
458.322801
 31
0.0
  0
LINE
  5
11BC
100
AcDbEntity
  8
10000_FRONT
370
    50
390
0
  6
CONTINUOUS
 62
     7
100
AcDbLine
 10
218.88947
 20
458.322801
 30
0.0
 11
218.964186
 21
458.311575
 31
0.0
  0
LINE
  5
11BD
100
AcDbEntity
  8
10000_FRONT
370
    50
390
0
  6
CONTINUOUS
 62
     7
100
AcDbLine
 10
218.964186
 20
458.311575
 30
0.0
 11
219.038866
 21
458.304144
 31
0.0
  0
LINE
  5
11BE
100
AcDbEntity
  8
10000_FRONT
370
    50
390
0
  6
CONTINUOUS
 62
     7
100
AcDbLine
 10
219.038866
 20
458.304144
 30
0.0
 11
219.113135
 21
458.300455
 31
0.0
  0
LINE
  5
11BF
100
AcDbEntity
  8
10000_FRONT
370
    50
390
0
  6
CONTINUOUS
 62
     7
100
AcDbLine
 10
219.113135
 20
458.300455
 30
0.0
 11
219.186863
 21
458.300455
 31
0.0
  0
LINE
  5
11C0
100
AcDbEntity
  8
10000_FRONT
370
    50
390
0
  6
CONTINUOUS
 62
     7
100
AcDbLine
 10
219.186863
 20
458.300455
 30
0.0
 11
219.261132
 21
458.304144
 31
0.0
  0
LINE
  5
11C1
100
AcDbEntity
  8
10000_FRONT
370
    50
390
0
  6
CONTINUOUS
 62
     7
100
AcDbLine
 10
219.261132
 20
458.304144
 30
0.0
 11
219.335811
 21
458.311575
 31
0.0
  0
LINE
  5
11C2
100
AcDbEntity
  8
10000_FRONT
370
    50
390
0
  6
CONTINUOUS
 62
     7
100
AcDbLine
 10
219.335811
 20
458.311575
 30
0.0
 11
219.410528
 21
458.322801
 31
0.0
  0
LINE
  5
11C3
100
AcDbEntity
  8
10000_FRONT
370
    50
390
0
  6
CONTINUOUS
 62
     7
100
AcDbLine
 10
219.410528
 20
458.322801
 30
0.0
 11
219.484911
 21
458.33787
 31
0.0
  0
LINE
  5
11C4
100
AcDbEntity
  8
10000_FRONT
370
    50
390
0
  6
CONTINUOUS
 62
     7
100
AcDbLine
 10
219.484911
 20
458.33787
 30
0.0
 11
219.558613
 21
458.356748
 31
0.0
  0
LINE
  5
11C5
100
AcDbEntity
  8
10000_FRONT
370
    50
390
0
  6
CONTINUOUS
 62
     7
100
AcDbLine
 10
219.558613
 20
458.356748
 30
0.0
 11
219.631309
 21
458.379339
 31
0.0
  0
LINE
  5
11C6
100
AcDbEntity
  8
10000_FRONT
370
    50
390
0
  6
CONTINUOUS
 62
     7
100
AcDbLine
 10
219.631309
 20
458.379339
 30
0.0
 11
219.702675
 21
458.405531
 31
0.0
  0
LINE
  5
11C7
100
AcDbEntity
  8
10000_FRONT
370
    50
390
0
  6
CONTINUOUS
 62
     7
100
AcDbLine
 10
219.702675
 20
458.405531
 30
0.0
 11
219.772385
 21
458.435244
 31
0.0
  0
LINE
  5
11C8
100
AcDbEntity
  8
10000_FRONT
370
    50
390
0
  6
CONTINUOUS
 62
     7
100
AcDbLine
 10
219.772385
 20
458.435244
 30
0.0
 11
219.840256
 21
458.468252
 31
0.0
  0
LINE
  5
11C9
100
AcDbEntity
  8
10000_FRONT
370
    50
390
0
  6
CONTINUOUS
 62
     7
100
AcDbLine
 10
222.849999
 20
459.189669
 30
0.0
 11
222.849999
 21
460.410326
 31
0.0
  0
LINE
  5
11CA
100
AcDbEntity
  8
10000_FRONT
370
    50
390
0
  6
CONTINUOUS
 62
     7
100
AcDbLine
 10
219.840256
 20
456.114073
 30
0.0
 11
219.840256
 21
458.468252
 31
0.0
  0
ARC
  5
11CB
100
AcDbEntity
  8
10000_FRONT
370
    50
390
0
  6
CONTINUOUS
 62
     7
100
AcDbCircle
 10
219.149999
 20
459.799998
 30
0.0
 40
3.75
100
AcDbArc
 50
89.999994
 51
237.01161
  0
LINE
  5
11CC
100
AcDbEntity
  8
10000_FRONT
370
    50
390
0
  6
CONTINUOUS
 62
     7
100
AcDbLine
 10
217.10824
 20
456.65457
 30
0.0
 11
217.130846
 21
456.640016
 31
0.0
  0
LINE
  5
11CD
100
AcDbEntity
  8
10000_FRONT
370
    50
390
0
  6
CONTINUOUS
 62
     7
100
AcDbLine
 10
217.130846
 20
456.640016
 30
0.0
 11
217.154068
 21
456.625307
 31
0.0
  0
LINE
  5
11CE
100
AcDbEntity
  8
10000_FRONT
370
    50
390
0
  6
CONTINUOUS
 62
     7
100
AcDbLine
 10
217.154068
 20
456.625307
 30
0.0
 11
217.177742
 21
456.610552
 31
0.0
  0
LINE
  5
11CF
100
AcDbEntity
  8
10000_FRONT
370
    50
390
0
  6
CONTINUOUS
 62
     7
100
AcDbLine
 10
217.177742
 20
456.610552
 30
0.0
 11
217.201702
 21
456.595854
 31
0.0
  0
LINE
  5
11D0
100
AcDbEntity
  8
10000_FRONT
370
    50
390
0
  6
CONTINUOUS
 62
     7
100
AcDbLine
 10
217.201702
 20
456.595854
 30
0.0
 11
217.225782
 21
456.581324
 31
0.0
  0
LINE
  5
11D1
100
AcDbEntity
  8
10000_FRONT
370
    50
390
0
  6
CONTINUOUS
 62
     7
100
AcDbLine
 10
217.225782
 20
456.581324
 30
0.0
 11
217.24982
 21
456.567072
 31
0.0
  0
LINE
  5
11D2
100
AcDbEntity
  8
10000_FRONT
370
    50
390
0
  6
CONTINUOUS
 62
     7
100
AcDbLine
 10
217.24982
 20
456.567072
 30
0.0
 11
217.273651
 21
456.55319
 31
0.0
  0
LINE
  5
11D3
100
AcDbEntity
  8
10000_FRONT
370
    50
390
0
  6
CONTINUOUS
 62
     7
100
AcDbLine
 10
217.273651
 20
456.55319
 30
0.0
 11
217.297096
 21
456.539759
 31
0.0
  0
LINE
  5
11D4
100
AcDbEntity
  8
10000_FRONT
370
    50
390
0
  6
CONTINUOUS
 62
     7
100
AcDbLine
 10
217.297096
 20
456.539759
 30
0.0
 11
217.319973
 21
456.526865
 31
0.0
  0
LINE
  5
11D5
100
AcDbEntity
  8
10000_FRONT
370
    50
390
0
  6
CONTINUOUS
 62
     7
100
AcDbLine
 10
217.319973
 20
456.526865
 30
0.0
 11
217.342098
 21
456.514585
 31
0.0
  0
LINE
  5
11D6
100
AcDbEntity
  8
10000_FRONT
370
    50
390
0
  6
CONTINUOUS
 62
     7
100
AcDbLine
 10
217.342098
 20
456.514585
 30
0.0
 11
217.363279
 21
456.503012
 31
0.0
  0
ARC
  5
11D7
100
AcDbEntity
  8
10000_FRONT
370
    50
390
0
  6
CONTINUOUS
 62
     7
100
AcDbCircle
 10
219.149999
 20
459.799998
 30
0.0
 40
3.75
100
AcDbArc
 50
241.545622
 51
246.37147
  0
LINE
  5
11D8
100
AcDbEntity
  8
10000_FRONT
370
    50
390
0
  6
CONTINUOUS
 62
     7
100
AcDbLine
 10
217.646979
 20
456.364386
 30
0.0
 11
217.681626
 21
456.349447
 31
0.0
  0
LINE
  5
11D9
100
AcDbEntity
  8
10000_FRONT
370
    50
390
0
  6
CONTINUOUS
 62
     7
100
AcDbLine
 10
217.681626
 20
456.349447
 30
0.0
 11
217.718142
 21
456.334124
 31
0.0
  0
LINE
  5
11DA
100
AcDbEntity
  8
10000_FRONT
370
    50
390
0
  6
CONTINUOUS
 62
     7
100
AcDbLine
 10
217.718142
 20
456.334124
 30
0.0
 11
217.755794
 21
456.318815
 31
0.0
  0
LINE
  5
11DB
100
AcDbEntity
  8
10000_FRONT
370
    50
390
0
  6
CONTINUOUS
 62
     7
100
AcDbLine
 10
217.755794
 20
456.318815
 30
0.0
 11
217.793963
 21
456.303781
 31
0.0
  0
LINE
  5
11DC
100
AcDbEntity
  8
10000_FRONT
370
    50
390
0
  6
CONTINUOUS
 62
     7
100
AcDbLine
 10
217.793963
 20
456.303781
 30
0.0
 11
217.831997
 21
456.289259
 31
0.0
  0
LINE
  5
11DD
100
AcDbEntity
  8
10000_FRONT
370
    50
390
0
  6
CONTINUOUS
 62
     7
100
AcDbLine
 10
217.831997
 20
456.289259
 30
0.0
 11
217.869246
 21
456.275488
 31
0.0
  0
LINE
  5
11DE
100
AcDbEntity
  8
10000_FRONT
370
    50
390
0
  6
CONTINUOUS
 62
     7
100
AcDbLine
 10
217.869246
 20
456.275488
 30
0.0
 11
217.905896
 21
456.262388
 31
0.0
  0
LINE
  5
11DF
100
AcDbEntity
  8
10000_FRONT
370
    50
390
0
  6
CONTINUOUS
 62
     7
100
AcDbLine
 10
217.905896
 20
456.262388
 30
0.0
 11
217.943009
 21
456.249555
 31
0.0
  0
LINE
  5
11E0
100
AcDbEntity
  8
10000_FRONT
370
    50
390
0
  6
CONTINUOUS
 62
     7
100
AcDbLine
 10
217.943009
 20
456.249555
 30
0.0
 11
217.980576
 21
456.237009
 31
0.0
  0
LINE
  5
11E1
100
AcDbEntity
  8
10000_FRONT
370
    50
390
0
  6
CONTINUOUS
 62
     7
100
AcDbLine
 10
217.980576
 20
456.237009
 30
0.0
 11
218.018574
 21
456.224764
 31
0.0
  0
LINE
  5
11E2
100
AcDbEntity
  8
10000_FRONT
370
    50
390
0
  6
CONTINUOUS
 62
     7
100
AcDbLine
 10
218.018574
 20
456.224764
 30
0.0
 11
218.056975
 21
456.212828
 31
0.0
  0
ARC
  5
11E3
100
AcDbEntity
  8
10000_FRONT
370
    50
390
0
  6
CONTINUOUS
 62
     7
100
AcDbCircle
 10
219.149999
 20
459.799998
 30
0.0
 40
3.75
100
AcDbArc
 50
253.053831
 51
270.000006
  0
LINE
  5
11E4
100
AcDbEntity
  8
10000_FRONT
370
    50
390
0
  6
CONTINUOUS
 62
     7
100
AcDbLine
 10
239.799999
 20
466.799997
 30
0.0
 11
239.799999
 21
469.000002
 31
0.0
  0
LINE
  5
11E5
100
AcDbEntity
  8
10000_FRONT
370
    50
390
0
  6
CONTINUOUS
 62
     7
100
AcDbLine
 10
239.799999
 20
469.000002
 30
0.0
 11
239.799999
 21
470.500002
 31
0.0
  0
LINE
  5
11E6
100
AcDbEntity
  8
10000_FRONT
370
    50
390
0
  6
CONTINUOUS
 62
     7
100
AcDbLine
 10
241.699999
 20
469.000002
 30
0.0
 11
241.699999
 21
466.799997
 31
0.0
  0
LINE
  5
11E7
100
AcDbEntity
  8
10000_FRONT
370
    50
390
0
  6
CONTINUOUS
 62
     7
100
AcDbLine
 10
241.699999
 20
469.000002
 30
0.0
 11
241.699999
 21
470.500002
 31
0.0
  0
LINE
  5
11E8
100
AcDbEntity
  8
10000_FRONT
370
    50
390
0
  6
CONTINUOUS
 62
     7
100
AcDbLine
 10
227.299999
 20
377.199999
 30
0.0
 11
227.299999
 21
374.999998
 31
0.0
  0
LINE
  5
11E9
100
AcDbEntity
  8
10000_FRONT
370
    50
390
0
  6
CONTINUOUS
 62
     7
100
AcDbLine
 10
227.299999
 20
373.499998
 30
0.0
 11
227.299999
 21
374.999998
 31
0.0
  0
LINE
  5
11EA
100
AcDbEntity
  8
10000_FRONT
370
    50
390
0
  6
CONTINUOUS
 62
     7
100
AcDbLine
 10
254.199999
 20
466.799997
 30
0.0
 11
254.199999
 21
469.000002
 31
0.0
  0
LINE
  5
11EB
100
AcDbEntity
  8
10000_FRONT
370
    50
390
0
  6
CONTINUOUS
 62
     7
100
AcDbLine
 10
254.199999
 20
469.000002
 30
0.0
 11
254.199999
 21
470.500002
 31
0.0
  0
LINE
  5
11EC
100
AcDbEntity
  8
10000_FRONT
370
    50
390
0
  6
CONTINUOUS
 62
     7
100
AcDbLine
 10
225.399999
 20
374.999998
 30
0.0
 11
225.399999
 21
377.199999
 31
0.0
  0
LINE
  5
11ED
100
AcDbEntity
  8
10000_FRONT
370
    50
390
0
  6
CONTINUOUS
 62
     7
100
AcDbLine
 10
225.399999
 20
373.499998
 30
0.0
 11
225.399999
 21
374.999998
 31
0.0
  0
LINE
  5
11EE
100
AcDbEntity
  8
10000_FRONT
370
    50
390
0
  6
CONTINUOUS
 62
     7
100
AcDbLine
 10
256.045
 20
469.000002
 30
0.0
 11
256.045
 21
466.799997
 31
0.0
  0
LINE
  5
11EF
100
AcDbEntity
  8
10000_FRONT
370
    50
390
0
  6
CONTINUOUS
 62
     7
100
AcDbLine
 10
256.045
 20
469.000002
 30
0.0
 11
254.199999
 21
469.000002
 31
0.0
  0
LINE
  5
11F0
100
AcDbEntity
  8
10000_FRONT
370
    50
390
0
  6
CONTINUOUS
 62
     7
100
AcDbLine
 10
211.054998
 20
466.799997
 30
0.0
 11
211.054998
 21
469.000002
 31
0.0
  0
LINE
  5
11F1
100
AcDbEntity
  8
10000_FRONT
370
    50
390
0
  6
CONTINUOUS
 62
     7
100
AcDbLine
 10
212.899999
 20
469.000002
 30
0.0
 11
212.899999
 21
466.799997
 31
0.0
  0
LINE
  5
11F2
100
AcDbEntity
  8
10000_FRONT
370
    50
390
0
  6
CONTINUOUS
 62
     7
100
AcDbLine
 10
212.899999
 20
469.000002
 30
0.0
 11
211.054998
 21
469.000002
 31
0.0
  0
LINE
  5
11F3
100
AcDbEntity
  8
10000_FRONT
370
    50
390
0
  6
CONTINUOUS
 62
     7
100
AcDbLine
 10
225.399999
 20
466.799997
 30
0.0
 11
225.399999
 21
469.000002
 31
0.0
  0
LINE
  5
11F4
100
AcDbEntity
  8
10000_FRONT
370
    50
390
0
  6
CONTINUOUS
 62
     7
100
AcDbLine
 10
227.299999
 20
469.000002
 30
0.0
 11
227.299999
 21
466.799997
 31
0.0
  0
LINE
  5
11F5
100
AcDbEntity
  8
10000_FRONT
370
    50
390
0
  6
CONTINUOUS
 62
     7
100
AcDbLine
 10
227.299999
 20
469.000002
 30
0.0
 11
225.399999
 21
469.000002
 31
0.0
  0
LINE
  5
11F6
100
AcDbEntity
  8
10000_FRONT
370
    50
390
0
  6
CONTINUOUS
 62
     7
100
AcDbLine
 10
241.699999
 20
469.000002
 30
0.0
 11
239.799999
 21
469.000002
 31
0.0
  0
LINE
  5
11F7
100
AcDbEntity
  8
10000_FRONT
370
    50
390
0
  6
CONTINUOUS
 62
     7
100
AcDbLine
 10
212.899999
 20
377.199999
 30
0.0
 11
212.899999
 21
374.999998
 31
0.0
  0
LINE
  5
11F8
100
AcDbEntity
  8
10000_FRONT
370
    50
390
0
  6
CONTINUOUS
 62
     7
100
AcDbLine
 10
212.899999
 20
373.499998
 30
0.0
 11
212.899999
 21
374.999998
 31
0.0
  0
LINE
  5
11F9
100
AcDbEntity
  8
10000_FRONT
370
    50
390
0
  6
CONTINUOUS
 62
     7
100
AcDbLine
 10
211.054998
 20
374.999998
 30
0.0
 11
211.054998
 21
377.199999
 31
0.0
  0
LINE
  5
11FA
100
AcDbEntity
  8
10000_FRONT
370
    50
390
0
  6
CONTINUOUS
 62
     7
100
AcDbLine
 10
212.899999
 20
374.999998
 30
0.0
 11
211.054998
 21
374.999998
 31
0.0
  0
LINE
  5
11FB
100
AcDbEntity
  8
10000_FRONT
370
    50
390
0
  6
CONTINUOUS
 62
     7
100
AcDbLine
 10
256.045
 20
377.199999
 30
0.0
 11
256.045
 21
374.999998
 31
0.0
  0
LINE
  5
11FC
100
AcDbEntity
  8
10000_FRONT
370
    50
390
0
  6
CONTINUOUS
 62
     7
100
AcDbLine
 10
254.199999
 20
374.999998
 30
0.0
 11
254.199999
 21
377.199999
 31
0.0
  0
LINE
  5
11FD
100
AcDbEntity
  8
10000_FRONT
370
    50
390
0
  6
CONTINUOUS
 62
     7
100
AcDbLine
 10
256.045
 20
374.999998
 30
0.0
 11
254.199999
 21
374.999998
 31
0.0
  0
LINE
  5
11FE
100
AcDbEntity
  8
10000_FRONT
370
    50
390
0
  6
CONTINUOUS
 62
     7
100
AcDbLine
 10
241.699999
 20
377.199999
 30
0.0
 11
241.699999
 21
374.999998
 31
0.0
  0
LINE
  5
11FF
100
AcDbEntity
  8
10000_FRONT
370
    50
390
0
  6
CONTINUOUS
 62
     7
100
AcDbLine
 10
239.799999
 20
374.999998
 30
0.0
 11
239.799999
 21
377.199999
 31
0.0
  0
LINE
  5
1200
100
AcDbEntity
  8
10000_FRONT
370
    50
390
0
  6
CONTINUOUS
 62
     7
100
AcDbLine
 10
241.699999
 20
374.999998
 30
0.0
 11
239.799999
 21
374.999998
 31
0.0
  0
LINE
  5
1201
100
AcDbEntity
  8
10000_FRONT
370
    50
390
0
  6
CONTINUOUS
 62
     7
100
AcDbLine
 10
227.299999
 20
374.999998
 30
0.0
 11
225.399999
 21
374.999998
 31
0.0
  0
LINE
  5
1202
100
AcDbEntity
  8
10000_FRONT
370
    50
390
0
  6
CONTINUOUS
 62
     7
100
AcDbLine
 10
256.045
 20
373.499998
 30
0.0
 11
256.045
 21
374.999998
 31
0.0
  0
LINE
  5
1203
100
AcDbEntity
  8
10000_FRONT
370
    50
390
0
  6
CONTINUOUS
 62
     7
100
AcDbLine
 10
256.045
 20
469.000002
 30
0.0
 11
256.045
 21
470.500002
 31
0.0
  0
LINE
  5
1204
100
AcDbEntity
  8
10000_FRONT
370
    50
390
0
  6
CONTINUOUS
 62
     7
100
AcDbLine
 10
212.899999
 20
469.000002
 30
0.0
 11
212.899999
 21
470.500002
 31
0.0
  0
LINE
  5
1205
100
AcDbEntity
  8
10000_FRONT
370
    50
390
0
  6
CONTINUOUS
 62
     7
100
AcDbLine
 10
227.299999
 20
469.000002
 30
0.0
 11
227.299999
 21
470.500002
 31
0.0
  0
LINE
  5
1206
100
AcDbEntity
  8
10000_FRONT
370
    50
390
0
  6
CONTINUOUS
 62
     7
100
AcDbLine
 10
239.799999
 20
373.499998
 30
0.0
 11
239.799999
 21
374.999998
 31
0.0
  0
LINE
  5
1207
100
AcDbEntity
  8
10000_FRONT
370
    50
390
0
  6
CONTINUOUS
 62
     7
100
AcDbLine
 10
254.199999
 20
373.499998
 30
0.0
 11
254.199999
 21
374.999998
 31
0.0
  0
LINE
  5
1208
100
AcDbEntity
  8
10000_FRONT
370
    50
390
0
  6
CONTINUOUS
 62
     7
100
AcDbLine
 10
225.399999
 20
469.000002
 30
0.0
 11
225.399999
 21
470.500002
 31
0.0
  0
LINE
  5
1209
100
AcDbEntity
  8
10000_FRONT
370
    50
390
0
  6
CONTINUOUS
 62
     7
100
AcDbLine
 10
227.299999
 20
470.500002
 30
0.0
 11
225.399999
 21
470.500002
 31
0.0
  0
LINE
  5
120A
100
AcDbEntity
  8
10000_FRONT
370
    50
390
0
  6
CONTINUOUS
 62
     7
100
AcDbLine
 10
212.899999
 20
470.500002
 30
0.0
 11
211.054998
 21
470.500002
 31
0.0
  0
LINE
  5
120B
100
AcDbEntity
  8
10000_FRONT
370
    50
390
0
  6
CONTINUOUS
 62
     7
100
AcDbLine
 10
211.054998
 20
469.000002
 30
0.0
 11
211.054998
 21
470.500002
 31
0.0
  0
LINE
  5
120C
100
AcDbEntity
  8
10000_FRONT
370
    50
390
0
  6
CONTINUOUS
 62
     7
100
AcDbLine
 10
227.299999
 20
373.499998
 30
0.0
 11
225.399999
 21
373.499998
 31
0.0
  0
LINE
  5
120D
100
AcDbEntity
  8
10000_FRONT
370
    50
390
0
  6
CONTINUOUS
 62
     7
100
AcDbLine
 10
241.699999
 20
470.500002
 30
0.0
 11
239.799999
 21
470.500002
 31
0.0
  0
LINE
  5
120E
100
AcDbEntity
  8
10000_FRONT
370
    50
390
0
  6
CONTINUOUS
 62
     7
100
AcDbLine
 10
241.699999
 20
373.499998
 30
0.0
 11
239.799999
 21
373.499998
 31
0.0
  0
LINE
  5
120F
100
AcDbEntity
  8
10000_FRONT
370
    50
390
0
  6
CONTINUOUS
 62
     7
100
AcDbLine
 10
241.699999
 20
373.499998
 30
0.0
 11
241.699999
 21
374.999998
 31
0.0
  0
LINE
  5
1210
100
AcDbEntity
  8
10000_FRONT
370
    50
390
0
  6
CONTINUOUS
 62
     7
100
AcDbLine
 10
256.045
 20
470.500002
 30
0.0
 11
254.199999
 21
470.500002
 31
0.0
  0
LINE
  5
1211
100
AcDbEntity
  8
10000_FRONT
370
    50
390
0
  6
CONTINUOUS
 62
     7
100
AcDbLine
 10
256.045
 20
373.499998
 30
0.0
 11
254.199999
 21
373.499998
 31
0.0
  0
LINE
  5
1212
100
AcDbEntity
  8
10000_FRONT
370
    50
390
0
  6
CONTINUOUS
 62
     7
100
AcDbLine
 10
212.899999
 20
373.499998
 30
0.0
 11
211.054998
 21
373.499998
 31
0.0
  0
LINE
  5
1213
100
AcDbEntity
  8
10000_FRONT
370
    50
390
0
  6
CONTINUOUS
 62
     7
100
AcDbLine
 10
211.054998
 20
373.499998
 30
0.0
 11
211.054998
 21
374.999998
 31
0.0
  0
LINE
  5
1214
100
AcDbEntity
  8
10000_FRONT
370
    50
390
0
  6
CONTINUOUS
 62
     7
100
AcDbLine
 10
219.049999
 20
435.399998
 30
0.0
 11
217.649999
 21
435.399998
 31
0.0
  0
LINE
  5
1215
100
AcDbEntity
  8
10000_FRONT
370
    50
390
0
  6
CONTINUOUS
 62
     7
100
AcDbLine
 10
217.649999
 20
435.399998
 30
0.0
 11
217.649999
 21
434.399998
 31
0.0
  0
LINE
  5
1216
100
AcDbEntity
  8
10000_FRONT
370
    50
390
0
  6
CONTINUOUS
 62
     7
100
AcDbLine
 10
217.649999
 20
434.399998
 30
0.0
 11
219.049999
 21
434.399998
 31
0.0
  0
LINE
  5
1217
100
AcDbEntity
  8
10000_FRONT
370
    50
390
0
  6
CONTINUOUS
 62
     7
100
AcDbLine
 10
219.049999
 20
434.399998
 30
0.0
 11
219.049999
 21
432.899998
 31
0.0
  0
LINE
  5
1218
100
AcDbEntity
  8
10000_FRONT
370
    50
390
0
  6
CONTINUOUS
 62
     7
100
AcDbLine
 10
219.049999
 20
432.899998
 30
0.0
 11
220.249999
 21
432.899998
 31
0.0
  0
LINE
  5
1219
100
AcDbEntity
  8
10000_FRONT
370
    50
390
0
  6
CONTINUOUS
 62
     7
100
AcDbLine
 10
220.249999
 20
432.899998
 30
0.0
 11
220.249999
 21
434.399998
 31
0.0
  0
LINE
  5
121A
100
AcDbEntity
  8
10000_FRONT
370
    50
390
0
  6
CONTINUOUS
 62
     7
100
AcDbLine
 10
220.249999
 20
434.399998
 30
0.0
 11
221.649999
 21
434.399998
 31
0.0
  0
LINE
  5
121B
100
AcDbEntity
  8
10000_FRONT
370
    50
390
0
  6
CONTINUOUS
 62
     7
100
AcDbLine
 10
221.649999
 20
434.399998
 30
0.0
 11
221.649999
 21
435.399998
 31
0.0
  0
LINE
  5
121C
100
AcDbEntity
  8
10000_FRONT
370
    50
390
0
  6
CONTINUOUS
 62
     7
100
AcDbLine
 10
221.649999
 20
435.399998
 30
0.0
 11
220.249999
 21
435.399998
 31
0.0
  0
LINE
  5
121D
100
AcDbEntity
  8
10000_FRONT
370
    50
390
0
  6
CONTINUOUS
 62
     7
100
AcDbLine
 10
220.249999
 20
435.399998
 30
0.0
 11
220.249999
 21
436.899998
 31
0.0
  0
LINE
  5
121E
100
AcDbEntity
  8
10000_FRONT
370
    50
390
0
  6
CONTINUOUS
 62
     7
100
AcDbLine
 10
220.249999
 20
436.899998
 30
0.0
 11
219.049999
 21
436.899998
 31
0.0
  0
LINE
  5
121F
100
AcDbEntity
  8
10000_FRONT
370
    50
390
0
  6
CONTINUOUS
 62
     7
100
AcDbLine
 10
219.049999
 20
436.899998
 30
0.0
 11
219.049999
 21
435.399998
 31
0.0
  0
ARC
  5
1220
100
AcDbEntity
  8
10000_FRONT
370
    50
390
0
  6
CONTINUOUS
 62
     7
100
AcDbCircle
 10
219.649999
 20
434.899998
 30
0.0
 40
3.45
100
AcDbArc
 50
89.999994
 51
270.000006
  0
ARC
  5
1221
100
AcDbEntity
  8
10000_FRONT
370
    50
390
0
  6
CONTINUOUS
 62
     7
100
AcDbCircle
 10
219.649999
 20
434.899998
 30
0.0
 40
3.25
100
AcDbArc
 50
89.999993
 51
270.000007
  0
ARC
  5
1222
100
AcDbEntity
  8
10000_FRONT
370
    50
390
0
  6
CONTINUOUS
 62
     7
100
AcDbCircle
 10
241.449999
 20
422.099998
 30
0.0
 40
8.0
100
AcDbArc
 50
20.258252
 51
89.999999
  0
ARC
  5
1223
100
AcDbEntity
  8
10000_FRONT
370
    50
390
0
  6
CONTINUOUS
 62
     7
100
AcDbCircle
 10
229.449999
 20
422.099998
 30
0.0
 40
2.7
100
AcDbArc
 50
89.999998
 51
270.000002
  0
ARC
  5
1224
100
AcDbEntity
  8
10000_FRONT
370
    50
390
0
  6
CONTINUOUS
 62
     7
100
AcDbCircle
 10
243.404042
 20
357.944975
 30
0.0
 40
67.154863
100
AcDbArc
 50
80.643421
 51
102.251966
  0
LINE
  5
1225
100
AcDbEntity
  8
10000_FRONT
370
    50
390
0
  6
CONTINUOUS
 62
     7
100
AcDbLine
 10
229.131223
 20
420.634109
 30
0.0
 11
229.131223
 21
420.634262
 31
0.0
  0
ARC
  5
1226
100
AcDbEntity
  8
10000_FRONT
370
    50
390
0
  6
CONTINUOUS
 62
     7
100
AcDbCircle
 10
229.449999
 20
422.099998
 30
0.0
 40
1.5
100
AcDbArc
 50
101.418889
 51
257.730083
  0
ARC
  5
1227
100
AcDbEntity
  8
10000_FRONT
370
    50
390
0
  6
CONTINUOUS
 62
     7
100
AcDbCircle
 10
254.200028
 20
423.466365
 30
0.0
 40
0.75
100
AcDbArc
 50
0.0
 51
80.643366
  0
ARC
  5
1228
100
AcDbEntity
  8
10000_FRONT
370
    50
390
0
  6
CONTINUOUS
 62
     7
100
AcDbCircle
 10
243.404047
 20
486.254701
 30
0.0
 40
67.154863
100
AcDbArc
 50
257.728992
 51
279.356575
  0
ARC
  5
1229
100
AcDbEntity
  8
10000_FRONT
370
    50
390
0
  6
CONTINUOUS
 62
     7
100
AcDbCircle
 10
254.200028
 20
420.733311
 30
0.0
 40
0.75
100
AcDbArc
 50
279.356636
 51
0.0
  0
LINE
  5
122A
100
AcDbEntity
  8
10000_FRONT
370
    50
390
0
  6
CONTINUOUS
 62
     7
100
AcDbLine
 10
254.950027
 20
423.466365
 30
0.0
 11
254.950027
 21
420.733311
 31
0.0
  0
ARC
  5
122B
100
AcDbEntity
  8
10000_FRONT
370
    50
390
0
  6
CONTINUOUS
 62
     7
100
AcDbCircle
 10
241.449999
 20
422.099998
 30
0.0
 40
7.381703
100
AcDbArc
 50
199.00038
 51
337.510427
  0
ARC
  5
122C
100
AcDbEntity
  8
10000_FRONT
370
    50
390
0
  6
CONTINUOUS
 62
     7
100
AcDbCircle
 10
241.449999
 20
422.099998
 30
0.0
 40
7.381703
100
AcDbArc
 50
89.999999
 51
161.00237
  0
LINE
  5
122D
100
AcDbEntity
  8
10000_FRONT
370
    50
390
0
  6
CONTINUOUS
 62
     7
100
AcDbLine
 10
241.449999
 20
425.071403
 30
0.0
 11
241.449999
 21
429.481701
 31
0.0
  0
ARC
  5
122E
100
AcDbEntity
  8
10000_FRONT
370
    50
390
0
  6
CONTINUOUS
 62
     7
100
AcDbCircle
 10
241.449999
 20
422.099998
 30
0.0
 40
7.381703
100
AcDbArc
 50
22.486798
 51
89.999999
  0
LINE
  5
122F
100
AcDbEntity
  8
10000_FRONT
370
    50
390
0
  6
CONTINUOUS
 62
     7
100
AcDbLine
 10
241.349999
 20
440.209997
 30
0.0
 11
241.349999
 21
444.009998
 31
0.0
  0
ARC
  5
1230
100
AcDbEntity
  8
10000_FRONT
370
    50
390
0
  6
CONTINUOUS
 62
     7
100
AcDbCircle
 10
241.149999
 20
444.009998
 30
0.0
 40
0.2
100
AcDbArc
 50
0.000066
 51
90.000027
  0
LINE
  5
1231
100
AcDbEntity
  8
10000_FRONT
370
    50
390
0
  6
CONTINUOUS
 62
     7
100
AcDbLine
 10
241.149999
 20
444.209997
 30
0.0
 11
225.949999
 21
444.209997
 31
0.0
  0
ARC
  5
1232
100
AcDbEntity
  8
10000_FRONT
370
    50
390
0
  6
CONTINUOUS
 62
     7
100
AcDbCircle
 10
225.949999
 20
444.009998
 30
0.0
 40
0.2
100
AcDbArc
 50
89.999973
 51
179.999934
  0
LINE
  5
1233
100
AcDbEntity
  8
10000_FRONT
370
    50
390
0
  6
CONTINUOUS
 62
     7
100
AcDbLine
 10
225.749999
 20
444.009998
 30
0.0
 11
225.749999
 21
440.209997
 31
0.0
  0
ARC
  5
1234
100
AcDbEntity
  8
10000_FRONT
370
    50
390
0
  6
CONTINUOUS
 62
     7
100
AcDbCircle
 10
225.949999
 20
440.209998
 30
0.0
 40
0.2
100
AcDbArc
 50
180.000262
 51
270.000027
  0
LINE
  5
1235
100
AcDbEntity
  8
10000_FRONT
370
    50
390
0
  6
CONTINUOUS
 62
     7
100
AcDbLine
 10
225.949999
 20
440.009998
 30
0.0
 11
241.149999
 21
440.009998
 31
0.0
  0
ARC
  5
1236
100
AcDbEntity
  8
10000_FRONT
370
    50
390
0
  6
CONTINUOUS
 62
     7
100
AcDbCircle
 10
241.149999
 20
440.209998
 30
0.0
 40
0.2
100
AcDbArc
 50
269.999973
 51
359.999738
  0
LINE
  5
1237
100
AcDbEntity
  8
10000_FRONT
370
    50
390
0
  6
CONTINUOUS
 62
     7
100
AcDbLine
 10
238.885999
 20
441.056293
 30
0.0
 11
238.885999
 21
441.494551
 31
0.0
  0
ARC
  5
1238
100
AcDbEntity
  8
10000_FRONT
370
    50
390
0
  6
CONTINUOUS
 62
     7
100
AcDbCircle
 10
239.662517
 20
443.561058
 30
0.0
 40
2.207585
100
AcDbArc
 50
249.405601
 51
266.665878
  0
ARC
  5
1239
100
AcDbEntity
  8
10000_FRONT
370
    50
390
0
  6
CONTINUOUS
 62
     7
100
AcDbCircle
 10
239.577207
 20
441.983734
 30
0.0
 40
0.628004
100
AcDbArc
 50
266.06654
 51
292.858123
  0
ARC
  5
123A
100
AcDbEntity
  8
10000_FRONT
370
    50
390
0
  6
CONTINUOUS
 62
     7
100
AcDbCircle
 10
239.759363
 20
441.549885
 30
0.0
 40
0.157468
100
AcDbArc
 50
293.104539
 51
0.079522
  0
ARC
  5
123B
100
AcDbEntity
  8
10000_FRONT
370
    50
390
0
  6
CONTINUOUS
 62
     7
100
AcDbCircle
 10
239.73571
 20
441.547791
 30
0.0
 40
0.181136
100
AcDbArc
 50
0.73168
 51
61.854263
  0
ARC
  5
123C
100
AcDbEntity
  8
10000_FRONT
370
    50
390
0
  6
CONTINUOUS
 62
     7
100
AcDbCircle
 10
235.531544
 20
432.850314
 30
0.0
 40
9.841273
100
AcDbArc
 50
64.158716
 51
67.400278
  0
ARC
  5
123D
100
AcDbEntity
  8
10000_FRONT
370
    50
390
0
  6
CONTINUOUS
 62
     7
100
AcDbCircle
 10
239.629406
 20
442.740319
 30
0.0
 40
0.864246
100
AcDbArc
 50
212.423459
 51
248.556782
  0
ARC
  5
123E
100
AcDbEntity
  8
10000_FRONT
370
    50
390
0
  6
CONTINUOUS
 62
     7
100
AcDbCircle
 10
239.415022
 20
442.549893
 30
0.0
 40
0.582983
100
AcDbArc
 50
153.406547
 51
207.918194
  0
ARC
  5
123F
100
AcDbEntity
  8
10000_FRONT
370
    50
390
0
  6
CONTINUOUS
 62
     7
100
AcDbCircle
 10
239.504162
 20
442.456878
 30
0.0
 40
0.70566
100
AcDbArc
 50
101.936965
 51
149.891059
  0
ARC
  5
1240
100
AcDbEntity
  8
10000_FRONT
370
    50
390
0
  6
CONTINUOUS
 62
     7
100
AcDbCircle
 10
239.804015
 20
441.123606
 30
0.0
 40
2.072196
100
AcDbArc
 50
74.886923
 51
102.42362
  0
LINE
  5
1241
100
AcDbEntity
  8
10000_FRONT
370
    50
390
0
  6
CONTINUOUS
 62
     7
100
AcDbLine
 10
240.344288
 20
443.12413
 30
0.0
 11
240.344288
 21
442.715193
 31
0.0
  0
ARC
  5
1242
100
AcDbEntity
  8
10000_FRONT
370
    50
390
0
  6
CONTINUOUS
 62
     7
100
AcDbCircle
 10
239.794472
 20
441.145622
 30
0.0
 40
1.663085
100
AcDbArc
 50
70.694819
 51
95.842696
  0
ARC
  5
1243
100
AcDbEntity
  8
10000_FRONT
370
    50
390
0
  6
CONTINUOUS
 62
     7
100
AcDbCircle
 10
239.647405
 20
442.550344
 30
0.0
 40
0.25071
100
AcDbArc
 50
95.087186
 51
138.888472
  0
ARC
  5
1244
100
AcDbEntity
  8
10000_FRONT
370
    50
390
0
  6
CONTINUOUS
 62
     7
100
AcDbCircle
 10
239.561524
 20
442.642691
 30
0.0
 40
0.125968
100
AcDbArc
 50
144.861278
 51
206.967242
  0
ARC
  5
1245
100
AcDbEntity
  8
10000_FRONT
370
    50
390
0
  6
CONTINUOUS
 62
     7
100
AcDbCircle
 10
239.863916
 20
442.972566
 30
0.0
 40
0.567198
100
AcDbArc
 50
223.023589
 51
247.99647
  0
LINE
  5
1246
100
AcDbEntity
  8
10000_FRONT
370
    50
390
0
  6
CONTINUOUS
 62
     7
100
AcDbLine
 10
239.651407
 20
442.446682
 30
0.0
 11
240.034112
 21
442.273847
 31
0.0
  0
ARC
  5
1247
100
AcDbEntity
  8
10000_FRONT
370
    50
390
0
  6
CONTINUOUS
 62
     7
100
AcDbCircle
 10
239.684576
 20
441.446503
 30
0.0
 40
0.898151
100
AcDbArc
 50
32.198964
 51
67.096931
  0
ARC
  5
1248
100
AcDbEntity
  8
10000_FRONT
370
    50
390
0
  6
CONTINUOUS
 62
     7
100
AcDbCircle
 10
239.891732
 20
441.642698
 30
0.0
 40
0.620808
100
AcDbArc
 50
333.897389
 51
27.057421
  0
ARC
  5
1249
100
AcDbEntity
  8
10000_FRONT
370
    50
390
0
  6
CONTINUOUS
 62
     7
100
AcDbCircle
 10
239.786497
 20
441.747624
 30
0.0
 40
0.762982
100
AcDbArc
 50
283.385315
 51
330.296234
  0
ARC
  5
124A
100
AcDbEntity
  8
10000_FRONT
370
    50
390
0
  6
CONTINUOUS
 62
     7
100
AcDbCircle
 10
239.550304
 20
443.69045
 30
0.0
 40
2.716631
100
AcDbArc
 50
255.84578
 51
278.740596
  0
LINE
  5
124B
100
AcDbEntity
  8
10000_FRONT
370
    50
390
0
  6
CONTINUOUS
 62
     7
100
AcDbLine
 10
234.677999
 20
443.139563
 30
0.0
 11
236.252025
 21
443.139563
 31
0.0
  0
LINE
  5
124C
100
AcDbEntity
  8
10000_FRONT
370
    50
390
0
  6
CONTINUOUS
 62
     7
100
AcDbLine
 10
236.252025
 20
443.139563
 30
0.0
 11
236.252025
 21
442.758402
 31
0.0
  0
LINE
  5
124D
100
AcDbEntity
  8
10000_FRONT
370
    50
390
0
  6
CONTINUOUS
 62
     7
100
AcDbLine
 10
236.252025
 20
442.758402
 30
0.0
 11
235.299893
 21
442.758402
 31
0.0
  0
LINE
  5
124E
100
AcDbEntity
  8
10000_FRONT
370
    50
390
0
  6
CONTINUOUS
 62
     7
100
AcDbLine
 10
235.299893
 20
442.758402
 30
0.0
 11
235.299893
 21
442.273847
 31
0.0
  0
LINE
  5
124F
100
AcDbEntity
  8
10000_FRONT
370
    50
390
0
  6
CONTINUOUS
 62
     7
100
AcDbLine
 10
235.299893
 20
442.273847
 30
0.0
 11
236.131658
 21
442.273847
 31
0.0
  0
LINE
  5
1250
100
AcDbEntity
  8
10000_FRONT
370
    50
390
0
  6
CONTINUOUS
 62
     7
100
AcDbLine
 10
236.131658
 20
442.273847
 30
0.0
 11
236.131658
 21
441.909662
 31
0.0
  0
LINE
  5
1251
100
AcDbEntity
  8
10000_FRONT
370
    50
390
0
  6
CONTINUOUS
 62
     7
100
AcDbLine
 10
236.131658
 20
441.909662
 30
0.0
 11
235.299893
 21
441.909662
 31
0.0
  0
LINE
  5
1252
100
AcDbEntity
  8
10000_FRONT
370
    50
390
0
  6
CONTINUOUS
 62
     7
100
AcDbLine
 10
235.299893
 20
441.909662
 30
0.0
 11
235.299893
 21
441.408134
 31
0.0
  0
LINE
  5
1253
100
AcDbEntity
  8
10000_FRONT
370
    50
390
0
  6
CONTINUOUS
 62
     7
100
AcDbLine
 10
235.299893
 20
441.408134
 30
0.0
 11
236.252025
 21
441.408134
 31
0.0
  0
LINE
  5
1254
100
AcDbEntity
  8
10000_FRONT
370
    50
390
0
  6
CONTINUOUS
 62
     7
100
AcDbLine
 10
236.252025
 20
441.408134
 30
0.0
 11
236.252025
 21
441.009998
 31
0.0
  0
LINE
  5
1255
100
AcDbEntity
  8
10000_FRONT
370
    50
390
0
  6
CONTINUOUS
 62
     7
100
AcDbLine
 10
236.252025
 20
441.009998
 30
0.0
 11
234.677999
 21
441.009998
 31
0.0
  0
LINE
  5
1256
100
AcDbEntity
  8
10000_FRONT
370
    50
390
0
  6
CONTINUOUS
 62
     7
100
AcDbLine
 10
234.677999
 20
441.009998
 30
0.0
 11
234.677999
 21
443.139563
 31
0.0
  0
LINE
  5
1257
100
AcDbEntity
  8
10000_FRONT
370
    50
390
0
  6
CONTINUOUS
 62
     7
100
AcDbLine
 10
229.613999
 20
443.139563
 30
0.0
 11
231.188025
 21
443.139563
 31
0.0
  0
LINE
  5
1258
100
AcDbEntity
  8
10000_FRONT
370
    50
390
0
  6
CONTINUOUS
 62
     7
100
AcDbLine
 10
231.188025
 20
443.139563
 30
0.0
 11
231.188025
 21
442.758402
 31
0.0
  0
LINE
  5
1259
100
AcDbEntity
  8
10000_FRONT
370
    50
390
0
  6
CONTINUOUS
 62
     7
100
AcDbLine
 10
231.188025
 20
442.758402
 30
0.0
 11
230.235893
 21
442.758402
 31
0.0
  0
LINE
  5
125A
100
AcDbEntity
  8
10000_FRONT
370
    50
390
0
  6
CONTINUOUS
 62
     7
100
AcDbLine
 10
230.235893
 20
442.758402
 30
0.0
 11
230.235893
 21
442.273847
 31
0.0
  0
LINE
  5
125B
100
AcDbEntity
  8
10000_FRONT
370
    50
390
0
  6
CONTINUOUS
 62
     7
100
AcDbLine
 10
230.235893
 20
442.273847
 30
0.0
 11
231.067658
 21
442.273847
 31
0.0
  0
LINE
  5
125C
100
AcDbEntity
  8
10000_FRONT
370
    50
390
0
  6
CONTINUOUS
 62
     7
100
AcDbLine
 10
231.067658
 20
442.273847
 30
0.0
 11
231.067658
 21
441.909662
 31
0.0
  0
LINE
  5
125D
100
AcDbEntity
  8
10000_FRONT
370
    50
390
0
  6
CONTINUOUS
 62
     7
100
AcDbLine
 10
231.067658
 20
441.909662
 30
0.0
 11
230.235893
 21
441.909662
 31
0.0
  0
LINE
  5
125E
100
AcDbEntity
  8
10000_FRONT
370
    50
390
0
  6
CONTINUOUS
 62
     7
100
AcDbLine
 10
230.235893
 20
441.909662
 30
0.0
 11
230.235893
 21
441.408134
 31
0.0
  0
LINE
  5
125F
100
AcDbEntity
  8
10000_FRONT
370
    50
390
0
  6
CONTINUOUS
 62
     7
100
AcDbLine
 10
230.235893
 20
441.408134
 30
0.0
 11
231.188025
 21
441.408134
 31
0.0
  0
LINE
  5
1260
100
AcDbEntity
  8
10000_FRONT
370
    50
390
0
  6
CONTINUOUS
 62
     7
100
AcDbLine
 10
231.188025
 20
441.408134
 30
0.0
 11
231.188025
 21
441.009998
 31
0.0
  0
LINE
  5
1261
100
AcDbEntity
  8
10000_FRONT
370
    50
390
0
  6
CONTINUOUS
 62
     7
100
AcDbLine
 10
231.188025
 20
441.009998
 30
0.0
 11
229.613999
 21
441.009998
 31
0.0
  0
LINE
  5
1262
100
AcDbEntity
  8
10000_FRONT
370
    50
390
0
  6
CONTINUOUS
 62
     7
100
AcDbLine
 10
229.613999
 20
441.009998
 30
0.0
 11
229.613999
 21
443.139563
 31
0.0
  0
LINE
  5
1263
100
AcDbEntity
  8
10000_FRONT
370
    50
390
0
  6
CONTINUOUS
 62
     7
100
AcDbLine
 10
226.549999
 20
441.056293
 30
0.0
 11
226.549999
 21
441.494551
 31
0.0
  0
ARC
  5
1264
100
AcDbEntity
  8
10000_FRONT
370
    50
390
0
  6
CONTINUOUS
 62
     7
100
AcDbCircle
 10
227.326517
 20
443.561058
 30
0.0
 40
2.207585
100
AcDbArc
 50
249.405602
 51
266.665879
  0
ARC
  5
1265
100
AcDbEntity
  8
10000_FRONT
370
    50
390
0
  6
CONTINUOUS
 62
     7
100
AcDbCircle
 10
227.241207
 20
441.983734
 30
0.0
 40
0.628004
100
AcDbArc
 50
266.066543
 51
292.858125
  0
ARC
  5
1266
100
AcDbEntity
  8
10000_FRONT
370
    50
390
0
  6
CONTINUOUS
 62
     7
100
AcDbCircle
 10
227.423363
 20
441.549885
 30
0.0
 40
0.157468
100
AcDbArc
 50
293.104551
 51
0.079522
  0
ARC
  5
1267
100
AcDbEntity
  8
10000_FRONT
370
    50
390
0
  6
CONTINUOUS
 62
     7
100
AcDbCircle
 10
227.39971
 20
441.547791
 30
0.0
 40
0.181136
100
AcDbArc
 50
0.73168
 51
61.854254
  0
ARC
  5
1268
100
AcDbEntity
  8
10000_FRONT
370
    50
390
0
  6
CONTINUOUS
 62
     7
100
AcDbCircle
 10
223.195544
 20
432.850314
 30
0.0
 40
9.841273
100
AcDbArc
 50
64.158716
 51
67.400278
  0
ARC
  5
1269
100
AcDbEntity
  8
10000_FRONT
370
    50
390
0
  6
CONTINUOUS
 62
     7
100
AcDbCircle
 10
227.293406
 20
442.740319
 30
0.0
 40
0.864246
100
AcDbArc
 50
212.42346
 51
248.556784
  0
ARC
  5
126A
100
AcDbEntity
  8
10000_FRONT
370
    50
390
0
  6
CONTINUOUS
 62
     7
100
AcDbCircle
 10
227.079022
 20
442.549893
 30
0.0
 40
0.582983
100
AcDbArc
 50
153.406546
 51
207.918196
  0
ARC
  5
126B
100
AcDbEntity
  8
10000_FRONT
370
    50
390
0
  6
CONTINUOUS
 62
     7
100
AcDbCircle
 10
227.168162
 20
442.456878
 30
0.0
 40
0.70566
100
AcDbArc
 50
101.937
 51
149.891057
  0
ARC
  5
126C
100
AcDbEntity
  8
10000_FRONT
370
    50
390
0
  6
CONTINUOUS
 62
     7
100
AcDbCircle
 10
227.468015
 20
441.123606
 30
0.0
 40
2.072196
100
AcDbArc
 50
74.886922
 51
102.423632
  0
LINE
  5
126D
100
AcDbEntity
  8
10000_FRONT
370
    50
390
0
  6
CONTINUOUS
 62
     7
100
AcDbLine
 10
228.008288
 20
443.12413
 30
0.0
 11
228.008288
 21
442.715193
 31
0.0
  0
ARC
  5
126E
100
AcDbEntity
  8
10000_FRONT
370
    50
390
0
  6
CONTINUOUS
 62
     7
100
AcDbCircle
 10
227.458472
 20
441.145622
 30
0.0
 40
1.663085
100
AcDbArc
 50
70.694818
 51
95.842711
  0
ARC
  5
126F
100
AcDbEntity
  8
10000_FRONT
370
    50
390
0
  6
CONTINUOUS
 62
     7
100
AcDbCircle
 10
227.311405
 20
442.550344
 30
0.0
 40
0.25071
100
AcDbArc
 50
95.087287
 51
138.888538
  0
ARC
  5
1270
100
AcDbEntity
  8
10000_FRONT
370
    50
390
0
  6
CONTINUOUS
 62
     7
100
AcDbCircle
 10
227.225524
 20
442.642691
 30
0.0
 40
0.125968
100
AcDbArc
 50
144.861394
 51
206.96725
  0
ARC
  5
1271
100
AcDbEntity
  8
10000_FRONT
370
    50
390
0
  6
CONTINUOUS
 62
     7
100
AcDbCircle
 10
227.527916
 20
442.972566
 30
0.0
 40
0.567198
100
AcDbArc
 50
223.023592
 51
247.996474
  0
LINE
  5
1272
100
AcDbEntity
  8
10000_FRONT
370
    50
390
0
  6
CONTINUOUS
 62
     7
100
AcDbLine
 10
227.315408
 20
442.446682
 30
0.0
 11
227.698112
 21
442.273847
 31
0.0
  0
ARC
  5
1273
100
AcDbEntity
  8
10000_FRONT
370
    50
390
0
  6
CONTINUOUS
 62
     7
100
AcDbCircle
 10
227.348576
 20
441.446503
 30
0.0
 40
0.898151
100
AcDbArc
 50
32.198962
 51
67.096929
  0
ARC
  5
1274
100
AcDbEntity
  8
10000_FRONT
370
    50
390
0
  6
CONTINUOUS
 62
     7
100
AcDbCircle
 10
227.555732
 20
441.642698
 30
0.0
 40
0.620808
100
AcDbArc
 50
333.89739
 51
27.057419
  0
ARC
  5
1275
100
AcDbEntity
  8
10000_FRONT
370
    50
390
0
  6
CONTINUOUS
 62
     7
100
AcDbCircle
 10
227.450497
 20
441.747624
 30
0.0
 40
0.762982
100
AcDbArc
 50
283.385317
 51
330.296235
  0
ARC
  5
1276
100
AcDbEntity
  8
10000_FRONT
370
    50
390
0
  6
CONTINUOUS
 62
     7
100
AcDbCircle
 10
227.214304
 20
443.69045
 30
0.0
 40
2.716631
100
AcDbArc
 50
255.845781
 51
278.740597
  0
LINE
  5
1277
100
AcDbEntity
  8
10000_FRONT
370
    50
390
0
  6
CONTINUOUS
 62
     7
100
AcDbLine
 10
228.489999
 20
441.009998
 30
0.0
 11
228.489999
 21
443.139563
 31
0.0
  0
LINE
  5
1278
100
AcDbEntity
  8
10000_FRONT
370
    50
390
0
  6
CONTINUOUS
 62
     7
100
AcDbLine
 10
228.489999
 20
443.139563
 30
0.0
 11
229.111893
 21
443.139563
 31
0.0
  0
LINE
  5
1279
100
AcDbEntity
  8
10000_FRONT
370
    50
390
0
  6
CONTINUOUS
 62
     7
100
AcDbLine
 10
229.111893
 20
443.139563
 30
0.0
 11
229.111893
 21
441.009998
 31
0.0
  0
LINE
  5
127A
100
AcDbEntity
  8
10000_FRONT
370
    50
390
0
  6
CONTINUOUS
 62
     7
100
AcDbLine
 10
229.111893
 20
441.009998
 30
0.0
 11
228.489999
 21
441.009998
 31
0.0
  0
LINE
  5
127B
100
AcDbEntity
  8
10000_FRONT
370
    50
390
0
  6
CONTINUOUS
 62
     7
100
AcDbLine
 10
231.569999
 20
441.009998
 30
0.0
 11
231.569999
 21
443.139563
 31
0.0
  0
LINE
  5
127C
100
AcDbEntity
  8
10000_FRONT
370
    50
390
0
  6
CONTINUOUS
 62
     7
100
AcDbLine
 10
231.569999
 20
443.139563
 30
0.0
 11
232.340037
 21
443.139563
 31
0.0
  0
LINE
  5
127D
100
AcDbEntity
  8
10000_FRONT
370
    50
390
0
  6
CONTINUOUS
 62
     7
100
AcDbLine
 10
232.340037
 20
443.139563
 30
0.0
 11
232.886317
 21
441.841762
 31
0.0
  0
LINE
  5
127E
100
AcDbEntity
  8
10000_FRONT
370
    50
390
0
  6
CONTINUOUS
 62
     7
100
AcDbLine
 10
232.886317
 20
441.841762
 30
0.0
 11
233.437226
 21
443.139563
 31
0.0
  0
LINE
  5
127F
100
AcDbEntity
  8
10000_FRONT
370
    50
390
0
  6
CONTINUOUS
 62
     7
100
AcDbLine
 10
233.437226
 20
443.139563
 30
0.0
 11
234.201091
 21
443.139563
 31
0.0
  0
LINE
  5
1280
100
AcDbEntity
  8
10000_FRONT
370
    50
390
0
  6
CONTINUOUS
 62
     7
100
AcDbLine
 10
234.201091
 20
443.139563
 30
0.0
 11
234.201091
 21
441.009998
 31
0.0
  0
LINE
  5
1281
100
AcDbEntity
  8
10000_FRONT
370
    50
390
0
  6
CONTINUOUS
 62
     7
100
AcDbLine
 10
234.201091
 20
441.009998
 30
0.0
 11
233.582283
 21
441.009998
 31
0.0
  0
LINE
  5
1282
100
AcDbEntity
  8
10000_FRONT
370
    50
390
0
  6
CONTINUOUS
 62
     7
100
AcDbLine
 10
233.582283
 20
441.009998
 30
0.0
 11
233.582283
 21
442.417362
 31
0.0
  0
LINE
  5
1283
100
AcDbEntity
  8
10000_FRONT
370
    50
390
0
  6
CONTINUOUS
 62
     7
100
AcDbLine
 10
233.582283
 20
442.417362
 30
0.0
 11
232.983536
 21
441.009998
 31
0.0
  0
LINE
  5
1284
100
AcDbEntity
  8
10000_FRONT
370
    50
390
0
  6
CONTINUOUS
 62
     7
100
AcDbLine
 10
232.983536
 20
441.009998
 30
0.0
 11
232.579227
 21
441.009998
 31
0.0
  0
LINE
  5
1285
100
AcDbEntity
  8
10000_FRONT
370
    50
390
0
  6
CONTINUOUS
 62
     7
100
AcDbLine
 10
232.579227
 20
441.009998
 30
0.0
 11
231.98511
 21
442.412733
 31
0.0
  0
LINE
  5
1286
100
AcDbEntity
  8
10000_FRONT
370
    50
390
0
  6
CONTINUOUS
 62
     7
100
AcDbLine
 10
231.98511
 20
442.412733
 30
0.0
 11
231.98511
 21
441.009998
 31
0.0
  0
LINE
  5
1287
100
AcDbEntity
  8
10000_FRONT
370
    50
390
0
  6
CONTINUOUS
 62
     7
100
AcDbLine
 10
231.98511
 20
441.009998
 30
0.0
 11
231.569999
 21
441.009998
 31
0.0
  0
LINE
  5
1288
100
AcDbEntity
  8
10000_FRONT
370
    50
390
0
  6
CONTINUOUS
 62
     7
100
AcDbLine
 10
236.633999
 20
441.009998
 30
0.0
 11
236.633999
 21
443.139563
 31
0.0
  0
LINE
  5
1289
100
AcDbEntity
  8
10000_FRONT
370
    50
390
0
  6
CONTINUOUS
 62
     7
100
AcDbLine
 10
236.633999
 20
443.139563
 30
0.0
 11
237.325336
 21
443.139563
 31
0.0
  0
LINE
  5
128A
100
AcDbEntity
  8
10000_FRONT
370
    50
390
0
  6
CONTINUOUS
 62
     7
100
AcDbLine
 10
237.325336
 20
443.139563
 30
0.0
 11
238.090744
 21
441.806271
 31
0.0
  0
LINE
  5
128B
100
AcDbEntity
  8
10000_FRONT
370
    50
390
0
  6
CONTINUOUS
 62
     7
100
AcDbLine
 10
238.090744
 20
441.806271
 30
0.0
 11
238.090744
 21
443.139563
 31
0.0
  0
LINE
  5
128C
100
AcDbEntity
  8
10000_FRONT
370
    50
390
0
  6
CONTINUOUS
 62
     7
100
AcDbLine
 10
238.090744
 20
443.139563
 30
0.0
 11
238.501226
 21
443.139563
 31
0.0
  0
LINE
  5
128D
100
AcDbEntity
  8
10000_FRONT
370
    50
390
0
  6
CONTINUOUS
 62
     7
100
AcDbLine
 10
238.501226
 20
443.139563
 30
0.0
 11
238.501226
 21
441.009998
 31
0.0
  0
LINE
  5
128E
100
AcDbEntity
  8
10000_FRONT
370
    50
390
0
  6
CONTINUOUS
 62
     7
100
AcDbLine
 10
238.501226
 20
441.009998
 30
0.0
 11
237.831493
 21
441.009998
 31
0.0
  0
LINE
  5
128F
100
AcDbEntity
  8
10000_FRONT
370
    50
390
0
  6
CONTINUOUS
 62
     7
100
AcDbLine
 10
237.831493
 20
441.009998
 30
0.0
 11
237.067628
 21
442.360266
 31
0.0
  0
LINE
  5
1290
100
AcDbEntity
  8
10000_FRONT
370
    50
390
0
  6
CONTINUOUS
 62
     7
100
AcDbLine
 10
237.067628
 20
442.360266
 30
0.0
 11
237.067628
 21
441.009998
 31
0.0
  0
LINE
  5
1291
100
AcDbEntity
  8
10000_FRONT
370
    50
390
0
  6
CONTINUOUS
 62
     7
100
AcDbLine
 10
237.067628
 20
441.009998
 30
0.0
 11
236.633999
 21
441.009998
 31
0.0
  0
LINE
  5
1292
100
AcDbEntity
  8
10000_FRONT
370
    50
390
0
  6
CONTINUOUS
 62
     7
100
AcDbLine
 10
225.649999
 20
440.009998
 30
0.0
 11
225.949999
 21
440.009998
 31
0.0
  0
LINE
  5
1293
100
AcDbEntity
  8
10000_FRONT
370
    50
390
0
  6
CONTINUOUS
 62
     7
100
AcDbLine
 10
244.949999
 20
402.831997
 30
0.0
 11
244.949999
 21
408.742762
 31
0.0
  0
LINE
  5
1294
100
AcDbEntity
  8
10000_FRONT
370
    50
390
0
  6
CONTINUOUS
 62
     7
100
AcDbLine
 10
223.549999
 20
402.831997
 30
0.0
 11
244.949999
 21
402.831997
 31
0.0
  0
LINE
  5
1295
100
AcDbEntity
  8
10000_FRONT
370
    50
390
0
  6
CONTINUOUS
 62
     7
100
AcDbLine
 10
223.549999
 20
402.949999
 30
0.0
 11
244.949999
 21
402.949999
 31
0.0
  0
LINE
  5
1296
100
AcDbEntity
  8
10000_FRONT
370
    50
390
0
  6
CONTINUOUS
 62
     7
100
AcDbLine
 10
223.549999
 20
402.831997
 30
0.0
 11
223.549999
 21
409.888736
 31
0.0
  0
LINE
  5
1297
100
AcDbEntity
  8
10000_FRONT
370
    50
390
0
  6
CONTINUOUS
 62
     7
100
AcDbLine
 10
243.749999
 20
409.888736
 30
0.0
 11
223.549999
 21
409.888736
 31
0.0
  0
LINE
  5
1298
100
AcDbEntity
  8
10000_FRONT
370
    50
390
0
  6
CONTINUOUS
 62
     7
100
AcDbLine
 10
243.749999
 20
408.742762
 30
0.0
 11
243.749999
 21
409.888736
 31
0.0
  0
LINE
  5
1299
100
AcDbEntity
  8
10000_FRONT
370
    50
390
0
  6
CONTINUOUS
 62
     7
100
AcDbLine
 10
244.949999
 20
408.742762
 30
0.0
 11
243.749999
 21
408.742762
 31
0.0
  0
LINE
  5
129A
100
AcDbEntity
  8
10000_FRONT
370
    50
390
0
  6
CONTINUOUS
 62
     7
100
AcDbLine
 10
219.639999
 20
438.649998
 30
0.0
 11
219.469386
 21
438.64608
 31
0.0
  0
LINE
  5
129B
100
AcDbEntity
  8
10000_FRONT
370
    50
390
0
  6
CONTINUOUS
 62
     7
100
AcDbLine
 10
219.469386
 20
438.64608
 30
0.0
 11
219.296809
 21
438.634193
 31
0.0
  0
LINE
  5
129C
100
AcDbEntity
  8
10000_FRONT
370
    50
390
0
  6
CONTINUOUS
 62
     7
100
AcDbLine
 10
219.296809
 20
438.634193
 30
0.0
 11
219.123045
 21
438.614151
 31
0.0
  0
LINE
  5
129D
100
AcDbEntity
  8
10000_FRONT
370
    50
390
0
  6
CONTINUOUS
 62
     7
100
AcDbLine
 10
219.123045
 20
438.614151
 30
0.0
 11
218.948867
 21
438.585758
 31
0.0
  0
LINE
  5
129E
100
AcDbEntity
  8
10000_FRONT
370
    50
390
0
  6
CONTINUOUS
 62
     7
100
AcDbLine
 10
218.948867
 20
438.585758
 30
0.0
 11
218.775043
 21
438.548855
 31
0.0
  0
LINE
  5
129F
100
AcDbEntity
  8
10000_FRONT
370
    50
390
0
  6
CONTINUOUS
 62
     7
100
AcDbLine
 10
218.775043
 20
438.548855
 30
0.0
 11
218.6023
 21
438.5035
 31
0.0
  0
LINE
  5
12A0
100
AcDbEntity
  8
10000_FRONT
370
    50
390
0
  6
CONTINUOUS
 62
     7
100
AcDbLine
 10
218.6023
 20
438.5035
 30
0.0
 11
218.431346
 21
438.449829
 31
0.0
  0
LINE
  5
12A1
100
AcDbEntity
  8
10000_FRONT
370
    50
390
0
  6
CONTINUOUS
 62
     7
100
AcDbLine
 10
218.431346
 20
438.449829
 30
0.0
 11
218.26289
 21
438.387981
 31
0.0
  0
LINE
  5
12A2
100
AcDbEntity
  8
10000_FRONT
370
    50
390
0
  6
CONTINUOUS
 62
     7
100
AcDbLine
 10
218.26289
 20
438.387981
 30
0.0
 11
218.097605
 21
438.318096
 31
0.0
  0
LINE
  5
12A3
100
AcDbEntity
  8
10000_FRONT
370
    50
390
0
  6
CONTINUOUS
 62
     7
100
AcDbLine
 10
218.097605
 20
438.318096
 30
0.0
 11
217.936033
 21
438.240444
 31
0.0
  0
LINE
  5
12A4
100
AcDbEntity
  8
10000_FRONT
370
    50
390
0
  6
CONTINUOUS
 62
     7
100
AcDbLine
 10
217.936033
 20
438.240444
 30
0.0
 11
217.778757
 21
438.155437
 31
0.0
  0
LINE
  5
12A5
100
AcDbEntity
  8
10000_FRONT
370
    50
390
0
  6
CONTINUOUS
 62
     7
100
AcDbLine
 10
217.778757
 20
438.155437
 30
0.0
 11
217.626366
 21
438.063494
 31
0.0
  0
LINE
  5
12A6
100
AcDbEntity
  8
10000_FRONT
370
    50
390
0
  6
CONTINUOUS
 62
     7
100
AcDbLine
 10
217.626366
 20
438.063494
 30
0.0
 11
217.479448
 21
437.965032
 31
0.0
  0
LINE
  5
12A7
100
AcDbEntity
  8
10000_FRONT
370
    50
390
0
  6
CONTINUOUS
 62
     7
100
AcDbLine
 10
217.479448
 20
437.965032
 30
0.0
 11
217.338499
 21
437.860603
 31
0.0
  0
LINE
  5
12A8
100
AcDbEntity
  8
10000_FRONT
370
    50
390
0
  6
CONTINUOUS
 62
     7
100
AcDbLine
 10
217.338499
 20
437.860603
 30
0.0
 11
217.203926
 21
437.750891
 31
0.0
  0
LINE
  5
12A9
100
AcDbEntity
  8
10000_FRONT
370
    50
390
0
  6
CONTINUOUS
 62
     7
100
AcDbLine
 10
217.203926
 20
437.750891
 30
0.0
 11
217.076128
 21
437.636587
 31
0.0
  0
LINE
  5
12AA
100
AcDbEntity
  8
10000_FRONT
370
    50
390
0
  6
CONTINUOUS
 62
     7
100
AcDbLine
 10
217.076128
 20
437.636587
 30
0.0
 11
216.955305
 21
437.518181
 31
0.0
  0
LINE
  5
12AB
100
AcDbEntity
  8
10000_FRONT
370
    50
390
0
  6
CONTINUOUS
 62
     7
100
AcDbLine
 10
216.955305
 20
437.518181
 30
0.0
 11
216.839149
 21
437.393464
 31
0.0
  0
LINE
  5
12AC
100
AcDbEntity
  8
10000_FRONT
370
    50
390
0
  6
CONTINUOUS
 62
     7
100
AcDbLine
 10
216.839149
 20
437.393464
 30
0.0
 11
216.727415
 21
437.26196
 31
0.0
  0
LINE
  5
12AD
100
AcDbEntity
  8
10000_FRONT
370
    50
390
0
  6
CONTINUOUS
 62
     7
100
AcDbLine
 10
216.727415
 20
437.26196
 30
0.0
 11
216.62076
 21
437.124064
 31
0.0
  0
LINE
  5
12AE
100
AcDbEntity
  8
10000_FRONT
370
    50
390
0
  6
CONTINUOUS
 62
     7
100
AcDbLine
 10
216.62076
 20
437.124064
 30
0.0
 11
216.519846
 21
436.980175
 31
0.0
  0
LINE
  5
12AF
100
AcDbEntity
  8
10000_FRONT
370
    50
390
0
  6
CONTINUOUS
 62
     7
100
AcDbLine
 10
216.519846
 20
436.980175
 30
0.0
 11
216.425268
 21
436.830731
 31
0.0
  0
LINE
  5
12B0
100
AcDbEntity
  8
10000_FRONT
370
    50
390
0
  6
CONTINUOUS
 62
     7
100
AcDbLine
 10
216.425268
 20
436.830731
 30
0.0
 11
216.33745
 21
436.676289
 31
0.0
  0
LINE
  5
12B1
100
AcDbEntity
  8
10000_FRONT
370
    50
390
0
  6
CONTINUOUS
 62
     7
100
AcDbLine
 10
216.33745
 20
436.676289
 30
0.0
 11
216.256782
 21
436.517424
 31
0.0
  0
LINE
  5
12B2
100
AcDbEntity
  8
10000_FRONT
370
    50
390
0
  6
CONTINUOUS
 62
     7
100
AcDbLine
 10
216.256782
 20
436.517424
 30
0.0
 11
216.183656
 21
436.35471
 31
0.0
  0
LINE
  5
12B3
100
AcDbEntity
  8
10000_FRONT
370
    50
390
0
  6
CONTINUOUS
 62
     7
100
AcDbLine
 10
216.183656
 20
436.35471
 30
0.0
 11
216.118412
 21
436.188686
 31
0.0
  0
LINE
  5
12B4
100
AcDbEntity
  8
10000_FRONT
370
    50
390
0
  6
CONTINUOUS
 62
     7
100
AcDbLine
 10
216.118412
 20
436.188686
 30
0.0
 11
216.061205
 21
436.019942
 31
0.0
  0
LINE
  5
12B5
100
AcDbEntity
  8
10000_FRONT
370
    50
390
0
  6
CONTINUOUS
 62
     7
100
AcDbLine
 10
216.061205
 20
436.019942
 30
0.0
 11
216.012155
 21
435.849163
 31
0.0
  0
LINE
  5
12B6
100
AcDbEntity
  8
10000_FRONT
370
    50
390
0
  6
CONTINUOUS
 62
     7
100
AcDbLine
 10
216.012155
 20
435.849163
 30
0.0
 11
215.971391
 21
435.677034
 31
0.0
  0
LINE
  5
12B7
100
AcDbEntity
  8
10000_FRONT
370
    50
390
0
  6
CONTINUOUS
 62
     7
100
AcDbLine
 10
215.971391
 20
435.677034
 30
0.0
 11
215.93902
 21
435.504245
 31
0.0
  0
LINE
  5
12B8
100
AcDbEntity
  8
10000_FRONT
370
    50
390
0
  6
CONTINUOUS
 62
     7
100
AcDbLine
 10
215.93902
 20
435.504245
 30
0.0
 11
215.914972
 21
435.331519
 31
0.0
  0
LINE
  5
12B9
100
AcDbEntity
  8
10000_FRONT
370
    50
390
0
  6
CONTINUOUS
 62
     7
100
AcDbLine
 10
215.914972
 20
435.331519
 30
0.0
 11
215.899053
 21
435.159607
 31
0.0
  0
LINE
  5
12BA
100
AcDbEntity
  8
10000_FRONT
370
    50
390
0
  6
CONTINUOUS
 62
     7
100
AcDbLine
 10
215.899053
 20
435.159607
 30
0.0
 11
215.891075
 21
434.989258
 31
0.0
  0
LINE
  5
12BB
100
AcDbEntity
  8
10000_FRONT
370
    50
390
0
  6
CONTINUOUS
 62
     7
100
AcDbLine
 10
215.891075
 20
434.989258
 30
0.0
 11
215.89085
 21
434.82061
 31
0.0
  0
LINE
  5
12BC
100
AcDbEntity
  8
10000_FRONT
370
    50
390
0
  6
CONTINUOUS
 62
     7
100
AcDbLine
 10
215.89085
 20
434.82061
 30
0.0
 11
215.898376
 21
434.650301
 31
0.0
  0
LINE
  5
12BD
100
AcDbEntity
  8
10000_FRONT
370
    50
390
0
  6
CONTINUOUS
 62
     7
100
AcDbLine
 10
215.898376
 20
434.650301
 30
0.0
 11
215.913845
 21
434.478316
 31
0.0
  0
LINE
  5
12BE
100
AcDbEntity
  8
10000_FRONT
370
    50
390
0
  6
CONTINUOUS
 62
     7
100
AcDbLine
 10
215.913845
 20
434.478316
 30
0.0
 11
215.937458
 21
434.305414
 31
0.0
  0
LINE
  5
12BF
100
AcDbEntity
  8
10000_FRONT
370
    50
390
0
  6
CONTINUOUS
 62
     7
100
AcDbLine
 10
215.937458
 20
434.305414
 30
0.0
 11
215.969414
 21
434.132352
 31
0.0
  0
LINE
  5
12C0
100
AcDbEntity
  8
10000_FRONT
370
    50
390
0
  6
CONTINUOUS
 62
     7
100
AcDbLine
 10
215.969414
 20
434.132352
 30
0.0
 11
216.009804
 21
433.959865
 31
0.0
  0
LINE
  5
12C1
100
AcDbEntity
  8
10000_FRONT
370
    50
390
0
  6
CONTINUOUS
 62
     7
100
AcDbLine
 10
216.009804
 20
433.959865
 30
0.0
 11
216.058525
 21
433.788656
 31
0.0
  0
LINE
  5
12C2
100
AcDbEntity
  8
10000_FRONT
370
    50
390
0
  6
CONTINUOUS
 62
     7
100
AcDbLine
 10
216.058525
 20
433.788656
 30
0.0
 11
216.115455
 21
433.61942
 31
0.0
  0
LINE
  5
12C3
100
AcDbEntity
  8
10000_FRONT
370
    50
390
0
  6
CONTINUOUS
 62
     7
100
AcDbLine
 10
216.115455
 20
433.61942
 30
0.0
 11
216.180479
 21
433.452856
 31
0.0
  0
LINE
  5
12C4
100
AcDbEntity
  8
10000_FRONT
370
    50
390
0
  6
CONTINUOUS
 62
     7
100
AcDbLine
 10
216.180479
 20
433.452856
 30
0.0
 11
216.253446
 21
433.289566
 31
0.0
  0
LINE
  5
12C5
100
AcDbEntity
  8
10000_FRONT
370
    50
390
0
  6
CONTINUOUS
 62
     7
100
AcDbLine
 10
216.253446
 20
433.289566
 30
0.0
 11
216.33402
 21
433.130099
 31
0.0
  0
LINE
  5
12C6
100
AcDbEntity
  8
10000_FRONT
370
    50
390
0
  6
CONTINUOUS
 62
     7
100
AcDbLine
 10
216.33402
 20
433.130099
 30
0.0
 11
216.421806
 21
432.975043
 31
0.0
  0
LINE
  5
12C7
100
AcDbEntity
  8
10000_FRONT
370
    50
390
0
  6
CONTINUOUS
 62
     7
100
AcDbLine
 10
216.421806
 20
432.975043
 30
0.0
 11
216.516411
 21
432.824984
 31
0.0
  0
LINE
  5
12C8
100
AcDbEntity
  8
10000_FRONT
370
    50
390
0
  6
CONTINUOUS
 62
     7
100
AcDbLine
 10
216.516411
 20
432.824984
 30
0.0
 11
216.617407
 21
432.680488
 31
0.0
  0
LINE
  5
12C9
100
AcDbEntity
  8
10000_FRONT
370
    50
390
0
  6
CONTINUOUS
 62
     7
100
AcDbLine
 10
216.617407
 20
432.680488
 30
0.0
 11
216.724197
 21
432.542009
 31
0.0
  0
LINE
  5
12CA
100
AcDbEntity
  8
10000_FRONT
370
    50
390
0
  6
CONTINUOUS
 62
     7
100
AcDbLine
 10
216.724197
 20
432.542009
 30
0.0
 11
216.836111
 21
432.409952
 31
0.0
  0
LINE
  5
12CB
100
AcDbEntity
  8
10000_FRONT
370
    50
390
0
  6
CONTINUOUS
 62
     7
100
AcDbLine
 10
216.836111
 20
432.409952
 30
0.0
 11
216.952476
 21
432.28472
 31
0.0
  0
LINE
  5
12CC
100
AcDbEntity
  8
10000_FRONT
370
    50
390
0
  6
CONTINUOUS
 62
     7
100
AcDbLine
 10
216.952476
 20
432.28472
 30
0.0
 11
217.073517
 21
432.165858
 31
0.0
  0
LINE
  5
12CD
100
AcDbEntity
  8
10000_FRONT
370
    50
390
0
  6
CONTINUOUS
 62
     7
100
AcDbLine
 10
217.073517
 20
432.165858
 30
0.0
 11
217.201538
 21
432.051148
 31
0.0
  0
LINE
  5
12CE
100
AcDbEntity
  8
10000_FRONT
370
    50
390
0
  6
CONTINUOUS
 62
     7
100
AcDbLine
 10
217.201538
 20
432.051148
 30
0.0
 11
217.336344
 21
431.94107
 31
0.0
  0
LINE
  5
12CF
100
AcDbEntity
  8
10000_FRONT
370
    50
390
0
  6
CONTINUOUS
 62
     7
100
AcDbLine
 10
217.336344
 20
431.94107
 30
0.0
 11
217.477529
 21
431.836318
 31
0.0
  0
LINE
  5
12D0
100
AcDbEntity
  8
10000_FRONT
370
    50
390
0
  6
CONTINUOUS
 62
     7
100
AcDbLine
 10
217.477529
 20
431.836318
 30
0.0
 11
217.624686
 21
431.737574
 31
0.0
  0
LINE
  5
12D1
100
AcDbEntity
  8
10000_FRONT
370
    50
390
0
  6
CONTINUOUS
 62
     7
100
AcDbLine
 10
217.624686
 20
431.737574
 30
0.0
 11
217.77731
 21
431.645387
 31
0.0
  0
LINE
  5
12D2
100
AcDbEntity
  8
10000_FRONT
370
    50
390
0
  6
CONTINUOUS
 62
     7
100
AcDbLine
 10
217.77731
 20
431.645387
 30
0.0
 11
217.934813
 21
431.560176
 31
0.0
  0
LINE
  5
12D3
100
AcDbEntity
  8
10000_FRONT
370
    50
390
0
  6
CONTINUOUS
 62
     7
100
AcDbLine
 10
217.934813
 20
431.560176
 30
0.0
 11
218.0966
 21
431.482354
 31
0.0
  0
LINE
  5
12D4
100
AcDbEntity
  8
10000_FRONT
370
    50
390
0
  6
CONTINUOUS
 62
     7
100
AcDbLine
 10
218.0966
 20
431.482354
 30
0.0
 11
218.262087
 21
431.412331
 31
0.0
  0
LINE
  5
12D5
100
AcDbEntity
  8
10000_FRONT
370
    50
390
0
  6
CONTINUOUS
 62
     7
100
AcDbLine
 10
218.262087
 20
431.412331
 30
0.0
 11
218.430725
 21
431.350378
 31
0.0
  0
LINE
  5
12D6
100
AcDbEntity
  8
10000_FRONT
370
    50
390
0
  6
CONTINUOUS
 62
     7
100
AcDbLine
 10
218.430725
 20
431.350378
 30
0.0
 11
218.60184
 21
431.296628
 31
0.0
  0
LINE
  5
12D7
100
AcDbEntity
  8
10000_FRONT
370
    50
390
0
  6
CONTINUOUS
 62
     7
100
AcDbLine
 10
218.60184
 20
431.296628
 30
0.0
 11
218.774722
 21
431.251217
 31
0.0
  0
LINE
  5
12D8
100
AcDbEntity
  8
10000_FRONT
370
    50
390
0
  6
CONTINUOUS
 62
     7
100
AcDbLine
 10
218.774722
 20
431.251217
 30
0.0
 11
218.948661
 21
431.214277
 31
0.0
  0
LINE
  5
12D9
100
AcDbEntity
  8
10000_FRONT
370
    50
390
0
  6
CONTINUOUS
 62
     7
100
AcDbLine
 10
218.948661
 20
431.214277
 30
0.0
 11
219.122928
 21
431.185861
 31
0.0
  0
LINE
  5
12DA
100
AcDbEntity
  8
10000_FRONT
370
    50
390
0
  6
CONTINUOUS
 62
     7
100
AcDbLine
 10
219.122928
 20
431.185861
 30
0.0
 11
219.296757
 21
431.165807
 31
0.0
  0
LINE
  5
12DB
100
AcDbEntity
  8
10000_FRONT
370
    50
390
0
  6
CONTINUOUS
 62
     7
100
AcDbLine
 10
219.296757
 20
431.165807
 30
0.0
 11
219.469373
 21
431.153917
 31
0.0
  0
LINE
  5
12DC
100
AcDbEntity
  8
10000_FRONT
370
    50
390
0
  6
CONTINUOUS
 62
     7
100
AcDbLine
 10
219.469373
 20
431.153917
 30
0.0
 11
219.639999
 21
431.149998
 31
0.0
  0
LINE
  5
12DD
100
AcDbEntity
  8
10000_FRONT
370
    50
390
0
  6
CONTINUOUS
 62
     7
100
AcDbLine
 10
225.649999
 20
443.807129
 30
0.0
 11
225.649999
 21
444.407125
 31
0.0
  0
LINE
  5
12DE
100
AcDbEntity
  8
10000_FRONT
370
    50
390
0
  6
CONTINUOUS
 62
     7
100
AcDbLine
 10
225.649999
 20
443.807129
 30
0.0
 11
225.649999
 21
440.009998
 31
0.0
  0
LINE
  5
12DF
100
AcDbEntity
  8
10000_FRONT
370
    50
390
0
  6
CONTINUOUS
 62
     7
100
AcDbLine
 10
225.649999
 20
444.40793
 30
0.0
 11
225.649999
 21
444.407125
 31
0.0
  0
LINE
  5
12E0
100
AcDbEntity
  8
10000_FRONT
370
    50
390
0
  6
CONTINUOUS
 62
     7
100
AcDbLine
 10
241.449999
 20
444.40793
 30
0.0
 11
225.649999
 21
444.40793
 31
0.0
  0
LINE
  5
12E1
100
AcDbEntity
  8
10000_FRONT
370
    50
390
0
  6
CONTINUOUS
 62
     7
100
AcDbLine
 10
241.449999
 20
440.009998
 30
0.0
 11
241.449999
 21
443.807129
 31
0.0
  0
LINE
  5
12E2
100
AcDbEntity
  8
10000_FRONT
370
    50
390
0
  6
CONTINUOUS
 62
     7
100
AcDbLine
 10
241.449999
 20
443.807129
 30
0.0
 11
241.449999
 21
444.407125
 31
0.0
  0
LINE
  5
12E3
100
AcDbEntity
  8
10000_FRONT
370
    50
390
0
  6
CONTINUOUS
 62
     7
100
AcDbLine
 10
241.449999
 20
444.407125
 30
0.0
 11
241.449999
 21
444.40793
 31
0.0
  0
LINE
  5
12E4
100
AcDbEntity
  8
10000_FRONT
370
    50
390
0
  6
CONTINUOUS
 62
     7
100
AcDbLine
 10
241.149999
 20
440.009998
 30
0.0
 11
241.449999
 21
440.009998
 31
0.0
  0
LINE
  5
12E5
100
AcDbEntity
  8
10000_FRONT
370
    50
390
0
  6
CONTINUOUS
 62
     7
100
AcDbLine
 10
225.649999
 20
444.407125
 30
0.0
 11
211.049999
 21
444.407125
 31
0.0
  0
LINE
  5
12E6
100
AcDbEntity
  8
10000_FRONT
370
    50
390
0
  6
CONTINUOUS
 62
     7
100
AcDbLine
 10
256.049999
 20
444.407125
 30
0.0
 11
241.449999
 21
444.407125
 31
0.0
  0
LINE
  5
12E7
100
AcDbEntity
  8
10000_FRONT
370
    50
390
0
  6
CONTINUOUS
 62
     7
100
AcDbLine
 10
256.049999
 20
444.407125
 30
0.0
 11
256.049999
 21
444.501655
 31
0.0
  0
LINE
  5
12E8
100
AcDbEntity
  8
10000_FRONT
370
    50
390
0
  6
CONTINUOUS
 62
     7
100
AcDbLine
 10
211.049999
 20
444.501655
 30
0.0
 11
256.049999
 21
444.501655
 31
0.0
  0
LINE
  5
12E9
100
AcDbEntity
  8
10000_FRONT
370
    50
390
0
  6
CONTINUOUS
 62
     7
100
AcDbLine
 10
211.049999
 20
444.407125
 30
0.0
 11
211.049999
 21
444.501655
 31
0.0
  0
LINE
  5
12EA
100
AcDbEntity
  8
10000_FRONT
370
    50
390
0
  6
CONTINUOUS
 62
     7
100
AcDbLine
 10
256.049999
 20
443.807129
 30
0.0
 11
241.449999
 21
443.807129
 31
0.0
  0
LINE
  5
12EB
100
AcDbEntity
  8
10000_FRONT
370
    50
390
0
  6
CONTINUOUS
 62
     7
100
AcDbLine
 10
256.049999
 20
443.807129
 30
0.0
 11
256.049999
 21
444.407125
 31
0.0
  0
LINE
  5
12EC
100
AcDbEntity
  8
10000_FRONT
370
    50
390
0
  6
CONTINUOUS
 62
     7
100
AcDbLine
 10
225.649999
 20
443.807129
 30
0.0
 11
211.049999
 21
443.807129
 31
0.0
  0
LINE
  5
12ED
100
AcDbEntity
  8
10000_FRONT
370
    50
390
0
  6
CONTINUOUS
 62
     7
100
AcDbLine
 10
211.049999
 20
443.807129
 30
0.0
 11
211.049999
 21
444.407125
 31
0.0
  0
LINE
  5
12EE
100
AcDbEntity
  8
10000_FRONT
370
    50
390
0
  6
CONTINUOUS
 62
     7
100
AcDbLine
 10
217.10824
 20
456.65457
 30
0.0
 11
211.049999
 21
456.65457
 31
0.0
  0
LINE
  5
12EF
100
AcDbEntity
  8
10000_FRONT
370
    50
390
0
  6
CONTINUOUS
 62
     7
100
AcDbLine
 10
231.508241
 20
456.65457
 30
0.0
 11
221.191757
 21
456.65457
 31
0.0
  0
LINE
  5
12F0
100
AcDbEntity
  8
10000_FRONT
370
    50
390
0
  6
CONTINUOUS
 62
     7
100
AcDbLine
 10
245.908241
 20
456.65457
 30
0.0
 11
235.591757
 21
456.65457
 31
0.0
  0
LINE
  5
12F1
100
AcDbEntity
  8
10000_FRONT
370
    50
390
0
  6
CONTINUOUS
 62
     7
100
AcDbLine
 10
256.049999
 20
456.65457
 30
0.0
 11
249.991758
 21
456.65457
 31
0.0
  0
LINE
  5
12F2
100
AcDbEntity
  8
10000_FRONT
370
    50
390
0
  6
CONTINUOUS
 62
     7
100
AcDbLine
 10
256.049999
 20
456.65457
 30
0.0
 11
256.049999
 21
466.199999
 31
0.0
  0
LINE
  5
12F3
100
AcDbEntity
  8
10000_FRONT
370
    50
390
0
  6
CONTINUOUS
 62
     7
100
AcDbLine
 10
256.049999
 20
466.199999
 30
0.0
 11
211.049999
 21
466.199999
 31
0.0
  0
LINE
  5
12F4
100
AcDbEntity
  8
10000_FRONT
370
    50
390
0
  6
CONTINUOUS
 62
     7
100
AcDbLine
 10
211.049999
 20
456.65457
 30
0.0
 11
211.049999
 21
466.199999
 31
0.0
  0
LINE
  5
12F5
100
AcDbEntity
  8
10000_FRONT
370
    50
390
0
  6
CONTINUOUS
 62
     7
100
AcDbLine
 10
231.763279
 20
456.503012
 30
0.0
 11
220.93672
 21
456.503012
 31
0.0
  0
LINE
  5
12F6
100
AcDbEntity
  8
10000_FRONT
370
    50
390
0
  6
CONTINUOUS
 62
     7
100
AcDbLine
 10
220.653019
 20
456.364386
 30
0.0
 11
232.046979
 21
456.364386
 31
0.0
  0
LINE
  5
12F7
100
AcDbEntity
  8
10000_FRONT
370
    50
390
0
  6
CONTINUOUS
 62
     7
100
AcDbLine
 10
220.243023
 20
456.212828
 30
0.0
 11
232.456975
 21
456.212828
 31
0.0
  0
LINE
  5
12F8
100
AcDbEntity
  8
10000_FRONT
370
    50
390
0
  6
CONTINUOUS
 62
     7
100
AcDbLine
 10
246.163278
 20
456.503012
 30
0.0
 11
235.336719
 21
456.503012
 31
0.0
  0
LINE
  5
12F9
100
AcDbEntity
  8
10000_FRONT
370
    50
390
0
  6
CONTINUOUS
 62
     7
100
AcDbLine
 10
235.053019
 20
456.364386
 30
0.0
 11
246.446979
 21
456.364386
 31
0.0
  0
LINE
  5
12FA
100
AcDbEntity
  8
10000_FRONT
370
    50
390
0
  6
CONTINUOUS
 62
     7
100
AcDbLine
 10
234.643023
 20
456.212828
 30
0.0
 11
246.856975
 21
456.212828
 31
0.0
  0
LINE
  5
12FB
100
AcDbEntity
  8
10000_FRONT
370
    50
390
0
  6
CONTINUOUS
 62
     7
100
AcDbLine
 10
211.049999
 20
456.212828
 30
0.0
 11
218.056975
 21
456.212828
 31
0.0
  0
LINE
  5
12FC
100
AcDbEntity
  8
10000_FRONT
370
    50
390
0
  6
CONTINUOUS
 62
     7
100
AcDbLine
 10
211.049999
 20
454.519617
 30
0.0
 11
211.049999
 21
456.212828
 31
0.0
  0
LINE
  5
12FD
100
AcDbEntity
  8
10000_FRONT
370
    50
390
0
  6
CONTINUOUS
 62
     7
100
AcDbLine
 10
256.049999
 20
454.519617
 30
0.0
 11
211.049999
 21
454.519617
 31
0.0
  0
LINE
  5
12FE
100
AcDbEntity
  8
10000_FRONT
370
    50
390
0
  6
CONTINUOUS
 62
     7
100
AcDbLine
 10
256.049999
 20
454.519617
 30
0.0
 11
256.049999
 21
456.212828
 31
0.0
  0
LINE
  5
12FF
100
AcDbEntity
  8
10000_FRONT
370
    50
390
0
  6
CONTINUOUS
 62
     7
100
AcDbLine
 10
249.043023
 20
456.212828
 30
0.0
 11
256.049999
 21
456.212828
 31
0.0
  0
LINE
  5
1300
100
AcDbEntity
  8
10000_FRONT
370
    50
390
0
  6
CONTINUOUS
 62
     7
100
AcDbLine
 10
211.049999
 20
456.364386
 30
0.0
 11
217.646979
 21
456.364386
 31
0.0
  0
LINE
  5
1301
100
AcDbEntity
  8
10000_FRONT
370
    50
390
0
  6
CONTINUOUS
 62
     7
100
AcDbLine
 10
211.049999
 20
456.212828
 30
0.0
 11
211.049999
 21
456.364386
 31
0.0
  0
LINE
  5
1302
100
AcDbEntity
  8
10000_FRONT
370
    50
390
0
  6
CONTINUOUS
 62
     7
100
AcDbLine
 10
217.363279
 20
456.503012
 30
0.0
 11
211.049999
 21
456.503012
 31
0.0
  0
LINE
  5
1303
100
AcDbEntity
  8
10000_FRONT
370
    50
390
0
  6
CONTINUOUS
 62
     7
100
AcDbLine
 10
211.049999
 20
456.364386
 30
0.0
 11
211.049999
 21
456.503012
 31
0.0
  0
LINE
  5
1304
100
AcDbEntity
  8
10000_FRONT
370
    50
390
0
  6
CONTINUOUS
 62
     7
100
AcDbLine
 10
211.049999
 20
456.503012
 30
0.0
 11
211.049999
 21
456.65457
 31
0.0
  0
ARC
  5
1305
100
AcDbEntity
  8
10000_FRONT
370
    50
390
0
  6
CONTINUOUS
 62
     7
100
AcDbCircle
 10
255.249999
 20
451.009998
 30
0.0
 40
0.8
100
AcDbArc
 50
0.0
 51
89.999945
  0
LINE
  5
1306
100
AcDbEntity
  8
10000_FRONT
370
    50
390
0
  6
CONTINUOUS
 62
     7
100
AcDbLine
 10
211.849998
 20
451.809997
 30
0.0
 11
255.25
 21
451.809997
 31
0.0
  0
ARC
  5
1307
100
AcDbEntity
  8
10000_FRONT
370
    50
390
0
  6
CONTINUOUS
 62
     7
100
AcDbCircle
 10
211.849999
 20
451.009998
 30
0.0
 40
0.8
100
AcDbArc
 50
90.000055
 51
180.0
  0
ARC
  5
1308
100
AcDbEntity
  8
10000_FRONT
370
    50
390
0
  6
CONTINUOUS
 62
     7
100
AcDbCircle
 10
255.249999
 20
445.909998
 30
0.0
 40
0.8
100
AcDbArc
 50
270.000055
 51
0.0
  0
LINE
  5
1309
100
AcDbEntity
  8
10000_FRONT
370
    50
390
0
  6
CONTINUOUS
 62
     7
100
AcDbLine
 10
255.25
 20
445.109999
 30
0.0
 11
211.849998
 21
445.109999
 31
0.0
  0
ARC
  5
130A
100
AcDbEntity
  8
10000_FRONT
370
    50
390
0
  6
CONTINUOUS
 62
     7
100
AcDbCircle
 10
211.849999
 20
445.909998
 30
0.0
 40
0.8
100
AcDbArc
 50
180.0
 51
269.999945
  0
LINE
  5
130B
100
AcDbEntity
  8
10000_FRONT
370
    50
390
0
  6
CONTINUOUS
 62
     7
100
AcDbLine
 10
211.049999
 20
451.009998
 30
0.0
 11
211.049999
 21
445.909998
 31
0.0
  0
LINE
  5
130C
100
AcDbEntity
  8
10000_FRONT
370
    50
390
0
  6
CONTINUOUS
 62
     7
100
AcDbLine
 10
256.049999
 20
451.009998
 30
0.0
 11
256.049999
 21
445.909998
 31
0.0
  0
LINE
  5
130D
100
AcDbEntity
  8
10000_FRONT
370
    50
390
0
  6
CONTINUOUS
 62
     7
100
AcDbLine
 10
256.049999
 20
444.501655
 30
0.0
 11
256.049999
 21
445.908691
 31
0.0
  0
LINE
  5
130E
100
AcDbEntity
  8
10000_FRONT
370
    50
390
0
  6
CONTINUOUS
 62
     7
100
AcDbLine
 10
256.049999
 20
439.606911
 30
0.0
 11
256.049999
 21
443.807129
 31
0.0
  0
LINE
  5
130F
100
AcDbEntity
  8
10000_FRONT
370
    50
390
0
  6
CONTINUOUS
 62
     7
100
AcDbLine
 10
256.049999
 20
400.093466
 30
0.0
 11
256.049999
 21
439.606911
 31
0.0
  0
LINE
  5
1310
100
AcDbEntity
  8
10000_FRONT
370
    50
390
0
  6
CONTINUOUS
 62
     7
100
AcDbLine
 10
256.049999
 20
399.591003
 30
0.0
 11
256.049999
 21
400.093466
 31
0.0
  0
LINE
  5
1311
100
AcDbEntity
  8
10000_FRONT
370
    50
390
0
  6
CONTINUOUS
 62
     7
100
AcDbLine
 10
256.049999
 20
399.500818
 30
0.0
 11
256.049999
 21
399.591003
 31
0.0
  0
LINE
  5
1312
100
AcDbEntity
  8
10000_FRONT
370
    50
390
0
  6
CONTINUOUS
 62
     7
100
AcDbLine
 10
256.049999
 20
399.300819
 30
0.0
 11
256.049999
 21
399.500818
 31
0.0
  0
LINE
  5
1313
100
AcDbEntity
  8
10000_FRONT
370
    50
390
0
  6
CONTINUOUS
 62
     7
100
AcDbLine
 10
256.049999
 20
377.799997
 30
0.0
 11
256.049999
 21
399.300819
 31
0.0
  0
LINE
  5
1314
100
AcDbEntity
  8
10000_FRONT
370
    50
390
0
  6
CONTINUOUS
 62
     7
100
AcDbLine
 10
256.049999
 20
377.199999
 30
0.0
 11
256.049999
 21
377.799997
 31
0.0
  0
LINE
  5
1315
100
AcDbEntity
  8
10000_FRONT
370
    50
390
0
  6
CONTINUOUS
 62
     7
100
AcDbLine
 10
256.049999
 20
466.199999
 30
0.0
 11
256.049999
 21
466.799997
 31
0.0
  0
LINE
  5
1316
100
AcDbEntity
  8
10000_FRONT
370
    50
390
0
  6
CONTINUOUS
 62
     7
100
AcDbLine
 10
256.049999
 20
456.503012
 30
0.0
 11
256.049999
 21
456.65457
 31
0.0
  0
LINE
  5
1317
100
AcDbEntity
  8
10000_FRONT
370
    50
390
0
  6
CONTINUOUS
 62
     7
100
AcDbLine
 10
256.049999
 20
456.364386
 30
0.0
 11
256.049999
 21
456.503012
 31
0.0
  0
LINE
  5
1318
100
AcDbEntity
  8
10000_FRONT
370
    50
390
0
  6
CONTINUOUS
 62
     7
100
AcDbLine
 10
256.049999
 20
456.212828
 30
0.0
 11
256.049999
 21
456.364386
 31
0.0
  0
LINE
  5
1319
100
AcDbEntity
  8
10000_FRONT
370
    50
390
0
  6
CONTINUOUS
 62
     7
100
AcDbLine
 10
256.049999
 20
454.237711
 30
0.0
 11
256.049999
 21
454.519617
 31
0.0
  0
LINE
  5
131A
100
AcDbEntity
  8
10000_FRONT
370
    50
390
0
  6
CONTINUOUS
 62
     7
100
AcDbLine
 10
256.049999
 20
453.763601
 30
0.0
 11
256.049999
 21
454.237711
 31
0.0
  0
LINE
  5
131B
100
AcDbEntity
  8
10000_FRONT
370
    50
390
0
  6
CONTINUOUS
 62
     7
100
AcDbLine
 10
256.049999
 20
451.011307
 30
0.0
 11
256.049999
 21
453.763601
 31
0.0
  0
LINE
  5
131C
100
AcDbEntity
  8
10000_FRONT
370
    50
390
0
  6
CONTINUOUS
 62
     7
100
AcDbLine
 10
211.049999
 20
453.763601
 30
0.0
 11
256.049999
 21
453.763601
 31
0.0
  0
LINE
  5
131D
100
AcDbEntity
  8
10000_FRONT
370
    50
390
0
  6
CONTINUOUS
 62
     7
100
AcDbLine
 10
211.049999
 20
451.009998
 30
0.0
 11
211.049999
 21
453.763601
 31
0.0
  0
LINE
  5
131E
100
AcDbEntity
  8
10000_FRONT
370
    50
390
0
  6
CONTINUOUS
 62
     7
100
AcDbLine
 10
211.049999
 20
444.501655
 30
0.0
 11
211.049999
 21
445.909998
 31
0.0
  0
LINE
  5
131F
100
AcDbEntity
  8
10000_FRONT
370
    50
390
0
  6
CONTINUOUS
 62
     7
100
AcDbLine
 10
211.049999
 20
453.763601
 30
0.0
 11
211.049999
 21
454.237711
 31
0.0
  0
LINE
  5
1320
100
AcDbEntity
  8
10000_FRONT
370
    50
390
0
  6
CONTINUOUS
 62
     7
100
AcDbLine
 10
211.049999
 20
454.237711
 30
0.0
 11
211.049999
 21
454.519617
 31
0.0
  0
LINE
  5
1321
100
AcDbEntity
  8
10000_FRONT
370
    50
390
0
  6
CONTINUOUS
 62
     7
100
AcDbLine
 10
211.049999
 20
466.199999
 30
0.0
 11
211.049999
 21
466.799997
 31
0.0
  0
LINE
  5
1322
100
AcDbEntity
  8
10000_FRONT
370
    50
390
0
  6
CONTINUOUS
 62
     7
100
AcDbLine
 10
211.049999
 20
377.199999
 30
0.0
 11
211.049999
 21
377.799997
 31
0.0
  0
LINE
  5
1323
100
AcDbEntity
  8
10000_FRONT
370
    50
390
0
  6
CONTINUOUS
 62
     7
100
AcDbLine
 10
211.049999
 20
377.799997
 30
0.0
 11
211.049999
 21
399.300819
 31
0.0
  0
LINE
  5
1324
100
AcDbEntity
  8
10000_FRONT
370
    50
390
0
  6
CONTINUOUS
 62
     7
100
AcDbLine
 10
211.049999
 20
399.300819
 30
0.0
 11
211.049999
 21
399.500818
 31
0.0
  0
LINE
  5
1325
100
AcDbEntity
  8
10000_FRONT
370
    50
390
0
  6
CONTINUOUS
 62
     7
100
AcDbLine
 10
211.049999
 20
399.500818
 30
0.0
 11
211.049999
 21
399.591003
 31
0.0
  0
LINE
  5
1326
100
AcDbEntity
  8
10000_FRONT
370
    50
390
0
  6
CONTINUOUS
 62
     7
100
AcDbLine
 10
211.049999
 20
399.591003
 30
0.0
 11
211.049999
 21
400.093466
 31
0.0
  0
LINE
  5
1327
100
AcDbEntity
  8
10000_FRONT
370
    50
390
0
  6
CONTINUOUS
 62
     7
100
AcDbLine
 10
211.049999
 20
400.093466
 30
0.0
 11
211.049999
 21
439.606911
 31
0.0
  0
LINE
  5
1328
100
AcDbEntity
  8
10000_FRONT
370
    50
390
0
  6
CONTINUOUS
 62
     7
100
AcDbLine
 10
211.049999
 20
439.606911
 30
0.0
 11
211.049999
 21
443.807129
 31
0.0
  0
LINE
  5
1329
100
AcDbEntity
  8
10000_FRONT
370
    50
390
0
  6
CONTINUOUS
 62
     7
100
AcDbLine
 10
256.049999
 20
466.799997
 30
0.0
 11
211.049999
 21
466.799997
 31
0.0
  0
LINE
  5
132A
100
AcDbEntity
  8
10000_FRONT
370
    50
390
0
  6
CONTINUOUS
 62
     7
100
AcDbLine
 10
256.049999
 20
456.503012
 30
0.0
 11
249.736719
 21
456.503012
 31
0.0
  0
LINE
  5
132B
100
AcDbEntity
  8
10000_FRONT
370
    50
390
0
  6
CONTINUOUS
 62
     7
100
AcDbLine
 10
249.453019
 20
456.364386
 30
0.0
 11
256.049999
 21
456.364386
 31
0.0
  0
LINE
  5
132C
100
AcDbEntity
  8
10000_FRONT
370
    50
390
0
  6
CONTINUOUS
 62
     7
100
AcDbLine
 10
256.049999
 20
454.237711
 30
0.0
 11
211.049999
 21
454.237711
 31
0.0
  0
LINE
  5
132D
100
AcDbEntity
  8
10000_FRONT
370
    50
390
0
  6
CONTINUOUS
 62
     7
100
AcDbLine
 10
211.049999
 20
439.606911
 30
0.0
 11
256.049999
 21
439.606911
 31
0.0
  0
LINE
  5
132E
100
AcDbEntity
  8
10000_FRONT
370
    50
390
0
  6
CONTINUOUS
 62
     7
100
AcDbLine
 10
256.049999
 20
400.093466
 30
0.0
 11
211.049999
 21
400.093466
 31
0.0
  0
LINE
  5
132F
100
AcDbEntity
  8
10000_FRONT
370
    50
390
0
  6
CONTINUOUS
 62
     7
100
AcDbLine
 10
256.049999
 20
399.591003
 30
0.0
 11
211.049999
 21
399.591003
 31
0.0
  0
LINE
  5
1330
100
AcDbEntity
  8
10000_FRONT
370
    50
390
0
  6
CONTINUOUS
 62
     7
100
AcDbLine
 10
211.049999
 20
399.500818
 30
0.0
 11
256.049999
 21
399.500818
 31
0.0
  0
LINE
  5
1331
100
AcDbEntity
  8
10000_FRONT
370
    50
390
0
  6
CONTINUOUS
 62
     7
100
AcDbLine
 10
211.049999
 20
399.300819
 30
0.0
 11
256.049999
 21
399.300819
 31
0.0
  0
LINE
  5
1332
100
AcDbEntity
  8
10000_FRONT
370
    50
390
0
  6
CONTINUOUS
 62
     7
100
AcDbLine
 10
256.049999
 20
377.799997
 30
0.0
 11
211.049999
 21
377.799997
 31
0.0
  0
LINE
  5
1333
100
AcDbEntity
  8
10000_FRONT
370
    50
390
0
  6
CONTINUOUS
 62
     7
100
AcDbLine
 10
212.849998
 20
377.199999
 30
0.0
 11
212.849998
 21
377.200014
 31
0.0
  0
LINE
  5
1334
100
AcDbEntity
  8
10000_FRONT
370
    50
390
0
  6
CONTINUOUS
 62
     7
100
AcDbLine
 10
224.949999
 20
377.199999
 30
0.0
 11
224.949999
 21
377.200014
 31
0.0
  0
LINE
  5
1335
100
AcDbEntity
  8
10000_FRONT
370
    50
390
0
  6
CONTINUOUS
 62
     7
100
AcDbLine
 10
213.349998
 20
377.199999
 30
0.0
 11
213.349998
 21
377.200014
 31
0.0
  0
LINE
  5
1336
100
AcDbEntity
  8
10000_FRONT
370
    50
390
0
  6
CONTINUOUS
 62
     7
100
AcDbLine
 10
225.449999
 20
377.199999
 30
0.0
 11
225.449999
 21
377.200014
 31
0.0
  0
LINE
  5
1337
100
AcDbEntity
  8
10000_FRONT
370
    50
390
0
  6
CONTINUOUS
 62
     7
100
AcDbLine
 10
227.249999
 20
377.199999
 30
0.0
 11
227.249999
 21
377.200014
 31
0.0
  0
LINE
  5
1338
100
AcDbEntity
  8
10000_FRONT
370
    50
390
0
  6
CONTINUOUS
 62
     7
100
AcDbLine
 10
239.349999
 20
377.199999
 30
0.0
 11
239.349999
 21
377.200014
 31
0.0
  0
LINE
  5
1339
100
AcDbEntity
  8
10000_FRONT
370
    50
390
0
  6
CONTINUOUS
 62
     7
100
AcDbLine
 10
227.749999
 20
377.199999
 30
0.0
 11
227.749999
 21
377.200014
 31
0.0
  0
LINE
  5
133A
100
AcDbEntity
  8
10000_FRONT
370
    50
390
0
  6
CONTINUOUS
 62
     7
100
AcDbLine
 10
239.849999
 20
377.199999
 30
0.0
 11
239.849999
 21
377.200014
 31
0.0
  0
LINE
  5
133B
100
AcDbEntity
  8
10000_FRONT
370
    50
390
0
  6
CONTINUOUS
 62
     7
100
AcDbLine
 10
241.649999
 20
377.199999
 30
0.0
 11
241.649999
 21
377.200014
 31
0.0
  0
LINE
  5
133C
100
AcDbEntity
  8
10000_FRONT
370
    50
390
0
  6
CONTINUOUS
 62
     7
100
AcDbLine
 10
253.75
 20
377.199999
 30
0.0
 11
253.75
 21
377.200014
 31
0.0
  0
LINE
  5
133D
100
AcDbEntity
  8
10000_FRONT
370
    50
390
0
  6
CONTINUOUS
 62
     7
100
AcDbLine
 10
242.149999
 20
377.199999
 30
0.0
 11
242.149999
 21
377.200014
 31
0.0
  0
LINE
  5
133E
100
AcDbEntity
  8
10000_FRONT
370
    50
390
0
  6
CONTINUOUS
 62
     7
100
AcDbLine
 10
254.25
 20
377.199999
 30
0.0
 11
254.25
 21
377.200014
 31
0.0
  0
LINE
  5
133F
100
AcDbEntity
  8
10100_FRONT_DIM
370
    13
390
0
  6
CONTINUOUS
 62
     7
100
AcDbLine
 10
211.049999
 20
470.499998
 30
0.0
 11
211.049999
 21
481.500011
 31
0.0
  0
TEXT
  5
1340
100
AcDbEntity
  8
10100_FRONT_DIM
370
    13
390
0
  6
CONTINUOUS
 62
     7
100
AcDbText
 10
231.883332
 20
481.500011
 30
0.0
 40
2.0
  1
45
 72
     1
 11
233.549999
 21
481.500011
 31
0.0
100
AcDbText
  0
LINE
  5
1341
100
AcDbEntity
  8
10100_FRONT_DIM
370
    13
390
0
  6
CONTINUOUS
 62
     7
100
AcDbLine
 10
211.049999
 20
480.500011
 30
0.0
 11
256.049999
 21
480.500011
 31
0.0
  0
LINE
  5
1342
100
AcDbEntity
  8
10100_FRONT_DIM
370
    13
390
0
  6
CONTINUOUS
 62
     7
100
AcDbLine
 10
256.049999
 20
481.500011
 30
0.0
 11
256.049999
 21
470.499998
 31
0.0
  0
LINE
  5
1343
100
AcDbEntity
  8
10100_FRONT_DIM
370
    13
390
0
  6
CONTINUOUS
 62
     7
100
AcDbLine
 10
211.049999
 20
373.499998
 30
0.0
 11
200.049989
 21
373.499998
 31
0.0
  0
TEXT
  5
1344
100
AcDbEntity
  8
10100_FRONT_DIM
370
    13
390
0
  6
CONTINUOUS
 62
     7
100
AcDbText
 10
200.049989
 20
420.333331
 30
0.0
 40
2.0
  1
97
 50
90.0
 51
360.0
 72
     1
 11
200.049989
 21
421.999998
 31
0.0
100
AcDbText
  0
LINE
  5
1345
100
AcDbEntity
  8
10100_FRONT_DIM
370
    13
390
0
  6
CONTINUOUS
 62
     7
100
AcDbLine
 10
201.049989
 20
373.499998
 30
0.0
 11
201.049989
 21
470.499998
 31
0.0
  0
LINE
  5
1346
100
AcDbEntity
  8
10100_FRONT_DIM
370
    13
390
0
  6
CONTINUOUS
 62
     7
100
AcDbLine
 10
200.049989
 20
470.499998
 30
0.0
 11
211.049999
 21
470.499998
 31
0.0
  0
SOLID
  5
1347
100
AcDbEntity
  8
10100_FRONT_DIM
370
    13
390
0
  6
CONTINUOUS
 62
     7
100
AcDbTrace
 10
215.049999
 20
481.026621
 30
0.0
 11
211.049999
 21
480.500011
 31
0.0
 12
215.049999
 22
479.973401
 32
0.0
 13
211.049999
 23
480.500011
 33
0.0
  0
SOLID
  5
1348
100
AcDbEntity
  8
10100_FRONT_DIM
370
    13
390
0
  6
CONTINUOUS
 62
     7
100
AcDbTrace
 10
252.049999
 20
479.973401
 30
0.0
 11
256.049999
 21
480.500011
 31
0.0
 12
252.049999
 22
481.026621
 32
0.0
 13
256.049999
 23
480.500011
 33
0.0
  0
SOLID
  5
1349
100
AcDbEntity
  8
10100_FRONT_DIM
370
    13
390
0
  6
CONTINUOUS
 62
     7
100
AcDbTrace
 10
200.523379
 20
377.499998
 30
0.0
 11
201.049989
 21
373.499998
 31
0.0
 12
201.576599
 22
377.499998
 32
0.0
 13
201.049989
 23
373.499998
 33
0.0
  0
SOLID
  5
134A
100
AcDbEntity
  8
10100_FRONT_DIM
370
    13
390
0
  6
CONTINUOUS
 62
     7
100
AcDbTrace
 10
201.576599
 20
466.499998
 30
0.0
 11
201.049989
 21
470.499998
 31
0.0
 12
200.523379
 22
466.499998
 32
0.0
 13
201.049989
 23
470.499998
 33
0.0
  0
LINE
  5
134B
100
AcDbEntity
  8
11000_LEFT
370
    50
390
0
  6
CONTINUOUS
 62
     7
100
AcDbLine
 10
360.55001
 20
377.199999
 30
0.0
 11
369.55001
 21
377.199999
 31
0.0
  0
LINE
  5
134C
100
AcDbEntity
  8
11000_LEFT
370
    50
390
0
  6
CONTINUOUS
 62
     7
100
AcDbLine
 10
396.150008
 20
419.399998
 30
0.0
 11
403.55001
 21
419.399998
 31
0.0
  0
LINE
  5
134D
100
AcDbEntity
  8
11000_LEFT
370
    50
390
0
  6
CONTINUOUS
 62
     7
100
AcDbLine
 10
403.55001
 20
424.799998
 30
0.0
 11
396.150008
 21
424.799998
 31
0.0
  0
LINE
  5
134E
100
AcDbEntity
  8
11000_LEFT
370
    50
390
0
  6
CONTINUOUS
 62
     7
100
AcDbLine
 10
394.821517
 20
414.099998
 30
0.0
 11
394.323905
 21
414.099998
 31
0.0
  0
LINE
  5
134F
100
AcDbEntity
  8
11000_LEFT
370
    50
390
0
  6
CONTINUOUS
 62
     7
100
AcDbLine
 10
394.821517
 20
424.408119
 30
0.0
 11
394.821517
 21
430.099997
 31
0.0
  0
LINE
  5
1350
100
AcDbEntity
  8
11000_LEFT
370
    50
390
0
  6
CONTINUOUS
 62
     7
100
AcDbLine
 10
393.989753
 20
430.099997
 30
0.0
 11
394.821517
 21
430.099997
 31
0.0
  0
LINE
  5
1351
100
AcDbEntity
  8
11000_LEFT
370
    50
390
0
  6
CONTINUOUS
 62
     7
100
AcDbLine
 10
394.821517
 20
414.099998
 30
0.0
 11
394.821517
 21
419.791543
 31
0.0
  0
LINE
  5
1352
100
AcDbEntity
  8
11000_LEFT
370
    50
390
0
  6
CONTINUOUS
 62
     7
100
AcDbLine
 10
394.450012
 20
419.791543
 30
0.0
 11
394.821517
 21
419.791543
 31
0.0
  0
LINE
  5
1353
100
AcDbEntity
  8
11000_LEFT
370
    50
390
0
  6
CONTINUOUS
 62
     7
100
AcDbLine
 10
394.821517
 20
424.408119
 30
0.0
 11
394.450012
 21
424.408119
 31
0.0
  0
LINE
  5
1354
100
AcDbEntity
  8
11000_LEFT
370
    50
390
0
  6
CONTINUOUS
 62
     7
100
AcDbLine
 10
360.55001
 20
466.799997
 30
0.0
 11
360.55001
 21
469.000002
 31
0.0
  0
LINE
  5
1355
100
AcDbEntity
  8
11000_LEFT
370
    50
390
0
  6
CONTINUOUS
 62
     7
100
AcDbLine
 10
360.55001
 20
374.999998
 30
0.0
 11
360.55001
 21
377.199999
 31
0.0
  0
ARC
  5
1356
100
AcDbEntity
  8
11000_LEFT
370
    50
390
0
  6
CONTINUOUS
 62
     7
100
AcDbCircle
 10
359.05001
 20
469.000001
 30
0.0
 40
1.5
100
AcDbArc
 50
0.0
 51
89.999988
  0
LINE
  5
1357
100
AcDbEntity
  8
11000_LEFT
370
    50
390
0
  6
CONTINUOUS
 62
     7
100
AcDbLine
 10
359.05001
 20
470.500002
 30
0.0
 11
337.55001
 21
470.500002
 31
0.0
  0
ARC
  5
1358
100
AcDbEntity
  8
11000_LEFT
370
    50
390
0
  6
CONTINUOUS
 62
     7
100
AcDbCircle
 10
337.55001
 20
469.000001
 30
0.0
 40
1.5
100
AcDbArc
 50
89.999989
 51
179.999826
  0
LINE
  5
1359
100
AcDbEntity
  8
11000_LEFT
370
    50
390
0
  6
CONTINUOUS
 62
     7
100
AcDbLine
 10
336.05001
 20
469.000006
 30
0.0
 11
336.050006
 21
466.799951
 31
0.0
  0
LINE
  5
135A
100
AcDbEntity
  8
11000_LEFT
370
    50
390
0
  6
CONTINUOUS
 62
     7
100
AcDbLine
 10
339.150008
 20
466.799791
 30
0.0
 11
339.150008
 21
437.646105
 31
0.0
  0
LINE
  5
135B
100
AcDbEntity
  8
11000_LEFT
370
    50
390
0
  6
CONTINUOUS
 62
     7
100
AcDbLine
 10
335.750011
 20
377.199999
 30
0.0
 11
336.050008
 21
377.199999
 31
0.0
  0
LINE
  5
135C
100
AcDbEntity
  8
11000_LEFT
370
    50
390
0
  6
CONTINUOUS
 62
     7
100
AcDbLine
 10
336.050008
 20
377.199999
 30
0.0
 11
336.050008
 21
374.999998
 31
0.0
  0
ARC
  5
135D
100
AcDbEntity
  8
11000_LEFT
370
    50
390
0
  6
CONTINUOUS
 62
     7
100
AcDbCircle
 10
337.550008
 20
374.999998
 30
0.0
 40
1.5
100
AcDbArc
 50
180.0
 51
270.0
  0
LINE
  5
135E
100
AcDbEntity
  8
11000_LEFT
370
    50
390
0
  6
CONTINUOUS
 62
     7
100
AcDbLine
 10
337.550008
 20
373.499998
 30
0.0
 11
359.05001
 21
373.499998
 31
0.0
  0
ARC
  5
135F
100
AcDbEntity
  8
11000_LEFT
370
    50
390
0
  6
CONTINUOUS
 62
     7
100
AcDbCircle
 10
359.05001
 20
374.999998
 30
0.0
 40
1.5
100
AcDbArc
 50
270.0
 51
0.0
  0
LINE
  5
1360
100
AcDbEntity
  8
11000_LEFT
370
    50
390
0
  6
CONTINUOUS
 62
     7
100
AcDbLine
 10
335.750011
 20
378.903456
 30
0.0
 11
335.750011
 21
377.199999
 31
0.0
  0
LINE
  5
1361
100
AcDbEntity
  8
11000_LEFT
370
    50
390
0
  6
CONTINUOUS
 62
     7
100
AcDbLine
 10
337.505634
 20
381.509771
 30
0.0
 11
336.245742
 21
381.287435
 31
0.0
  0
LINE
  5
1362
100
AcDbEntity
  8
11000_LEFT
370
    50
390
0
  6
CONTINUOUS
 62
     7
100
AcDbLine
 10
338.630409
 20
422.69996
 30
0.0
 11
339.150008
 21
422.399968
 31
0.0
  0
LINE
  5
1363
100
AcDbEntity
  8
11000_LEFT
370
    50
390
0
  6
CONTINUOUS
 62
     7
100
AcDbLine
 10
333.55001
 20
422.699959
 30
0.0
 11
338.630409
 21
422.69996
 31
0.0
  0
ARC
  5
1364
100
AcDbEntity
  8
11000_LEFT
370
    50
390
0
  6
CONTINUOUS
 62
     7
100
AcDbCircle
 10
333.55001
 20
423.299959
 30
0.0
 40
0.6
100
AcDbArc
 50
180.0
 51
270.000037
  0
LINE
  5
1365
100
AcDbEntity
  8
11000_LEFT
370
    50
390
0
  6
CONTINUOUS
 62
     7
100
AcDbLine
 10
332.95001
 20
425.610572
 30
0.0
 11
332.95001
 21
423.299959
 31
0.0
  0
ARC
  5
1366
100
AcDbEntity
  8
11000_LEFT
370
    50
390
0
  6
CONTINUOUS
 62
     7
100
AcDbCircle
 10
333.550008
 20
427.999958
 30
0.0
 40
0.6
100
AcDbArc
 50
89.999963
 51
180.0
  0
LINE
  5
1367
100
AcDbEntity
  8
11000_LEFT
370
    50
390
0
  6
CONTINUOUS
 62
     7
100
AcDbLine
 10
338.630409
 20
428.599957
 30
0.0
 11
333.550008
 21
428.599957
 31
0.0
  0
LINE
  5
1368
100
AcDbEntity
  8
11000_LEFT
370
    50
390
0
  6
CONTINUOUS
 62
     7
100
AcDbLine
 10
339.150008
 20
428.899949
 30
0.0
 11
338.630409
 21
428.599957
 31
0.0
  0
LINE
  5
1369
100
AcDbEntity
  8
11000_LEFT
370
    50
390
0
  6
CONTINUOUS
 62
     7
100
AcDbLine
 10
360.55001
 20
466.799997
 30
0.0
 11
360.55001
 21
433.499998
 31
0.0
  0
ARC
  5
136A
100
AcDbEntity
  8
11000_LEFT
370
    50
390
0
  6
CONTINUOUS
 62
     7
100
AcDbCircle
 10
359.75001
 20
433.499998
 30
0.0
 40
0.8
100
AcDbArc
 50
270.000052
 51
0.0
  0
LINE
  5
136B
100
AcDbEntity
  8
11000_LEFT
370
    50
390
0
  6
CONTINUOUS
 62
     7
100
AcDbLine
 10
359.750011
 20
432.699998
 30
0.0
 11
357.600009
 21
432.699998
 31
0.0
  0
ARC
  5
136C
100
AcDbEntity
  8
11000_LEFT
370
    50
390
0
  6
CONTINUOUS
 62
     7
100
AcDbCircle
 10
357.60001
 20
431.899998
 30
0.0
 40
0.8
100
AcDbArc
 50
90.000077
 51
180.0
  0
LINE
  5
136D
100
AcDbEntity
  8
11000_LEFT
370
    50
390
0
  6
CONTINUOUS
 62
     7
100
AcDbLine
 10
356.80001
 20
431.899998
 30
0.0
 11
356.80001
 21
426.649998
 31
0.0
  0
LINE
  5
136E
100
AcDbEntity
  8
11000_LEFT
370
    50
390
0
  6
CONTINUOUS
 62
     7
100
AcDbLine
 10
360.55001
 20
425.049998
 30
0.0
 11
360.55001
 21
377.199999
 31
0.0
  0
ARC
  5
136F
100
AcDbEntity
  8
11000_LEFT
370
    50
390
0
  6
CONTINUOUS
 62
     7
100
AcDbCircle
 10
357.60001
 20
426.649998
 30
0.0
 40
0.8
100
AcDbArc
 50
180.0
 51
269.999923
  0
LINE
  5
1370
100
AcDbEntity
  8
11000_LEFT
370
    50
390
0
  6
CONTINUOUS
 62
     7
100
AcDbLine
 10
357.600009
 20
425.849998
 30
0.0
 11
359.750011
 21
425.849998
 31
0.0
  0
ARC
  5
1371
100
AcDbEntity
  8
11000_LEFT
370
    50
390
0
  6
CONTINUOUS
 62
     7
100
AcDbCircle
 10
359.75001
 20
425.049998
 30
0.0
 40
0.8
100
AcDbArc
 50
0.0
 51
89.999958
  0
LINE
  5
1372
100
AcDbEntity
  8
11000_LEFT
370
    50
390
0
  6
CONTINUOUS
 62
     7
100
AcDbLine
 10
394.450012
 20
423.570307
 30
0.0
 11
394.450012
 21
424.408119
 31
0.0
  0
LINE
  5
1373
100
AcDbEntity
  8
11000_LEFT
370
    50
390
0
  6
CONTINUOUS
 62
     7
100
AcDbLine
 10
394.450012
 20
419.791543
 30
0.0
 11
394.450012
 21
420.634109
 31
0.0
  0
LINE
  5
1374
100
AcDbEntity
  8
11000_LEFT
370
    50
390
0
  6
CONTINUOUS
 62
     7
100
AcDbLine
 10
394.450012
 20
420.634262
 30
0.0
 11
394.450012
 21
420.634109
 31
0.0
  0
LINE
  5
1375
100
AcDbEntity
  8
11000_LEFT
370
    50
390
0
  6
CONTINUOUS
 62
     7
100
AcDbLine
 10
394.450012
 20
420.634262
 30
0.0
 11
394.450012
 21
423.570307
 31
0.0
  0
LINE
  5
1376
100
AcDbEntity
  8
11000_LEFT
370
    50
390
0
  6
CONTINUOUS
 62
     7
100
AcDbLine
 10
403.55001
 20
419.399998
 30
0.0
 11
403.55001
 21
424.799998
 31
0.0
  0
LINE
  5
1377
100
AcDbEntity
  8
11000_LEFT
370
    50
390
0
  6
CONTINUOUS
 62
     7
100
AcDbLine
 10
396.150008
 20
419.399998
 30
0.0
 11
396.150008
 21
424.799998
 31
0.0
  0
LINE
  5
1378
100
AcDbEntity
  8
11000_LEFT
370
    50
390
0
  6
CONTINUOUS
 62
     7
100
AcDbLine
 10
396.150008
 20
423.570307
 30
0.0
 11
394.450012
 21
423.570307
 31
0.0
  0
LINE
  5
1379
100
AcDbEntity
  8
11000_LEFT
370
    50
390
0
  6
CONTINUOUS
 62
     7
100
AcDbLine
 10
405.950012
 20
423.570307
 30
0.0
 11
403.55001
 21
423.570307
 31
0.0
  0
LINE
  5
137A
100
AcDbEntity
  8
11000_LEFT
370
    50
390
0
  6
CONTINUOUS
 62
     7
100
AcDbLine
 10
405.950012
 20
423.570307
 30
0.0
 11
405.950012
 21
425.099838
 31
0.0
  0
LINE
  5
137B
100
AcDbEntity
  8
11000_LEFT
370
    50
390
0
  6
CONTINUOUS
 62
     7
100
AcDbLine
 10
396.313888
 20
425.071403
 30
0.0
 11
396.309974
 21
425.050836
 31
0.0
  0
LINE
  5
137C
100
AcDbEntity
  8
11000_LEFT
370
    50
390
0
  6
CONTINUOUS
 62
     7
100
AcDbLine
 10
396.309974
 20
425.050836
 30
0.0
 11
396.294715
 21
425.024294
 31
0.0
  0
LINE
  5
137D
100
AcDbEntity
  8
11000_LEFT
370
    50
390
0
  6
CONTINUOUS
 62
     7
100
AcDbLine
 10
396.294715
 20
425.024294
 30
0.0
 11
396.267776
 21
424.991654
 31
0.0
  0
LINE
  5
137E
100
AcDbEntity
  8
11000_LEFT
370
    50
390
0
  6
CONTINUOUS
 62
     7
100
AcDbLine
 10
396.267776
 20
424.991654
 30
0.0
 11
396.22882
 21
424.952802
 31
0.0
  0
LINE
  5
137F
100
AcDbEntity
  8
11000_LEFT
370
    50
390
0
  6
CONTINUOUS
 62
     7
100
AcDbLine
 10
396.22882
 20
424.952802
 30
0.0
 11
396.177512
 21
424.907623
 31
0.0
  0
LINE
  5
1380
100
AcDbEntity
  8
11000_LEFT
370
    50
390
0
  6
CONTINUOUS
 62
     7
100
AcDbLine
 10
396.177512
 20
424.907623
 30
0.0
 11
396.113509
 21
424.856003
 31
0.0
  0
LINE
  5
1381
100
AcDbEntity
  8
11000_LEFT
370
    50
390
0
  6
CONTINUOUS
 62
     7
100
AcDbLine
 10
396.113509
 20
424.856003
 30
0.0
 11
396.036605
 21
424.797906
 31
0.0
  0
LINE
  5
1382
100
AcDbEntity
  8
11000_LEFT
370
    50
390
0
  6
CONTINUOUS
 62
     7
100
AcDbLine
 10
396.036605
 20
424.797906
 30
0.0
 11
395.946822
 21
424.733435
 31
0.0
  0
LINE
  5
1383
100
AcDbEntity
  8
11000_LEFT
370
    50
390
0
  6
CONTINUOUS
 62
     7
100
AcDbLine
 10
395.946822
 20
424.733435
 30
0.0
 11
395.844199
 21
424.662707
 31
0.0
  0
LINE
  5
1384
100
AcDbEntity
  8
11000_LEFT
370
    50
390
0
  6
CONTINUOUS
 62
     7
100
AcDbLine
 10
395.844199
 20
424.662707
 30
0.0
 11
395.728774
 21
424.58584
 31
0.0
  0
LINE
  5
1385
100
AcDbEntity
  8
11000_LEFT
370
    50
390
0
  6
CONTINUOUS
 62
     7
100
AcDbLine
 10
395.728774
 20
424.58584
 30
0.0
 11
395.600608
 21
424.502957
 31
0.0
  0
LINE
  5
1386
100
AcDbEntity
  8
11000_LEFT
370
    50
390
0
  6
CONTINUOUS
 62
     7
100
AcDbLine
 10
395.600608
 20
424.502957
 30
0.0
 11
395.589393
 21
424.496584
 31
0.0
  0
LINE
  5
1387
100
AcDbEntity
  8
11000_LEFT
370
    50
390
0
  6
CONTINUOUS
 62
     7
100
AcDbLine
 10
395.589393
 20
424.496584
 30
0.0
 11
395.575767
 21
424.49026
 31
0.0
  0
LINE
  5
1388
100
AcDbEntity
  8
11000_LEFT
370
    50
390
0
  6
CONTINUOUS
 62
     7
100
AcDbLine
 10
395.575767
 20
424.49026
 30
0.0
 11
395.559768
 21
424.484013
 31
0.0
  0
LINE
  5
1389
100
AcDbEntity
  8
11000_LEFT
370
    50
390
0
  6
CONTINUOUS
 62
     7
100
AcDbLine
 10
395.559768
 20
424.484013
 30
0.0
 11
395.541419
 21
424.477863
 31
0.0
  0
LINE
  5
138A
100
AcDbEntity
  8
11000_LEFT
370
    50
390
0
  6
CONTINUOUS
 62
     7
100
AcDbLine
 10
395.541419
 20
424.477863
 30
0.0
 11
395.520736
 21
424.47183
 31
0.0
  0
LINE
  5
138B
100
AcDbEntity
  8
11000_LEFT
370
    50
390
0
  6
CONTINUOUS
 62
     7
100
AcDbLine
 10
395.520736
 20
424.47183
 30
0.0
 11
395.497733
 21
424.465931
 31
0.0
  0
LINE
  5
138C
100
AcDbEntity
  8
11000_LEFT
370
    50
390
0
  6
CONTINUOUS
 62
     7
100
AcDbLine
 10
395.497733
 20
424.465931
 30
0.0
 11
395.472427
 21
424.460186
 31
0.0
  0
LINE
  5
138D
100
AcDbEntity
  8
11000_LEFT
370
    50
390
0
  6
CONTINUOUS
 62
     7
100
AcDbLine
 10
395.472427
 20
424.460186
 30
0.0
 11
395.444839
 21
424.454613
 31
0.0
  0
LINE
  5
138E
100
AcDbEntity
  8
11000_LEFT
370
    50
390
0
  6
CONTINUOUS
 62
     7
100
AcDbLine
 10
395.444839
 20
424.454613
 30
0.0
 11
395.414985
 21
424.449231
 31
0.0
  0
LINE
  5
138F
100
AcDbEntity
  8
11000_LEFT
370
    50
390
0
  6
CONTINUOUS
 62
     7
100
AcDbLine
 10
395.414985
 20
424.449231
 30
0.0
 11
395.383003
 21
424.444079
 31
0.0
  0
LINE
  5
1390
100
AcDbEntity
  8
11000_LEFT
370
    50
390
0
  6
CONTINUOUS
 62
     7
100
AcDbLine
 10
395.383003
 20
424.444079
 30
0.0
 11
395.348998
 21
424.439187
 31
0.0
  0
LINE
  5
1391
100
AcDbEntity
  8
11000_LEFT
370
    50
390
0
  6
CONTINUOUS
 62
     7
100
AcDbLine
 10
395.348998
 20
424.439187
 30
0.0
 11
395.313056
 21
424.434573
 31
0.0
  0
LINE
  5
1392
100
AcDbEntity
  8
11000_LEFT
370
    50
390
0
  6
CONTINUOUS
 62
     7
100
AcDbLine
 10
395.313056
 20
424.434573
 30
0.0
 11
395.27523
 21
424.430259
 31
0.0
  0
LINE
  5
1393
100
AcDbEntity
  8
11000_LEFT
370
    50
390
0
  6
CONTINUOUS
 62
     7
100
AcDbLine
 10
395.27523
 20
424.430259
 30
0.0
 11
395.23558
 21
424.426263
 31
0.0
  0
LINE
  5
1394
100
AcDbEntity
  8
11000_LEFT
370
    50
390
0
  6
CONTINUOUS
 62
     7
100
AcDbLine
 10
395.23558
 20
424.426263
 30
0.0
 11
395.19419
 21
424.422605
 31
0.0
  0
LINE
  5
1395
100
AcDbEntity
  8
11000_LEFT
370
    50
390
0
  6
CONTINUOUS
 62
     7
100
AcDbLine
 10
395.19419
 20
424.422605
 30
0.0
 11
395.151161
 21
424.419308
 31
0.0
  0
LINE
  5
1396
100
AcDbEntity
  8
11000_LEFT
370
    50
390
0
  6
CONTINUOUS
 62
     7
100
AcDbLine
 10
395.151161
 20
424.419308
 30
0.0
 11
395.106788
 21
424.416406
 31
0.0
  0
LINE
  5
1397
100
AcDbEntity
  8
11000_LEFT
370
    50
390
0
  6
CONTINUOUS
 62
     7
100
AcDbLine
 10
395.106788
 20
424.416406
 30
0.0
 11
395.061225
 21
424.413915
 31
0.0
  0
LINE
  5
1398
100
AcDbEntity
  8
11000_LEFT
370
    50
390
0
  6
CONTINUOUS
 62
     7
100
AcDbLine
 10
395.061225
 20
424.413915
 30
0.0
 11
395.014564
 21
424.41185
 31
0.0
  0
LINE
  5
1399
100
AcDbEntity
  8
11000_LEFT
370
    50
390
0
  6
CONTINUOUS
 62
     7
100
AcDbLine
 10
395.014564
 20
424.41185
 30
0.0
 11
394.967017
 21
424.410226
 31
0.0
  0
LINE
  5
139A
100
AcDbEntity
  8
11000_LEFT
370
    50
390
0
  6
CONTINUOUS
 62
     7
100
AcDbLine
 10
394.967017
 20
424.410226
 30
0.0
 11
394.918899
 21
424.409059
 31
0.0
  0
LINE
  5
139B
100
AcDbEntity
  8
11000_LEFT
370
    50
390
0
  6
CONTINUOUS
 62
     7
100
AcDbLine
 10
394.918899
 20
424.409059
 30
0.0
 11
394.870353
 21
424.408355
 31
0.0
  0
LINE
  5
139C
100
AcDbEntity
  8
11000_LEFT
370
    50
390
0
  6
CONTINUOUS
 62
     7
100
AcDbLine
 10
394.870353
 20
424.408355
 30
0.0
 11
394.821517
 21
424.408119
 31
0.0
  0
LINE
  5
139D
100
AcDbEntity
  8
11000_LEFT
370
    50
390
0
  6
CONTINUOUS
 62
     7
100
AcDbLine
 10
403.55001
 20
420.634262
 30
0.0
 11
405.950012
 21
420.634262
 31
0.0
  0
LINE
  5
139E
100
AcDbEntity
  8
11000_LEFT
370
    50
390
0
  6
CONTINUOUS
 62
     7
100
AcDbLine
 10
403.55001
 20
420.634109
 30
0.0
 11
405.950012
 21
420.634109
 31
0.0
  0
LINE
  5
139F
100
AcDbEntity
  8
11000_LEFT
370
    50
390
0
  6
CONTINUOUS
 62
     7
100
AcDbLine
 10
405.950012
 20
420.634109
 30
0.0
 11
405.950012
 21
420.634262
 31
0.0
  0
LINE
  5
13A0
100
AcDbEntity
  8
11000_LEFT
370
    50
390
0
  6
CONTINUOUS
 62
     7
100
AcDbLine
 10
394.450012
 20
420.634109
 30
0.0
 11
396.150008
 21
420.634109
 31
0.0
  0
LINE
  5
13A1
100
AcDbEntity
  8
11000_LEFT
370
    50
390
0
  6
CONTINUOUS
 62
     7
100
AcDbLine
 10
394.450012
 20
420.634262
 30
0.0
 11
396.150008
 21
420.634262
 31
0.0
  0
LINE
  5
13A2
100
AcDbEntity
  8
11000_LEFT
370
    50
390
0
  6
CONTINUOUS
 62
     7
100
AcDbLine
 10
405.950012
 20
420.634262
 30
0.0
 11
405.950012
 21
423.570307
 31
0.0
  0
LINE
  5
13A3
100
AcDbEntity
  8
11000_LEFT
370
    50
390
0
  6
CONTINUOUS
 62
     7
100
AcDbLine
 10
405.950012
 20
419.099838
 30
0.0
 11
405.950012
 21
420.634109
 31
0.0
  0
LINE
  5
13A4
100
AcDbEntity
  8
11000_LEFT
370
    50
390
0
  6
CONTINUOUS
 62
     7
100
AcDbLine
 10
394.821517
 20
419.791543
 30
0.0
 11
394.87033
 21
419.791307
 31
0.0
  0
LINE
  5
13A5
100
AcDbEntity
  8
11000_LEFT
370
    50
390
0
  6
CONTINUOUS
 62
     7
100
AcDbLine
 10
394.87033
 20
419.791307
 30
0.0
 11
394.918777
 21
419.790605
 31
0.0
  0
LINE
  5
13A6
100
AcDbEntity
  8
11000_LEFT
370
    50
390
0
  6
CONTINUOUS
 62
     7
100
AcDbLine
 10
394.918777
 20
419.790605
 30
0.0
 11
394.966728
 21
419.789444
 31
0.0
  0
LINE
  5
13A7
100
AcDbEntity
  8
11000_LEFT
370
    50
390
0
  6
CONTINUOUS
 62
     7
100
AcDbLine
 10
394.966728
 20
419.789444
 30
0.0
 11
395.014045
 21
419.787832
 31
0.0
  0
LINE
  5
13A8
100
AcDbEntity
  8
11000_LEFT
370
    50
390
0
  6
CONTINUOUS
 62
     7
100
AcDbLine
 10
395.014045
 20
419.787832
 30
0.0
 11
395.0606
 21
419.785777
 31
0.0
  0
LINE
  5
13A9
100
AcDbEntity
  8
11000_LEFT
370
    50
390
0
  6
CONTINUOUS
 62
     7
100
AcDbLine
 10
395.0606
 20
419.785777
 30
0.0
 11
395.106269
 21
419.783287
 31
0.0
  0
LINE
  5
13AA
100
AcDbEntity
  8
11000_LEFT
370
    50
390
0
  6
CONTINUOUS
 62
     7
100
AcDbLine
 10
395.106269
 20
419.783287
 30
0.0
 11
395.150672
 21
419.780388
 31
0.0
  0
LINE
  5
13AB
100
AcDbEntity
  8
11000_LEFT
370
    50
390
0
  6
CONTINUOUS
 62
     7
100
AcDbLine
 10
395.150672
 20
419.780388
 30
0.0
 11
395.193588
 21
419.777106
 31
0.0
  0
LINE
  5
13AC
100
AcDbEntity
  8
11000_LEFT
370
    50
390
0
  6
CONTINUOUS
 62
     7
100
AcDbLine
 10
395.193588
 20
419.777106
 30
0.0
 11
395.234939
 21
419.773459
 31
0.0
  0
LINE
  5
13AD
100
AcDbEntity
  8
11000_LEFT
370
    50
390
0
  6
CONTINUOUS
 62
     7
100
AcDbLine
 10
395.234939
 20
419.773459
 30
0.0
 11
395.274635
 21
419.769466
 31
0.0
  0
LINE
  5
13AE
100
AcDbEntity
  8
11000_LEFT
370
    50
390
0
  6
CONTINUOUS
 62
     7
100
AcDbLine
 10
395.274635
 20
419.769466
 30
0.0
 11
395.312599
 21
419.765143
 31
0.0
  0
LINE
  5
13AF
100
AcDbEntity
  8
11000_LEFT
370
    50
390
0
  6
CONTINUOUS
 62
     7
100
AcDbLine
 10
395.312599
 20
419.765143
 30
0.0
 11
395.348731
 21
419.760511
 31
0.0
  0
LINE
  5
13B0
100
AcDbEntity
  8
11000_LEFT
370
    50
390
0
  6
CONTINUOUS
 62
     7
100
AcDbLine
 10
395.348731
 20
419.760511
 30
0.0
 11
395.38285
 21
419.755605
 31
0.0
  0
LINE
  5
13B1
100
AcDbEntity
  8
11000_LEFT
370
    50
390
0
  6
CONTINUOUS
 62
     7
100
AcDbLine
 10
395.38285
 20
419.755605
 30
0.0
 11
395.414825
 21
419.750458
 31
0.0
  0
LINE
  5
13B2
100
AcDbEntity
  8
11000_LEFT
370
    50
390
0
  6
CONTINUOUS
 62
     7
100
AcDbLine
 10
395.414825
 20
419.750458
 30
0.0
 11
395.444625
 21
419.74509
 31
0.0
  0
LINE
  5
13B3
100
AcDbEntity
  8
11000_LEFT
370
    50
390
0
  6
CONTINUOUS
 62
     7
100
AcDbLine
 10
395.444625
 20
419.74509
 30
0.0
 11
395.472221
 21
419.739519
 31
0.0
  0
LINE
  5
13B4
100
AcDbEntity
  8
11000_LEFT
370
    50
390
0
  6
CONTINUOUS
 62
     7
100
AcDbLine
 10
395.472221
 20
419.739519
 30
0.0
 11
395.497566
 21
419.733767
 31
0.0
  0
LINE
  5
13B5
100
AcDbEntity
  8
11000_LEFT
370
    50
390
0
  6
CONTINUOUS
 62
     7
100
AcDbLine
 10
395.497566
 20
419.733767
 30
0.0
 11
395.520644
 21
419.727853
 31
0.0
  0
LINE
  5
13B6
100
AcDbEntity
  8
11000_LEFT
370
    50
390
0
  6
CONTINUOUS
 62
     7
100
AcDbLine
 10
395.520644
 20
419.727853
 30
0.0
 11
395.541412
 21
419.721798
 31
0.0
  0
LINE
  5
13B7
100
AcDbEntity
  8
11000_LEFT
370
    50
390
0
  6
CONTINUOUS
 62
     7
100
AcDbLine
 10
395.541412
 20
419.721798
 30
0.0
 11
395.559806
 21
419.715637
 31
0.0
  0
LINE
  5
13B8
100
AcDbEntity
  8
11000_LEFT
370
    50
390
0
  6
CONTINUOUS
 62
     7
100
AcDbLine
 10
395.559806
 20
419.715637
 30
0.0
 11
395.575805
 21
419.709391
 31
0.0
  0
LINE
  5
13B9
100
AcDbEntity
  8
11000_LEFT
370
    50
390
0
  6
CONTINUOUS
 62
     7
100
AcDbLine
 10
395.575805
 20
419.709391
 30
0.0
 11
395.589401
 21
419.703075
 31
0.0
  0
LINE
  5
13BA
100
AcDbEntity
  8
11000_LEFT
370
    50
390
0
  6
CONTINUOUS
 62
     7
100
AcDbLine
 10
395.589401
 20
419.703075
 30
0.0
 11
395.600608
 21
419.696704
 31
0.0
  0
LINE
  5
13BB
100
AcDbEntity
  8
11000_LEFT
370
    50
390
0
  6
CONTINUOUS
 62
     7
100
AcDbLine
 10
395.600608
 20
419.696704
 30
0.0
 11
395.755462
 21
419.596262
 31
0.0
  0
LINE
  5
13BC
100
AcDbEntity
  8
11000_LEFT
370
    50
390
0
  6
CONTINUOUS
 62
     7
100
AcDbLine
 10
395.755462
 20
419.596262
 30
0.0
 11
395.891265
 21
419.504839
 31
0.0
  0
LINE
  5
13BD
100
AcDbEntity
  8
11000_LEFT
370
    50
390
0
  6
CONTINUOUS
 62
     7
100
AcDbLine
 10
395.891265
 20
419.504839
 30
0.0
 11
396.007949
 21
419.422656
 31
0.0
  0
LINE
  5
13BE
100
AcDbEntity
  8
11000_LEFT
370
    50
390
0
  6
CONTINUOUS
 62
     7
100
AcDbLine
 10
396.007949
 20
419.422656
 30
0.0
 11
396.105422
 21
419.349928
 31
0.0
  0
LINE
  5
13BF
100
AcDbEntity
  8
11000_LEFT
370
    50
390
0
  6
CONTINUOUS
 62
     7
100
AcDbLine
 10
396.105422
 20
419.349928
 30
0.0
 11
396.183654
 21
419.286846
 31
0.0
  0
LINE
  5
13C0
100
AcDbEntity
  8
11000_LEFT
370
    50
390
0
  6
CONTINUOUS
 62
     7
100
AcDbLine
 10
396.183654
 20
419.286846
 30
0.0
 11
396.242996
 21
419.233357
 31
0.0
  0
LINE
  5
13C1
100
AcDbEntity
  8
11000_LEFT
370
    50
390
0
  6
CONTINUOUS
 62
     7
100
AcDbLine
 10
396.242996
 20
419.233357
 30
0.0
 11
396.284072
 21
419.189253
 31
0.0
  0
LINE
  5
13C2
100
AcDbEntity
  8
11000_LEFT
370
    50
390
0
  6
CONTINUOUS
 62
     7
100
AcDbLine
 10
396.284072
 20
419.189253
 30
0.0
 11
396.307494
 21
419.154327
 31
0.0
  0
LINE
  5
13C3
100
AcDbEntity
  8
11000_LEFT
370
    50
390
0
  6
CONTINUOUS
 62
     7
100
AcDbLine
 10
396.307494
 20
419.154327
 30
0.0
 11
396.313865
 21
419.128363
 31
0.0
  0
LINE
  5
13C4
100
AcDbEntity
  8
11000_LEFT
370
    50
390
0
  6
CONTINUOUS
 62
     7
100
AcDbLine
 10
395.600608
 20
414.718295
 30
0.0
 11
395.600608
 21
419.696704
 31
0.0
  0
LINE
  5
13C5
100
AcDbEntity
  8
11000_LEFT
370
    50
390
0
  6
CONTINUOUS
 62
     7
100
AcDbLine
 10
395.600608
 20
424.502957
 30
0.0
 11
395.600608
 21
429.481701
 31
0.0
  0
ARC
  5
13C6
100
AcDbEntity
  8
11000_LEFT
370
    50
390
0
  6
CONTINUOUS
 62
     7
100
AcDbCircle
 10
363.950009
 20
422.099997
 30
0.0
 40
32.500001
100
AcDbArc
 50
5.245756
 51
13.128124
  0
LINE
  5
13C7
100
AcDbEntity
  8
11000_LEFT
370
    50
390
0
  6
CONTINUOUS
 62
     7
100
AcDbLine
 10
392.970008
 20
444.009998
 30
0.0
 11
392.970008
 21
444.209997
 31
0.0
  0
LINE
  5
13C8
100
AcDbEntity
  8
11000_LEFT
370
    50
390
0
  6
CONTINUOUS
 62
     7
100
AcDbLine
 10
392.970008
 20
444.009998
 30
0.0
 11
392.970008
 21
440.209997
 31
0.0
  0
LINE
  5
13C9
100
AcDbEntity
  8
11000_LEFT
370
    50
390
0
  6
CONTINUOUS
 62
     7
100
AcDbLine
 10
392.970008
 20
440.009998
 30
0.0
 11
392.970008
 21
440.209997
 31
0.0
  0
LINE
  5
13CA
100
AcDbEntity
  8
11000_LEFT
370
    50
390
0
  6
CONTINUOUS
 62
     7
100
AcDbLine
 10
392.970008
 20
444.209997
 30
0.0
 11
392.615066
 21
444.209997
 31
0.0
  0
LINE
  5
13CB
100
AcDbEntity
  8
11000_LEFT
370
    50
390
0
  6
CONTINUOUS
 62
     7
100
AcDbLine
 10
392.970008
 20
444.009998
 30
0.0
 11
392.735107
 21
444.009998
 31
0.0
  0
LINE
  5
13CC
100
AcDbEntity
  8
11000_LEFT
370
    50
390
0
  6
CONTINUOUS
 62
     7
100
AcDbLine
 10
392.970008
 20
440.209997
 30
0.0
 11
392.770446
 21
440.209997
 31
0.0
  0
LINE
  5
13CD
100
AcDbEntity
  8
11000_LEFT
370
    50
390
0
  6
CONTINUOUS
 62
     7
100
AcDbLine
 10
392.970008
 20
440.009998
 30
0.0
 11
392.770438
 21
440.009998
 31
0.0
  0
LINE
  5
13CE
100
AcDbEntity
  8
11000_LEFT
370
    50
390
0
  6
CONTINUOUS
 62
     7
100
AcDbLine
 10
392.970008
 20
441.056293
 30
0.0
 11
393.37001
 21
441.056293
 31
0.0
  0
LINE
  5
13CF
100
AcDbEntity
  8
11000_LEFT
370
    50
390
0
  6
CONTINUOUS
 62
     7
100
AcDbLine
 10
393.37001
 20
441.056293
 30
0.0
 11
393.37001
 21
441.494551
 31
0.0
  0
LINE
  5
13D0
100
AcDbEntity
  8
11000_LEFT
370
    50
390
0
  6
CONTINUOUS
 62
     7
100
AcDbLine
 10
392.970008
 20
441.494551
 30
0.0
 11
393.37001
 21
441.494551
 31
0.0
  0
LINE
  5
13D1
100
AcDbEntity
  8
11000_LEFT
370
    50
390
0
  6
CONTINUOUS
 62
     7
100
AcDbLine
 10
393.37001
 20
441.494553
 30
0.0
 11
393.37001
 21
441.550104
 31
0.0
  0
LINE
  5
13D2
100
AcDbEntity
  8
11000_LEFT
370
    50
390
0
  6
CONTINUOUS
 62
     7
100
AcDbLine
 10
393.37001
 20
441.550104
 30
0.0
 11
392.970008
 21
441.550104
 31
0.0
  0
LINE
  5
13D3
100
AcDbEntity
  8
11000_LEFT
370
    50
390
0
  6
CONTINUOUS
 62
     7
100
AcDbLine
 10
393.37001
 20
441.550104
 30
0.0
 11
393.37001
 21
441.707508
 31
0.0
  0
LINE
  5
13D4
100
AcDbEntity
  8
11000_LEFT
370
    50
390
0
  6
CONTINUOUS
 62
     7
100
AcDbLine
 10
393.37001
 20
441.707508
 30
0.0
 11
392.970008
 21
441.707508
 31
0.0
  0
LINE
  5
13D5
100
AcDbEntity
  8
11000_LEFT
370
    50
390
0
  6
CONTINUOUS
 62
     7
100
AcDbLine
 10
393.37001
 20
441.707508
 30
0.0
 11
393.37001
 21
441.935896
 31
0.0
  0
LINE
  5
13D6
100
AcDbEntity
  8
11000_LEFT
370
    50
390
0
  6
CONTINUOUS
 62
     7
100
AcDbLine
 10
393.37001
 20
441.935896
 30
0.0
 11
392.970008
 21
441.935896
 31
0.0
  0
LINE
  5
13D7
100
AcDbEntity
  8
11000_LEFT
370
    50
390
0
  6
CONTINUOUS
 62
     7
100
AcDbLine
 10
393.37001
 20
441.935896
 30
0.0
 11
393.37001
 21
442.276934
 31
0.0
  0
LINE
  5
13D8
100
AcDbEntity
  8
11000_LEFT
370
    50
390
0
  6
CONTINUOUS
 62
     7
100
AcDbLine
 10
392.970008
 20
442.276934
 30
0.0
 11
393.37001
 21
442.276934
 31
0.0
  0
LINE
  5
13D9
100
AcDbEntity
  8
11000_LEFT
370
    50
390
0
  6
CONTINUOUS
 62
     7
100
AcDbLine
 10
393.37001
 20
442.276934
 30
0.0
 11
393.37001
 21
442.810869
 31
0.0
  0
LINE
  5
13DA
100
AcDbEntity
  8
11000_LEFT
370
    50
390
0
  6
CONTINUOUS
 62
     7
100
AcDbLine
 10
392.970008
 20
442.810869
 30
0.0
 11
393.37001
 21
442.810869
 31
0.0
  0
LINE
  5
13DB
100
AcDbEntity
  8
11000_LEFT
370
    50
390
0
  6
CONTINUOUS
 62
     7
100
AcDbLine
 10
393.37001
 20
442.810869
 30
0.0
 11
393.37001
 21
443.147278
 31
0.0
  0
LINE
  5
13DC
100
AcDbEntity
  8
11000_LEFT
370
    50
390
0
  6
CONTINUOUS
 62
     7
100
AcDbLine
 10
392.970008
 20
443.147278
 30
0.0
 11
393.37001
 21
443.147278
 31
0.0
  0
LINE
  5
13DD
100
AcDbEntity
  8
11000_LEFT
370
    50
390
0
  6
CONTINUOUS
 62
     7
100
AcDbLine
 10
393.37001
 20
443.147278
 30
0.0
 11
393.37001
 21
443.195801
 31
0.0
  0
LINE
  5
13DE
100
AcDbEntity
  8
11000_LEFT
370
    50
390
0
  6
CONTINUOUS
 62
     7
100
AcDbLine
 10
393.37001
 20
440.97382
 30
0.0
 11
393.37001
 21
441.056293
 31
0.0
  0
LINE
  5
13DF
100
AcDbEntity
  8
11000_LEFT
370
    50
390
0
  6
CONTINUOUS
 62
     7
100
AcDbLine
 10
364.250011
 20
459.4
 30
0.0
 11
366.750011
 21
459.4
 31
0.0
  0
ARC
  5
13E0
100
AcDbEntity
  8
11000_LEFT
370
    50
390
0
  6
CONTINUOUS
 62
     7
100
AcDbCircle
 10
366.75001
 20
458.999998
 30
0.0
 40
0.4
100
AcDbArc
 50
0.0
 51
89.999891
  0
LINE
  5
13E1
100
AcDbEntity
  8
11000_LEFT
370
    50
390
0
  6
CONTINUOUS
 62
     7
100
AcDbLine
 10
367.150008
 20
458.999998
 30
0.0
 11
367.150008
 21
455.4
 31
0.0
  0
ARC
  5
13E2
100
AcDbEntity
  8
11000_LEFT
370
    50
390
0
  6
CONTINUOUS
 62
     7
100
AcDbCircle
 10
366.75001
 20
455.399998
 30
0.0
 40
0.4
100
AcDbArc
 50
270.000109
 51
0.000219
  0
LINE
  5
13E3
100
AcDbEntity
  8
11000_LEFT
370
    50
390
0
  6
CONTINUOUS
 62
     7
100
AcDbLine
 10
366.750011
 20
454.999998
 30
0.0
 11
364.250011
 21
454.999998
 31
0.0
  0
ARC
  5
13E4
100
AcDbEntity
  8
11000_LEFT
370
    50
390
0
  6
CONTINUOUS
 62
     7
100
AcDbCircle
 10
364.25001
 20
455.399998
 30
0.0
 40
0.4
100
AcDbArc
 50
179.999781
 51
270.000109
  0
LINE
  5
13E5
100
AcDbEntity
  8
11000_LEFT
370
    50
390
0
  6
CONTINUOUS
 62
     7
100
AcDbLine
 10
363.850009
 20
455.4
 30
0.0
 11
363.850009
 21
458.999998
 31
0.0
  0
ARC
  5
13E6
100
AcDbEntity
  8
11000_LEFT
370
    50
390
0
  6
CONTINUOUS
 62
     7
100
AcDbCircle
 10
364.25001
 20
458.999998
 30
0.0
 40
0.4
100
AcDbArc
 50
89.999891
 51
180.0
  0
LINE
  5
13E7
100
AcDbEntity
  8
11000_LEFT
370
    50
390
0
  6
CONTINUOUS
 62
     7
100
AcDbLine
 10
364.250011
 20
383.4
 30
0.0
 11
365.750011
 21
383.4
 31
0.0
  0
ARC
  5
13E8
100
AcDbEntity
  8
11000_LEFT
370
    50
390
0
  6
CONTINUOUS
 62
     7
100
AcDbCircle
 10
365.75001
 20
382.999998
 30
0.0
 40
0.4
100
AcDbArc
 50
0.0
 51
89.999891
  0
LINE
  5
13E9
100
AcDbEntity
  8
11000_LEFT
370
    50
390
0
  6
CONTINUOUS
 62
     7
100
AcDbLine
 10
366.150008
 20
382.999998
 30
0.0
 11
366.150008
 21
379.4
 31
0.0
  0
ARC
  5
13EA
100
AcDbEntity
  8
11000_LEFT
370
    50
390
0
  6
CONTINUOUS
 62
     7
100
AcDbCircle
 10
365.75001
 20
379.399998
 30
0.0
 40
0.4
100
AcDbArc
 50
270.000109
 51
0.000219
  0
LINE
  5
13EB
100
AcDbEntity
  8
11000_LEFT
370
    50
390
0
  6
CONTINUOUS
 62
     7
100
AcDbLine
 10
365.750011
 20
378.999998
 30
0.0
 11
364.250011
 21
378.999998
 31
0.0
  0
ARC
  5
13EC
100
AcDbEntity
  8
11000_LEFT
370
    50
390
0
  6
CONTINUOUS
 62
     7
100
AcDbCircle
 10
364.25001
 20
379.399998
 30
0.0
 40
0.4
100
AcDbArc
 50
179.999781
 51
270.000109
  0
LINE
  5
13ED
100
AcDbEntity
  8
11000_LEFT
370
    50
390
0
  6
CONTINUOUS
 62
     7
100
AcDbLine
 10
363.850009
 20
379.4
 30
0.0
 11
363.850009
 21
382.999998
 31
0.0
  0
ARC
  5
13EE
100
AcDbEntity
  8
11000_LEFT
370
    50
390
0
  6
CONTINUOUS
 62
     7
100
AcDbCircle
 10
364.25001
 20
382.999998
 30
0.0
 40
0.4
100
AcDbArc
 50
89.999891
 51
180.0
  0
LINE
  5
13EF
100
AcDbEntity
  8
11000_LEFT
370
    50
390
0
  6
CONTINUOUS
 62
     7
100
AcDbLine
 10
392.17282
 20
444.407125
 30
0.0
 11
368.350017
 21
444.501655
 31
0.0
  0
ARC
  5
13F0
100
AcDbEntity
  8
11000_LEFT
370
    50
390
0
  6
CONTINUOUS
 62
     7
100
AcDbCircle
 10
392.170437
 20
443.807129
 30
0.0
 40
0.6
100
AcDbArc
 50
359.99994
 51
89.772418
  0
LINE
  5
13F1
100
AcDbEntity
  8
11000_LEFT
370
    50
390
0
  6
CONTINUOUS
 62
     7
100
AcDbLine
 10
370.150008
 20
456.65457
 30
0.0
 11
370.150008
 21
466.199999
 31
0.0
  0
LINE
  5
13F2
100
AcDbEntity
  8
11000_LEFT
370
    50
390
0
  6
CONTINUOUS
 62
     7
100
AcDbLine
 10
369.850009
 20
454.519617
 30
0.0
 11
369.850009
 21
456.212828
 31
0.0
  0
ARC
  5
13F3
100
AcDbEntity
  8
11000_LEFT
370
    50
390
0
  6
CONTINUOUS
 62
     7
100
AcDbCircle
 10
370.05001
 20
456.212827
 30
0.0
 40
0.2
100
AcDbArc
 50
130.729475
 51
179.999727
  0
LINE
  5
13F4
100
AcDbEntity
  8
11000_LEFT
370
    50
390
0
  6
CONTINUOUS
 62
     7
100
AcDbLine
 10
369.919513
 20
456.364386
 30
0.0
 11
370.080509
 21
456.503012
 31
0.0
  0
ARC
  5
13F5
100
AcDbEntity
  8
11000_LEFT
370
    50
390
0
  6
CONTINUOUS
 62
     7
100
AcDbCircle
 10
369.95001
 20
456.654569
 30
0.0
 40
0.2
100
AcDbArc
 50
310.730069
 51
0.000109
  0
LINE
  5
13F6
100
AcDbEntity
  8
11000_LEFT
370
    50
390
0
  6
CONTINUOUS
 62
     7
100
AcDbLine
 10
368.350013
 20
451.809997
 30
0.0
 11
369.850009
 21
451.809997
 31
0.0
  0
LINE
  5
13F7
100
AcDbEntity
  8
11000_LEFT
370
    50
390
0
  6
CONTINUOUS
 62
     7
100
AcDbLine
 10
368.350013
 20
451.009998
 30
0.0
 11
369.850009
 21
451.009998
 31
0.0
  0
LINE
  5
13F8
100
AcDbEntity
  8
11000_LEFT
370
    50
390
0
  6
CONTINUOUS
 62
     7
100
AcDbLine
 10
369.850009
 20
451.009998
 30
0.0
 11
369.850009
 21
451.809997
 31
0.0
  0
LINE
  5
13F9
100
AcDbEntity
  8
11000_LEFT
370
    50
390
0
  6
CONTINUOUS
 62
     7
100
AcDbLine
 10
368.350017
 20
445.109999
 30
0.0
 11
369.850009
 21
445.109999
 31
0.0
  0
LINE
  5
13FA
100
AcDbEntity
  8
11000_LEFT
370
    50
390
0
  6
CONTINUOUS
 62
     7
100
AcDbLine
 10
368.350013
 20
445.909998
 30
0.0
 11
369.850009
 21
445.909998
 31
0.0
  0
LINE
  5
13FB
100
AcDbEntity
  8
11000_LEFT
370
    50
390
0
  6
CONTINUOUS
 62
     7
100
AcDbLine
 10
369.850009
 20
445.109999
 30
0.0
 11
369.850009
 21
445.909998
 31
0.0
  0
LINE
  5
13FC
100
AcDbEntity
  8
11000_LEFT
370
    50
390
0
  6
CONTINUOUS
 62
     7
100
AcDbLine
 10
369.850009
 20
451.009998
 30
0.0
 11
369.850009
 21
445.909998
 31
0.0
  0
LINE
  5
13FD
100
AcDbEntity
  8
11000_LEFT
370
    50
390
0
  6
CONTINUOUS
 62
     7
100
AcDbLine
 10
368.350013
 20
451.009998
 30
0.0
 11
368.350009
 21
453.763601
 31
0.0
  0
LINE
  5
13FE
100
AcDbEntity
  8
11000_LEFT
370
    50
390
0
  6
CONTINUOUS
 62
     7
100
AcDbLine
 10
368.350017
 20
444.501655
 30
0.0
 11
368.350013
 21
445.909998
 31
0.0
  0
LINE
  5
13FF
100
AcDbEntity
  8
11000_LEFT
370
    50
390
0
  6
CONTINUOUS
 62
     7
100
AcDbLine
 10
368.350009
 20
453.763601
 30
0.0
 11
369.652618
 21
454.237711
 31
0.0
  0
ARC
  5
1400
100
AcDbEntity
  8
11000_LEFT
370
    50
390
0
  6
CONTINUOUS
 62
     7
100
AcDbCircle
 10
369.55001
 20
454.519619
 30
0.0
 40
0.3
100
AcDbArc
 50
290.000309
 51
359.999688
  0
ARC
  5
1401
100
AcDbEntity
  8
11000_LEFT
370
    50
390
0
  6
CONTINUOUS
 62
     7
100
AcDbCircle
 10
369.55001
 20
466.199998
 30
0.0
 40
0.6
100
AcDbArc
 50
0.000071
 51
89.999999
  0
LINE
  5
1402
100
AcDbEntity
  8
11000_LEFT
370
    50
390
0
  6
CONTINUOUS
 62
     7
100
AcDbLine
 10
369.55001
 20
466.799997
 30
0.0
 11
360.55001
 21
466.799997
 31
0.0
  0
ARC
  5
1403
100
AcDbEntity
  8
11000_LEFT
370
    50
390
0
  6
CONTINUOUS
 62
     7
100
AcDbCircle
 10
369.55001
 20
377.799998
 30
0.0
 40
0.6
100
AcDbArc
 50
270.0
 51
359.999928
  0
LINE
  5
1404
100
AcDbEntity
  8
11000_LEFT
370
    50
390
0
  6
CONTINUOUS
 62
     7
100
AcDbLine
 10
370.150008
 20
377.799997
 30
0.0
 11
370.150008
 21
399.300819
 31
0.0
  0
ARC
  5
1405
100
AcDbEntity
  8
11000_LEFT
370
    50
390
0
  6
CONTINUOUS
 62
     7
100
AcDbCircle
 10
370.35001
 20
399.300819
 30
0.0
 40
0.2
100
AcDbArc
 50
90.236269
 51
180.0
  0
LINE
  5
1406
100
AcDbEntity
  8
11000_LEFT
370
    50
390
0
  6
CONTINUOUS
 62
     7
100
AcDbLine
 10
370.349185
 20
399.500818
 30
0.0
 11
392.264411
 21
399.591003
 31
0.0
  0
ARC
  5
1407
100
AcDbEntity
  8
11000_LEFT
370
    50
390
0
  6
CONTINUOUS
 62
     7
100
AcDbCircle
 10
392.26194
 20
400.190999
 30
0.0
 40
0.6
100
AcDbArc
 50
270.236029
 51
350.644747
  0
ARC
  5
1408
100
AcDbEntity
  8
11000_LEFT
370
    50
390
0
  6
CONTINUOUS
 62
     7
100
AcDbCircle
 10
274.45001
 20
419.599998
 30
0.0
 40
120.0
100
AcDbArc
 50
350.644804
 51
9.597415
  0
LINE
  5
1409
100
AcDbEntity
  8
11000_LEFT
370
    50
390
0
  6
CONTINUOUS
 62
     7
100
AcDbLine
 10
392.770438
 20
439.606911
 30
0.0
 11
392.770438
 21
443.807129
 31
0.0
  0
LINE
  5
140A
100
AcDbEntity
  8
11000_LEFT
370
    50
390
0
  6
CONTINUOUS
 62
     7
100
AcDbLine
 10
405.950012
 20
425.099838
 30
0.0
 11
396.311271
 21
425.099838
 31
0.0
  0
LINE
  5
140B
100
AcDbEntity
  8
11000_LEFT
370
    50
390
0
  6
CONTINUOUS
 62
     7
100
AcDbLine
 10
405.950012
 20
419.099838
 30
0.0
 11
396.31124
 21
419.099838
 31
0.0
  0
ARC
  5
140C
100
AcDbEntity
  8
11000_LEFT
370
    50
390
0
  6
CONTINUOUS
 62
     7
100
AcDbCircle
 10
394.821518
 20
414.899998
 30
0.0
 40
0.8
100
AcDbArc
 50
269.999948
 51
346.871864
  0
ARC
  5
140D
100
AcDbEntity
  8
11000_LEFT
370
    50
390
0
  6
CONTINUOUS
 62
     7
100
AcDbCircle
 10
363.950013
 20
422.099998
 30
0.0
 40
32.499997
100
AcDbArc
 50
346.871832
 51
354.753729
  0
ARC
  5
140E
100
AcDbEntity
  8
11000_LEFT
370
    50
390
0
  6
CONTINUOUS
 62
     7
100
AcDbCircle
 10
394.821518
 20
429.299998
 30
0.0
 40
0.8
100
AcDbArc
 50
13.128156
 51
90.000052
  0
LINE
  5
140F
100
AcDbEntity
  8
11000_LEFT
370
    50
390
0
  6
CONTINUOUS
 62
     7
100
AcDbLine
 10
393.37001
 20
440.97382
 30
0.0
 11
392.970008
 21
440.97382
 31
0.0
  0
LINE
  5
1410
100
AcDbEntity
  8
11000_LEFT
370
    50
390
0
  6
CONTINUOUS
 62
     7
100
AcDbLine
 10
393.37001
 20
443.195801
 30
0.0
 11
392.970008
 21
443.195801
 31
0.0
  0
LINE
  5
1411
100
AcDbEntity
  8
11000_LEFT
370
    50
390
0
  6
CONTINUOUS
 62
     7
100
AcDbLine
 10
393.37001
 20
440.97382
 30
0.0
 11
392.970008
 21
440.97382
 31
0.0
  0
LINE
  5
1412
100
AcDbEntity
  8
11000_LEFT
370
    50
390
0
  6
CONTINUOUS
 62
     7
100
AcDbLine
 10
333.350009
 20
454.199999
 30
0.0
 11
334.750011
 21
454.199999
 31
0.0
  0
ARC
  5
1413
100
AcDbEntity
  8
11000_LEFT
370
    50
390
0
  6
CONTINUOUS
 62
     7
100
AcDbCircle
 10
334.75001
 20
453.399998
 30
0.0
 40
0.8
100
AcDbArc
 50
0.0
 51
89.999945
  0
LINE
  5
1414
100
AcDbEntity
  8
11000_LEFT
370
    50
390
0
  6
CONTINUOUS
 62
     7
100
AcDbLine
 10
335.55001
 20
453.399998
 30
0.0
 11
335.55001
 21
447.599998
 31
0.0
  0
ARC
  5
1415
100
AcDbEntity
  8
11000_LEFT
370
    50
390
0
  6
CONTINUOUS
 62
     7
100
AcDbCircle
 10
334.75001
 20
447.599998
 30
0.0
 40
0.8
100
AcDbArc
 50
270.000055
 51
0.0
  0
LINE
  5
1416
100
AcDbEntity
  8
11000_LEFT
370
    50
390
0
  6
CONTINUOUS
 62
     7
100
AcDbLine
 10
334.750011
 20
446.799997
 30
0.0
 11
333.350009
 21
446.799997
 31
0.0
  0
ARC
  5
1417
100
AcDbEntity
  8
11000_LEFT
370
    50
390
0
  6
CONTINUOUS
 62
     7
100
AcDbCircle
 10
333.35001
 20
447.599998
 30
0.0
 40
0.8
100
AcDbArc
 50
180.0
 51
269.999945
  0
LINE
  5
1418
100
AcDbEntity
  8
11000_LEFT
370
    50
390
0
  6
CONTINUOUS
 62
     7
100
AcDbLine
 10
332.55001
 20
447.599998
 30
0.0
 11
332.55001
 21
453.399998
 31
0.0
  0
ARC
  5
1419
100
AcDbEntity
  8
11000_LEFT
370
    50
390
0
  6
CONTINUOUS
 62
     7
100
AcDbCircle
 10
333.35001
 20
453.399998
 30
0.0
 40
0.8
100
AcDbArc
 50
90.000055
 51
180.0
  0
LINE
  5
141A
100
AcDbEntity
  8
11000_LEFT
370
    50
390
0
  6
CONTINUOUS
 62
     7
100
AcDbLine
 10
333.350009
 20
397.199999
 30
0.0
 11
334.750011
 21
397.199999
 31
0.0
  0
ARC
  5
141B
100
AcDbEntity
  8
11000_LEFT
370
    50
390
0
  6
CONTINUOUS
 62
     7
100
AcDbCircle
 10
334.75001
 20
396.399998
 30
0.0
 40
0.8
100
AcDbArc
 50
0.0
 51
89.999945
  0
LINE
  5
141C
100
AcDbEntity
  8
11000_LEFT
370
    50
390
0
  6
CONTINUOUS
 62
     7
100
AcDbLine
 10
335.55001
 20
396.399998
 30
0.0
 11
335.55001
 21
390.599998
 31
0.0
  0
ARC
  5
141D
100
AcDbEntity
  8
11000_LEFT
370
    50
390
0
  6
CONTINUOUS
 62
     7
100
AcDbCircle
 10
334.75001
 20
390.599998
 30
0.0
 40
0.8
100
AcDbArc
 50
270.000055
 51
0.0
  0
LINE
  5
141E
100
AcDbEntity
  8
11000_LEFT
370
    50
390
0
  6
CONTINUOUS
 62
     7
100
AcDbLine
 10
334.750011
 20
389.799997
 30
0.0
 11
333.350009
 21
389.799997
 31
0.0
  0
ARC
  5
141F
100
AcDbEntity
  8
11000_LEFT
370
    50
390
0
  6
CONTINUOUS
 62
     7
100
AcDbCircle
 10
333.35001
 20
390.599998
 30
0.0
 40
0.8
100
AcDbArc
 50
180.0
 51
269.999945
  0
LINE
  5
1420
100
AcDbEntity
  8
11000_LEFT
370
    50
390
0
  6
CONTINUOUS
 62
     7
100
AcDbLine
 10
332.55001
 20
390.599998
 30
0.0
 11
332.55001
 21
396.399998
 31
0.0
  0
ARC
  5
1421
100
AcDbEntity
  8
11000_LEFT
370
    50
390
0
  6
CONTINUOUS
 62
     7
100
AcDbCircle
 10
333.35001
 20
396.399998
 30
0.0
 40
0.8
100
AcDbArc
 50
90.000055
 51
180.0
  0
LINE
  5
1422
100
AcDbEntity
  8
11000_LEFT
370
    50
390
0
  6
CONTINUOUS
 62
     7
100
AcDbLine
 10
316.55001
 20
458.9
 30
0.0
 11
316.55001
 21
464.249998
 31
0.0
  0
LINE
  5
1423
100
AcDbEntity
  8
11000_LEFT
370
    50
390
0
  6
CONTINUOUS
 62
     7
100
AcDbLine
 10
316.55001
 20
464.249998
 30
0.0
 11
319.55001
 21
464.249998
 31
0.0
  0
LINE
  5
1424
100
AcDbEntity
  8
11000_LEFT
370
    50
390
0
  6
CONTINUOUS
 62
     7
100
AcDbLine
 10
319.55001
 20
464.249998
 30
0.0
 11
319.55001
 21
458.9
 31
0.0
  0
LINE
  5
1425
100
AcDbEntity
  8
11000_LEFT
370
    50
390
0
  6
CONTINUOUS
 62
     7
100
AcDbLine
 10
319.55001
 20
458.9
 30
0.0
 11
316.55001
 21
458.9
 31
0.0
  0
LINE
  5
1426
100
AcDbEntity
  8
11000_LEFT
370
    50
390
0
  6
CONTINUOUS
 62
     7
100
AcDbLine
 10
316.55001
 20
379.4
 30
0.0
 11
316.55001
 21
384.749998
 31
0.0
  0
LINE
  5
1427
100
AcDbEntity
  8
11000_LEFT
370
    50
390
0
  6
CONTINUOUS
 62
     7
100
AcDbLine
 10
316.55001
 20
384.749998
 30
0.0
 11
319.55001
 21
384.749998
 31
0.0
  0
LINE
  5
1428
100
AcDbEntity
  8
11000_LEFT
370
    50
390
0
  6
CONTINUOUS
 62
     7
100
AcDbLine
 10
319.55001
 20
384.749998
 30
0.0
 11
319.55001
 21
379.4
 31
0.0
  0
LINE
  5
1429
100
AcDbEntity
  8
11000_LEFT
370
    50
390
0
  6
CONTINUOUS
 62
     7
100
AcDbLine
 10
319.55001
 20
379.4
 30
0.0
 11
316.55001
 21
379.4
 31
0.0
  0
LINE
  5
142A
100
AcDbEntity
  8
11000_LEFT
370
    50
390
0
  6
CONTINUOUS
 62
     7
100
AcDbLine
 10
335.750011
 20
377.199999
 30
0.0
 11
336.05001
 21
377.199999
 31
0.0
  0
LINE
  5
142B
100
AcDbEntity
  8
11000_LEFT
370
    50
390
0
  6
CONTINUOUS
 62
     7
100
AcDbLine
 10
309.050009
 20
402.499954
 30
0.0
 11
309.050055
 21
402.499998
 31
0.0
  0
LINE
  5
142C
100
AcDbEntity
  8
11000_LEFT
370
    50
390
0
  6
CONTINUOUS
 62
     7
100
AcDbLine
 10
309.050055
 20
402.499998
 30
0.0
 11
312.282059
 21
405.499956
 31
0.0
  0
LINE
  5
142D
100
AcDbEntity
  8
11000_LEFT
370
    50
390
0
  6
CONTINUOUS
 62
     7
100
AcDbLine
 10
313.050009
 20
404.499956
 30
0.0
 11
314.050009
 21
404.499956
 31
0.0
  0
LINE
  5
142E
100
AcDbEntity
  8
11000_LEFT
370
    50
390
0
  6
CONTINUOUS
 62
     7
100
AcDbLine
 10
312.782059
 20
405.499956
 30
0.0
 11
313.050009
 21
404.499956
 31
0.0
  0
LINE
  5
142F
100
AcDbEntity
  8
11000_LEFT
370
    50
390
0
  6
CONTINUOUS
 62
     7
100
AcDbLine
 10
312.282059
 20
405.499956
 30
0.0
 11
312.782059
 21
405.499956
 31
0.0
  0
LINE
  5
1430
100
AcDbEntity
  8
11000_LEFT
370
    50
390
0
  6
CONTINUOUS
 62
     7
100
AcDbLine
 10
314.050009
 20
404.499956
 30
0.0
 11
314.050009
 21
405.499998
 31
0.0
  0
LINE
  5
1431
100
AcDbEntity
  8
11000_LEFT
370
    50
390
0
  6
CONTINUOUS
 62
     7
100
AcDbLine
 10
314.05001
 20
402.499998
 30
0.0
 11
309.050055
 21
402.499998
 31
0.0
  0
LINE
  5
1432
100
AcDbEntity
  8
11000_LEFT
370
    50
390
0
  6
CONTINUOUS
 62
     7
100
AcDbLine
 10
314.05001
 20
405.499998
 30
0.0
 11
314.05001
 21
402.499998
 31
0.0
  0
LINE
  5
1433
100
AcDbEntity
  8
11000_LEFT
370
    50
390
0
  6
CONTINUOUS
 62
     7
100
AcDbLine
 10
314.050009
 20
405.499998
 30
0.0
 11
314.050007
 21
442.999956
 31
0.0
  0
LINE
  5
1434
100
AcDbEntity
  8
11000_LEFT
370
    50
390
0
  6
CONTINUOUS
 62
     7
100
AcDbLine
 10
309.050009
 20
442.999954
 30
0.0
 11
309.050009
 21
442.999973
 31
0.0
  0
LINE
  5
1435
100
AcDbEntity
  8
11000_LEFT
370
    50
390
0
  6
CONTINUOUS
 62
     7
100
AcDbLine
 10
309.161337
 20
442.999954
 30
0.0
 11
309.050009
 21
442.999954
 31
0.0
  0
ARC
  5
1436
100
AcDbEntity
  8
11000_LEFT
370
    50
390
0
  6
CONTINUOUS
 62
     7
100
AcDbCircle
 10
309.161337
 20
442.499955
 30
0.0
 40
0.5
100
AcDbArc
 50
14.281101
 51
90.0
  0
LINE
  5
1437
100
AcDbEntity
  8
11000_LEFT
370
    50
390
0
  6
CONTINUOUS
 62
     7
100
AcDbLine
 10
310.950009
 20
437.499955
 30
0.0
 11
309.645885
 21
442.623295
 31
0.0
  0
LINE
  5
1438
100
AcDbEntity
  8
11000_LEFT
370
    50
390
0
  6
CONTINUOUS
 62
     7
100
AcDbLine
 10
311.650009
 20
437.499955
 30
0.0
 11
310.950009
 21
437.499955
 31
0.0
  0
LINE
  5
1439
100
AcDbEntity
  8
11000_LEFT
370
    50
390
0
  6
CONTINUOUS
 62
     7
100
AcDbLine
 10
313.051008
 20
438.674694
 30
0.0
 11
311.650009
 21
437.499955
 31
0.0
  0
LINE
  5
143A
100
AcDbEntity
  8
11000_LEFT
370
    50
390
0
  6
CONTINUOUS
 62
     7
100
AcDbLine
 10
313.051008
 20
439.999954
 30
0.0
 11
313.051008
 21
438.674694
 31
0.0
  0
LINE
  5
143B
100
AcDbEntity
  8
11000_LEFT
370
    50
390
0
  6
CONTINUOUS
 62
     7
100
AcDbLine
 10
312.850112
 20
440.07275
 30
0.0
 11
313.051008
 21
439.999954
 31
0.0
  0
LINE
  5
143C
100
AcDbEntity
  8
11000_LEFT
370
    50
390
0
  6
CONTINUOUS
 62
     7
100
AcDbLine
 10
312.850008
 20
442.299923
 30
0.0
 11
312.850112
 21
440.07275
 31
0.0
  0
LINE
  5
143D
100
AcDbEntity
  8
11000_LEFT
370
    50
390
0
  6
CONTINUOUS
 62
     7
100
AcDbLine
 10
314.050007
 20
442.999956
 30
0.0
 11
314.04001
 21
442.999956
 31
0.0
  0
LINE
  5
143E
100
AcDbEntity
  8
11000_LEFT
370
    50
390
0
  6
CONTINUOUS
 62
     7
100
AcDbLine
 10
314.04001
 20
442.999956
 30
0.0
 11
313.550008
 21
442.999956
 31
0.0
  0
ARC
  5
143F
100
AcDbEntity
  8
11000_LEFT
370
    50
390
0
  6
CONTINUOUS
 62
     7
100
AcDbCircle
 10
313.550008
 20
442.299955
 30
0.0
 40
0.7
100
AcDbArc
 50
90.000001
 51
180.00264
  0
LINE
  5
1440
100
AcDbEntity
  8
11000_LEFT
370
    50
390
0
  6
CONTINUOUS
 62
     7
100
AcDbLine
 10
314.04001
 20
442.999998
 30
0.0
 11
314.04001
 21
442.999956
 31
0.0
  0
LINE
  5
1441
100
AcDbEntity
  8
11000_LEFT
370
    50
390
0
  6
CONTINUOUS
 62
     7
100
AcDbLine
 10
309.050009
 20
442.999954
 30
0.0
 11
309.050009
 21
442.999998
 31
0.0
  0
LINE
  5
1442
100
AcDbEntity
  8
11000_LEFT
370
    50
390
0
  6
CONTINUOUS
 62
     7
100
AcDbLine
 10
309.050009
 20
442.999998
 30
0.0
 11
314.04001
 21
442.999998
 31
0.0
  0
LINE
  5
1443
100
AcDbEntity
  8
11000_LEFT
370
    50
390
0
  6
CONTINUOUS
 62
     7
100
AcDbLine
 10
309.050009
 20
377.199957
 30
0.0
 11
309.050009
 21
402.499954
 31
0.0
  0
LINE
  5
1444
100
AcDbEntity
  8
11000_LEFT
370
    50
390
0
  6
CONTINUOUS
 62
     7
100
AcDbLine
 10
309.050009
 20
442.999998
 30
0.0
 11
309.050009
 21
463.799959
 31
0.0
  0
LINE
  5
1445
100
AcDbEntity
  8
11000_LEFT
370
    50
390
0
  6
CONTINUOUS
 62
     7
100
AcDbLine
 10
309.050009
 20
463.799959
 30
0.0
 11
309.578989
 21
466.799955
 31
0.0
  0
LINE
  5
1446
100
AcDbEntity
  8
11000_LEFT
370
    50
390
0
  6
CONTINUOUS
 62
     7
100
AcDbLine
 10
309.578989
 20
466.799955
 30
0.0
 11
339.150008
 21
466.799955
 31
0.0
  0
LINE
  5
1447
100
AcDbEntity
  8
11000_LEFT
370
    50
390
0
  6
CONTINUOUS
 62
     7
100
AcDbLine
 10
339.150008
 20
466.799955
 30
0.0
 11
339.150008
 21
428.89995
 31
0.0
  0
LINE
  5
1448
100
AcDbEntity
  8
11000_LEFT
370
    50
390
0
  6
CONTINUOUS
 62
     7
100
AcDbLine
 10
339.150008
 20
428.89995
 30
0.0
 11
338.630409
 21
428.599959
 31
0.0
  0
LINE
  5
1449
100
AcDbEntity
  8
11000_LEFT
370
    50
390
0
  6
CONTINUOUS
 62
     7
100
AcDbLine
 10
338.630409
 20
428.599959
 30
0.0
 11
333.550008
 21
428.599959
 31
0.0
  0
ARC
  5
144A
100
AcDbEntity
  8
11000_LEFT
370
    50
390
0
  6
CONTINUOUS
 62
     7
100
AcDbCircle
 10
333.550009
 20
427.999959
 30
0.0
 40
0.6
100
AcDbArc
 50
90.00005
 51
180.0
  0
LINE
  5
144B
100
AcDbEntity
  8
11000_LEFT
370
    50
390
0
  6
CONTINUOUS
 62
     7
100
AcDbLine
 10
332.950008
 20
427.999959
 30
0.0
 11
332.95001
 21
423.299959
 31
0.0
  0
ARC
  5
144C
100
AcDbEntity
  8
11000_LEFT
370
    50
390
0
  6
CONTINUOUS
 62
     7
100
AcDbCircle
 10
333.550009
 20
423.299959
 30
0.0
 40
0.6
100
AcDbArc
 50
180.0
 51
269.999939
  0
LINE
  5
144D
100
AcDbEntity
  8
11000_LEFT
370
    50
390
0
  6
CONTINUOUS
 62
     7
100
AcDbLine
 10
333.550008
 20
422.699959
 30
0.0
 11
338.630409
 21
422.699959
 31
0.0
  0
LINE
  5
144E
100
AcDbEntity
  8
11000_LEFT
370
    50
390
0
  6
CONTINUOUS
 62
     7
100
AcDbLine
 10
338.630409
 20
422.699959
 30
0.0
 11
339.150008
 21
422.399968
 31
0.0
  0
LINE
  5
144F
100
AcDbEntity
  8
11000_LEFT
370
    50
390
0
  6
CONTINUOUS
 62
     7
100
AcDbLine
 10
339.150008
 20
422.399968
 30
0.0
 11
339.15001
 21
382.638937
 31
0.0
  0
ARC
  5
1450
100
AcDbEntity
  8
11000_LEFT
370
    50
390
0
  6
CONTINUOUS
 62
     7
100
AcDbCircle
 10
338.15001
 20
382.638935
 30
0.0
 40
1.0
100
AcDbArc
 50
280.007949
 51
0.00011
  0
LINE
  5
1451
100
AcDbEntity
  8
11000_LEFT
370
    50
390
0
  6
CONTINUOUS
 62
     7
100
AcDbLine
 10
338.323795
 20
381.65415
 30
0.0
 11
336.245742
 21
381.287435
 31
0.0
  0
ARC
  5
1452
100
AcDbEntity
  8
11000_LEFT
370
    50
390
0
  6
CONTINUOUS
 62
     7
100
AcDbCircle
 10
336.350013
 20
380.696566
 30
0.0
 40
0.6
100
AcDbArc
 50
100.008009
 51
180.000061
  0
LINE
  5
1453
100
AcDbEntity
  8
11000_LEFT
370
    50
390
0
  6
CONTINUOUS
 62
     7
100
AcDbLine
 10
335.750013
 20
380.696566
 30
0.0
 11
335.750011
 21
377.199999
 31
0.0
  0
LINE
  5
1454
100
AcDbEntity
  8
11000_LEFT
370
    50
390
0
  6
CONTINUOUS
 62
     7
100
AcDbLine
 10
335.750011
 20
377.199999
 30
0.0
 11
309.050009
 21
377.199957
 31
0.0
  0
LINE
  5
1455
100
AcDbEntity
  8
11100_LEFT_DIM
370
    13
390
0
  6
CONTINUOUS
 62
     7
100
AcDbLine
 10
309.05001
 20
462.699998
 30
0.0
 11
309.05001
 21
481.500011
 31
0.0
  0
TEXT
  5
1456
100
AcDbEntity
  8
11100_LEFT_DIM
370
    13
390
0
  6
CONTINUOUS
 62
     7
100
AcDbText
 10
354.50001
 20
481.500011
 30
0.0
 40
2.0
  1
96.9
 72
     1
 11
357.50001
 21
481.500011
 31
0.0
100
AcDbText
  0
LINE
  5
1457
100
AcDbEntity
  8
11100_LEFT_DIM
370
    13
390
0
  6
CONTINUOUS
 62
     7
100
AcDbLine
 10
309.05001
 20
480.500011
 30
0.0
 11
405.95001
 21
480.500011
 31
0.0
  0
LINE
  5
1458
100
AcDbEntity
  8
11100_LEFT_DIM
370
    13
390
0
  6
CONTINUOUS
 62
     7
100
AcDbLine
 10
405.95001
 20
481.500011
 30
0.0
 11
405.95001
 21
421.499998
 31
0.0
  0
LINE
  5
1459
100
AcDbEntity
  8
11100_LEFT_DIM
370
    13
390
0
  6
CONTINUOUS
 62
     7
100
AcDbLine
 10
309.05001
 20
377.199998
 30
0.0
 11
309.05001
 21
362.499988
 31
0.0
  0
TEXT
  5
145A
100
AcDbEntity
  8
11100_LEFT_DIM
370
    13
390
0
  6
CONTINUOUS
 62
     7
100
AcDbText
 10
310.883343
 20
364.499988
 30
0.0
 40
2.0
  1
5
 72
     1
 11
311.55001
 21
364.499988
 31
0.0
100
AcDbText
  0
LINE
  5
145B
100
AcDbEntity
  8
11100_LEFT_DIM
370
    13
390
0
  6
CONTINUOUS
 62
     7
100
AcDbLine
 10
320.05001
 20
363.499988
 30
0.0
 11
303.05001
 21
363.499988
 31
0.0
  0
LINE
  5
145C
100
AcDbEntity
  8
11100_LEFT_DIM
370
    13
390
0
  6
CONTINUOUS
 62
     7
100
AcDbLine
 10
314.05001
 20
362.499988
 30
0.0
 11
314.05001
 21
404.499998
 31
0.0
  0
LINE
  5
145D
100
AcDbEntity
  8
11100_LEFT_DIM
370
    13
390
0
  6
CONTINUOUS
 62
     7
100
AcDbLine
 10
314.05001
 20
421.499998
 30
0.0
 11
298.049999
 21
421.499998
 31
0.0
  0
TEXT
  5
145E
100
AcDbEntity
  8
11100_LEFT_DIM
370
    13
390
0
  6
CONTINUOUS
 62
     7
100
AcDbText
 10
298.049999
 20
444.333331
 30
0.0
 40
2.0
  1
49
 50
90.0
 72
     1
 11
298.049999
 21
445.999998
 31
0.0
100
AcDbText
  0
LINE
  5
145F
100
AcDbEntity
  8
11100_LEFT_DIM
370
    13
390
0
  6
CONTINUOUS
 62
     7
100
AcDbLine
 10
299.049999
 20
421.499998
 30
0.0
 11
299.049999
 21
470.499998
 31
0.0
  0
LINE
  5
1460
100
AcDbEntity
  8
11100_LEFT_DIM
370
    13
390
0
  6
CONTINUOUS
 62
     7
100
AcDbLine
 10
298.049999
 20
470.499998
 30
0.0
 11
337.55001
 21
470.499998
 31
0.0
  0
SOLID
  5
1461
100
AcDbEntity
  8
11100_LEFT_DIM
370
    13
390
0
  6
CONTINUOUS
 62
     7
100
AcDbTrace
 10
313.05001
 20
481.026621
 30
0.0
 11
309.05001
 21
480.500011
 31
0.0
 12
313.05001
 22
479.973401
 32
0.0
 13
309.05001
 23
480.500011
 33
0.0
  0
SOLID
  5
1462
100
AcDbEntity
  8
11100_LEFT_DIM
370
    13
390
0
  6
CONTINUOUS
 62
     7
100
AcDbTrace
 10
401.95001
 20
479.973401
 30
0.0
 11
405.95001
 21
480.500011
 31
0.0
 12
401.95001
 22
481.026621
 32
0.0
 13
405.95001
 23
480.500011
 33
0.0
  0
SOLID
  5
1463
100
AcDbEntity
  8
11100_LEFT_DIM
370
    13
390
0
  6
CONTINUOUS
 62
     7
100
AcDbTrace
 10
305.05001
 20
362.973378
 30
0.0
 11
309.05001
 21
363.499988
 31
0.0
 12
305.05001
 22
364.026598
 32
0.0
 13
309.05001
 23
363.499988
 33
0.0
  0
SOLID
  5
1464
100
AcDbEntity
  8
11100_LEFT_DIM
370
    13
390
0
  6
CONTINUOUS
 62
     7
100
AcDbTrace
 10
318.05001
 20
364.026598
 30
0.0
 11
314.05001
 21
363.499988
 31
0.0
 12
318.05001
 22
362.973378
 32
0.0
 13
314.05001
 23
363.499988
 33
0.0
  0
SOLID
  5
1465
100
AcDbEntity
  8
11100_LEFT_DIM
370
    13
390
0
  6
CONTINUOUS
 62
     7
100
AcDbTrace
 10
298.523389
 20
425.499998
 30
0.0
 11
299.049999
 21
421.499998
 31
0.0
 12
299.576609
 22
425.499998
 32
0.0
 13
299.049999
 23
421.499998
 33
0.0
  0
SOLID
  5
1466
100
AcDbEntity
  8
11100_LEFT_DIM
370
    13
390
0
  6
CONTINUOUS
 62
     7
100
AcDbTrace
 10
299.576609
 20
466.499998
 30
0.0
 11
299.049999
 21
470.499998
 31
0.0
 12
298.523389
 22
466.499998
 32
0.0
 13
299.049999
 23
470.499998
 33
0.0
  0
LINE
  5
1467
100
AcDbEntity
  8
90000_FRAME
370
    13
  6
CONTINUOUS
 62
     7
100
AcDbLine
 10
101.408144
 20
118.993717
 30
0.0
 11
101.408144
 21
658.993717
 31
0.0
  0
LINE
  5
1468
100
AcDbEntity
  8
90000_FRAME
370
    13
  6
CONTINUOUS
 62
     7
100
AcDbLine
 10
501.408144
 20
658.993717
 30
0.0
 11
101.408144
 21
658.993717
 31
0.0
  0
LINE
  5
1469
100
AcDbEntity
  8
91000_TIP
370
    13
  6
CONTINUOUS
 62
     7
100
AcDbLine
 10
164.167065
 20
151.413899
 30
0.0
 11
184.167065
 21
156.413898
 31
0.0
  0
LINE
  5
146A
100
AcDbEntity
  8
91000_TIP
370
    13
  6
CONTINUOUS
 62
     7
100
AcDbLine
 10
161.608045
 20
146.413899
 30
0.0
 11
208.812023
 21
146.413899
 31
0.0
  0
LINE
  5
146B
100
AcDbEntity
  8
91000_TIP
370
    13
  6
CONTINUOUS
 62
     7
100
AcDbLine
 10
164.167065
 20
141.413899
 30
0.0
 11
184.167065
 21
136.413899
 31
0.0
  0
LINE
  5
146C
100
AcDbEntity
  8
91000_TIP
370
    13
  6
CONTINUOUS
 62
     7
100
AcDbLine
 10
164.167065
 20
151.413899
 30
0.0
 11
164.167065
 21
141.413899
 31
0.0
  0
LINE
  5
146D
100
AcDbEntity
  8
91000_TIP
370
    13
  6
CONTINUOUS
 62
     7
100
AcDbLine
 10
184.167065
 20
156.413898
 30
0.0
 11
184.167065
 21
136.413899
 31
0.0
  0
LINE
  5
146E
100
AcDbEntity
  8
91000_TIP
370
    13
  6
CONTINUOUS
 62
     7
100
AcDbLine
 10
197.167065
 20
134.970936
 30
0.0
 11
197.167065
 21
157.537708
 31
0.0
  0
CIRCLE
  5
146F
100
AcDbEntity
  8
91000_TIP
370
    13
  6
CONTINUOUS
 62
     7
100
AcDbCircle
 10
197.167065
 20
146.413899
 30
0.0
 40
10.0
  0
CIRCLE
  5
1470
100
AcDbEntity
  8
91000_TIP
370
    13
  6
CONTINUOUS
 62
     7
100
AcDbCircle
 10
197.167065
 20
146.413899
 30
0.0
 40
5.0
  0
TEXT
  5
1471
100
AcDbEntity
  8
90000_FRAME
370
    13
  6
CONTINUOUS
 62
     7
100
AcDbText
 10
222.527225
 20
168.549125
 30
0.0
 40
4.4
  1
All dimensions are in millimeters (mm)
 41
0.961374
100
AcDbText
  0
TEXT
  5
1472
100
AcDbEntity
  8
90000_FRAME
370
    13
  6
CONTINUOUS
 62
     7
100
AcDbText
 10
222.527225
 20
174.80717
 30
0.0
 40
4.4
  1
Alle Bemassungswerte sind in Millimeter (mm) angegeben.
 41
0.825144
100
AcDbText
  0
LINE
  5
1473
100
AcDbEntity
  8
90000_FRAME
370
    13
  6
CONTINUOUS
 62
     7
100
AcDbLine
 10
501.408144
 20
118.993717
 30
0.0
 11
501.408144
 21
658.993717
 31
0.0
  0
LINE
  5
1474
100
AcDbEntity
  8
90000_FRAME
370
    13
  6
CONTINUOUS
 62
     7
100
AcDbLine
 10
501.408144
 20
118.993717
 30
0.0
 11
101.408144
 21
118.993717
 31
0.0
  0
TEXT
  5
1475
100
AcDbEntity
  8
90000_FRAME
370
    13
  6
CONTINUOUS
 62
     7
100
AcDbText
 10
324.30431
 20
154.4
 30
0.0
 40
6.0
  1
3RV201.-…10; 3RV221.-…10; 3RV241.-…10
 41
0.784213
100
AcDbText
  0
TEXT
  5
1476
100
AcDbEntity
  8
90000_FRAME
370
    13
  6
CONTINUOUS
 62
     7
100
AcDbText
 10
407.728144
 20
132.793717
 30
0.0
 40
4.4
  1
Massstab/Scale:
 41
0.9
100
AcDbText
  0
TEXT
  5
1477
100
AcDbEntity
  8
90000_FRAME
370
    13
  6
CONTINUOUS
 62
     7
100
AcDbText
 10
324.0
 20
132.793717
 30
0.0
 40
4.4
  1
Format/Size: DIN A4
 41
0.803258
100
AcDbText
  0
LINE
  5
1478
100
AcDbEntity
  8
90000_FRAME
370
    13
  6
CONTINUOUS
 62
     7
100
AcDbLine
 10
491.408144
 20
128.993717
 30
0.0
 11
491.408144
 21
164.993717
 31
0.0
  0
LINE
  5
1479
100
AcDbEntity
  8
90000_FRAME
370
    13
  6
CONTINUOUS
 62
     7
100
AcDbLine
 10
406.408144
 20
128.993717
 30
0.0
 11
406.408144
 21
140.993717
 31
0.0
  0
LINE
  5
147A
100
AcDbEntity
  8
90000_FRAME
370
    13
  6
CONTINUOUS
 62
     7
100
AcDbLine
 10
321.408144
 20
128.993717
 30
0.0
 11
321.408144
 21
164.993717
 31
0.0
  0
LINE
  5
147B
100
AcDbEntity
  8
90000_FRAME
370
    13
  6
CONTINUOUS
 62
     7
100
AcDbLine
 10
221.408144
 20
164.993717
 30
0.0
 11
491.408144
 21
164.993717
 31
0.0
  0
LINE
  5
147C
100
AcDbEntity
  8
90000_FRAME
370
    13
  6
CONTINUOUS
 62
     7
100
AcDbLine
 10
321.408144
 20
140.993717
 30
0.0
 11
491.408144
 21
140.993717
 31
0.0
  0
LINE
  5
147D
100
AcDbEntity
  8
90000_FRAME
370
    13
  6
CONTINUOUS
 62
     7
100
AcDbLine
 10
221.408144
 20
128.993717
 30
0.0
 11
221.408144
 21
164.993717
 31
0.0
  0
LINE
  5
147E
100
AcDbEntity
  8
90000_FRAME
370
    13
  6
CONTINUOUS
 62
     7
100
AcDbLine
 10
221.408144
 20
128.993717
 30
0.0
 11
491.408144
 21
128.993717
 31
0.0
  0
LINE
  5
147F
100
AcDbEntity
  8
90000_FRAME
370
    13
  6
CONTINUOUS
 62
     7
100
AcDbLine
 10
249.780545
 20
151.822812
 30
0.0
 11
249.780545
 21
142.316274
 31
0.0
  0
LINE
  5
1480
100
AcDbEntity
  8
90000_FRAME
370
    13
  6
CONTINUOUS
 62
     7
100
AcDbLine
 10
252.632506
 20
151.822812
 30
0.0
 11
252.632506
 21
142.316274
 31
0.0
  0
LINE
  5
1481
100
AcDbEntity
  8
90000_FRAME
370
    13
  6
CONTINUOUS
 62
     7
100
AcDbLine
 10
249.780545
 20
142.316274
 30
0.0
 11
252.632506
 21
142.316274
 31
0.0
  0
LINE
  5
1482
100
AcDbEntity
  8
90000_FRAME
370
    13
  6
CONTINUOUS
 62
     7
100
AcDbLine
 10
249.780545
 20
151.822812
 30
0.0
 11
252.632506
 21
151.822812
 31
0.0
  0
LINE
  5
1483
100
AcDbEntity
  8
90000_FRAME
370
    13
  6
CONTINUOUS
 62
     7
100
AcDbLine
 10
254.81901
 20
151.822812
 30
0.0
 11
254.81901
 21
142.316274
 31
0.0
  0
LINE
  5
1484
100
AcDbEntity
  8
90000_FRAME
370
    13
  6
CONTINUOUS
 62
     7
100
AcDbLine
 10
254.81901
 20
142.316274
 30
0.0
 11
261.948914
 21
142.316274
 31
0.0
  0
LINE
  5
1485
100
AcDbEntity
  8
90000_FRAME
370
    13
  6
CONTINUOUS
 62
     7
100
AcDbLine
 10
261.948914
 20
144.122516
 30
0.0
 11
257.575906
 21
144.122516
 31
0.0
  0
LINE
  5
1486
100
AcDbEntity
  8
90000_FRAME
370
    13
  6
CONTINUOUS
 62
     7
100
AcDbLine
 10
261.948914
 20
144.122516
 30
0.0
 11
261.948914
 21
142.316274
 31
0.0
  0
LINE
  5
1487
100
AcDbEntity
  8
90000_FRAME
370
    13
  6
CONTINUOUS
 62
     7
100
AcDbLine
 10
261.853848
 20
151.822812
 30
0.0
 11
254.81901
 21
151.822812
 31
0.0
  0
LINE
  5
1488
100
AcDbEntity
  8
90000_FRAME
370
    13
  6
CONTINUOUS
 62
     7
100
AcDbLine
 10
261.853848
 20
150.064103
 30
0.0
 11
257.575906
 21
150.064103
 31
0.0
  0
LINE
  5
1489
100
AcDbEntity
  8
90000_FRAME
370
    13
  6
CONTINUOUS
 62
     7
100
AcDbLine
 10
261.853848
 20
151.822812
 30
0.0
 11
261.853848
 21
150.064103
 31
0.0
  0
LINE
  5
148A
100
AcDbEntity
  8
90000_FRAME
370
    13
  6
CONTINUOUS
 62
     7
100
AcDbLine
 10
261.283456
 20
146.356553
 30
0.0
 11
257.575906
 21
146.356553
 31
0.0
  0
LINE
  5
148B
100
AcDbEntity
  8
90000_FRAME
370
    13
  6
CONTINUOUS
 62
     7
100
AcDbLine
 10
261.283456
 20
147.925132
 30
0.0
 11
261.283456
 21
146.356553
 31
0.0
  0
LINE
  5
148C
100
AcDbEntity
  8
90000_FRAME
370
    13
  6
CONTINUOUS
 62
     7
100
AcDbLine
 10
261.283456
 20
147.925132
 30
0.0
 11
257.575906
 21
147.925132
 31
0.0
  0
LINE
  5
148D
100
AcDbEntity
  8
90000_FRAME
370
    13
  6
CONTINUOUS
 62
     7
100
AcDbLine
 10
257.575906
 20
150.064103
 30
0.0
 11
257.575906
 21
147.925132
 31
0.0
  0
LINE
  5
148E
100
AcDbEntity
  8
90000_FRAME
370
    13
  6
CONTINUOUS
 62
     7
100
AcDbLine
 10
257.575906
 20
146.356553
 30
0.0
 11
257.575906
 21
144.122516
 31
0.0
  0
LINE
  5
148F
100
AcDbEntity
  8
90000_FRAME
370
    13
  6
CONTINUOUS
 62
     7
100
AcDbLine
 10
263.565025
 20
142.316274
 30
0.0
 11
263.565025
 21
151.822812
 31
0.0
  0
LINE
  5
1490
100
AcDbEntity
  8
90000_FRAME
370
    13
  6
CONTINUOUS
 62
     7
100
AcDbLine
 10
263.565025
 20
142.316274
 30
0.0
 11
265.466333
 21
142.316274
 31
0.0
  0
LINE
  5
1491
100
AcDbEntity
  8
90000_FRAME
370
    13
  6
CONTINUOUS
 62
     7
100
AcDbLine
 10
275.258067
 20
151.822812
 30
0.0
 11
275.258067
 21
142.316274
 31
0.0
  0
LINE
  5
1492
100
AcDbEntity
  8
90000_FRAME
370
    13
  6
CONTINUOUS
 62
     7
100
AcDbLine
 10
275.258067
 20
142.316274
 30
0.0
 11
272.501171
 21
142.316274
 31
0.0
  0
LINE
  5
1493
100
AcDbEntity
  8
90000_FRAME
370
    13
  6
CONTINUOUS
 62
     7
100
AcDbLine
 10
268.128163
 20
142.221209
 30
0.0
 11
269.83934
 21
142.221209
 31
0.0
  0
LINE
  5
1494
100
AcDbEntity
  8
90000_FRAME
370
    13
  6
CONTINUOUS
 62
     7
100
AcDbLine
 10
268.128163
 20
142.221209
 30
0.0
 11
265.466333
 21
148.400459
 31
0.0
  0
LINE
  5
1495
100
AcDbEntity
  8
90000_FRAME
370
    13
  6
CONTINUOUS
 62
     7
100
AcDbLine
 10
265.466333
 20
142.316274
 30
0.0
 11
265.466333
 21
148.400459
 31
0.0
  0
LINE
  5
1496
100
AcDbEntity
  8
90000_FRAME
370
    13
  6
CONTINUOUS
 62
     7
100
AcDbLine
 10
272.501171
 20
148.495524
 30
0.0
 11
269.83934
 21
142.221209
 31
0.0
  0
LINE
  5
1497
100
AcDbEntity
  8
90000_FRAME
370
    13
  6
CONTINUOUS
 62
     7
100
AcDbLine
 10
266.987379
 20
151.822812
 30
0.0
 11
263.565025
 21
151.822812
 31
0.0
  0
LINE
  5
1498
100
AcDbEntity
  8
90000_FRAME
370
    13
  6
CONTINUOUS
 62
     7
100
AcDbLine
 10
275.258067
 20
151.822812
 30
0.0
 11
271.835713
 21
151.822812
 31
0.0
  0
LINE
  5
1499
100
AcDbEntity
  8
90000_FRAME
370
    13
  6
CONTINUOUS
 62
     7
100
AcDbLine
 10
266.987379
 20
151.822812
 30
0.0
 11
269.459079
 21
146.023824
 31
0.0
  0
LINE
  5
149A
100
AcDbEntity
  8
90000_FRAME
370
    13
  6
CONTINUOUS
 62
     7
100
AcDbLine
 10
271.835713
 20
151.822812
 30
0.0
 11
269.459079
 21
146.023824
 31
0.0
  0
LINE
  5
149B
100
AcDbEntity
  8
90000_FRAME
370
    13
  6
CONTINUOUS
 62
     7
100
AcDbLine
 10
272.501171
 20
148.495524
 30
0.0
 11
272.501171
 21
142.316274
 31
0.0
  0
LINE
  5
149C
100
AcDbEntity
  8
90000_FRAME
370
    13
  6
CONTINUOUS
 62
     7
100
AcDbLine
 10
277.444571
 20
151.822812
 30
0.0
 11
277.444571
 21
142.316274
 31
0.0
  0
LINE
  5
149D
100
AcDbEntity
  8
90000_FRAME
370
    13
  6
CONTINUOUS
 62
     7
100
AcDbLine
 10
277.444571
 20
142.316274
 30
0.0
 11
284.574475
 21
142.316274
 31
0.0
  0
LINE
  5
149E
100
AcDbEntity
  8
90000_FRAME
370
    13
  6
CONTINUOUS
 62
     7
100
AcDbLine
 10
284.574475
 20
144.122516
 30
0.0
 11
280.201467
 21
144.122516
 31
0.0
  0
LINE
  5
149F
100
AcDbEntity
  8
90000_FRAME
370
    13
  6
CONTINUOUS
 62
     7
100
AcDbLine
 10
284.574475
 20
144.122516
 30
0.0
 11
284.574475
 21
142.316274
 31
0.0
  0
LINE
  5
14A0
100
AcDbEntity
  8
90000_FRAME
370
    13
  6
CONTINUOUS
 62
     7
100
AcDbLine
 10
284.479409
 20
151.822812
 30
0.0
 11
277.444571
 21
151.822812
 31
0.0
  0
LINE
  5
14A1
100
AcDbEntity
  8
90000_FRAME
370
    13
  6
CONTINUOUS
 62
     7
100
AcDbLine
 10
284.479409
 20
150.064103
 30
0.0
 11
280.201467
 21
150.064103
 31
0.0
  0
LINE
  5
14A2
100
AcDbEntity
  8
90000_FRAME
370
    13
  6
CONTINUOUS
 62
     7
100
AcDbLine
 10
284.479409
 20
151.822812
 30
0.0
 11
284.479409
 21
150.064103
 31
0.0
  0
LINE
  5
14A3
100
AcDbEntity
  8
90000_FRAME
370
    13
  6
CONTINUOUS
 62
     7
100
AcDbLine
 10
283.909017
 20
146.356553
 30
0.0
 11
280.201467
 21
146.356553
 31
0.0
  0
LINE
  5
14A4
100
AcDbEntity
  8
90000_FRAME
370
    13
  6
CONTINUOUS
 62
     7
100
AcDbLine
 10
283.909017
 20
147.925132
 30
0.0
 11
283.909017
 21
146.356553
 31
0.0
  0
LINE
  5
14A5
100
AcDbEntity
  8
90000_FRAME
370
    13
  6
CONTINUOUS
 62
     7
100
AcDbLine
 10
283.909017
 20
147.925132
 30
0.0
 11
280.201467
 21
147.925132
 31
0.0
  0
LINE
  5
14A6
100
AcDbEntity
  8
90000_FRAME
370
    13
  6
CONTINUOUS
 62
     7
100
AcDbLine
 10
280.201467
 20
150.064103
 30
0.0
 11
280.201467
 21
147.925132
 31
0.0
  0
LINE
  5
14A7
100
AcDbEntity
  8
90000_FRAME
370
    13
  6
CONTINUOUS
 62
     7
100
AcDbLine
 10
280.201467
 20
146.356553
 30
0.0
 11
280.201467
 21
144.122516
 31
0.0
  0
LINE
  5
14A8
100
AcDbEntity
  8
90000_FRAME
370
    13
  6
CONTINUOUS
 62
     7
100
AcDbLine
 10
286.143053
 20
142.316274
 30
0.0
 11
286.143053
 21
151.822812
 31
0.0
  0
LINE
  5
14A9
100
AcDbEntity
  8
90000_FRAME
370
    13
  6
CONTINUOUS
 62
     7
100
AcDbLine
 10
294.508807
 20
151.822812
 30
0.0
 11
294.508807
 21
142.316274
 31
0.0
  0
LINE
  5
14AA
100
AcDbEntity
  8
90000_FRAME
370
    13
  6
CONTINUOUS
 62
     7
100
AcDbLine
 10
286.143053
 20
142.316274
 30
0.0
 11
288.044361
 21
142.316274
 31
0.0
  0
LINE
  5
14AB
100
AcDbEntity
  8
90000_FRAME
370
    13
  6
CONTINUOUS
 62
     7
100
AcDbLine
 10
294.508807
 20
151.822812
 30
0.0
 11
292.607499
 21
151.822812
 31
0.0
  0
LINE
  5
14AC
100
AcDbEntity
  8
90000_FRAME
370
    13
  6
CONTINUOUS
 62
     7
100
AcDbLine
 10
289.232678
 20
151.822812
 30
0.0
 11
286.143053
 21
151.822812
 31
0.0
  0
LINE
  5
14AD
100
AcDbEntity
  8
90000_FRAME
370
    13
  6
CONTINUOUS
 62
     7
100
AcDbLine
 10
294.508807
 20
142.316274
 30
0.0
 11
291.466715
 21
142.316274
 31
0.0
  0
LINE
  5
14AE
100
AcDbEntity
  8
90000_FRAME
370
    13
  6
CONTINUOUS
 62
     7
100
AcDbLine
 10
291.466715
 20
142.316274
 30
0.0
 11
288.044361
 21
148.400459
 31
0.0
  0
LINE
  5
14AF
100
AcDbEntity
  8
90000_FRAME
370
    13
  6
CONTINUOUS
 62
     7
100
AcDbLine
 10
289.232678
 20
151.822812
 30
0.0
 11
292.607499
 21
145.928759
 31
0.0
  0
LINE
  5
14B0
100
AcDbEntity
  8
90000_FRAME
370
    13
  6
CONTINUOUS
 62
     7
100
AcDbLine
 10
292.607499
 20
151.822812
 30
0.0
 11
292.607499
 21
145.928759
 31
0.0
  0
LINE
  5
14B1
100
AcDbEntity
  8
90000_FRAME
370
    13
  6
CONTINUOUS
 62
     7
100
AcDbLine
 10
288.044361
 20
142.316274
 30
0.0
 11
288.044361
 21
148.400459
 31
0.0
  0
LINE
  5
14B2
100
AcDbEntity
  8
90000_FRAME
370
    13
  6
CONTINUOUS
 62
     7
100
AcDbLine
 10
296.124918
 20
142.506405
 30
0.0
 11
296.124918
 21
144.407713
 31
0.0
  0
LINE
  5
14B3
100
AcDbEntity
  8
90000_FRAME
370
    13
  6
CONTINUOUS
 62
     7
100
AcDbLine
 10
302.779495
 20
149.826439
 30
0.0
 11
302.779495
 21
151.727747
 31
0.0
  0
ARC
  5
14B4
100
AcDbEntity
  8
90000_FRAME
370
    13
  6
CONTINUOUS
 62
     7
100
AcDbCircle
 10
299.534201
 20
146.230591
 30
0.0
 40
2.223239
100
AcDbArc
 50
277.709996
 51
295.688493
  0
ARC
  5
14B5
100
AcDbEntity
  8
90000_FRAME
370
    13
  6
CONTINUOUS
 62
     7
100
AcDbCircle
 10
300.102821
 20
144.78094
 30
0.0
 40
0.680338
100
AcDbArc
 50
305.503221
 51
72.46529
  0
ARC
  5
14B6
100
AcDbEntity
  8
90000_FRAME
370
    13
  6
CONTINUOUS
 62
     7
100
AcDbCircle
 10
298.970833
 20
151.584354
 30
0.0
 40
9.513589
100
AcDbArc
 50
252.59392
 51
280.98166
  0
ARC
  5
14B7
100
AcDbEntity
  8
90000_FRAME
370
    13
  6
CONTINUOUS
 62
     7
100
AcDbCircle
 10
299.880504
 20
146.348326
 30
0.0
 40
4.201453
100
AcDbArc
 50
282.405836
 51
311.864443
  0
ARC
  5
14B8
100
AcDbEntity
  8
90000_FRAME
370
    13
  6
CONTINUOUS
 62
     7
100
AcDbCircle
 10
299.333375
 20
149.56501
 30
0.0
 40
0.605925
100
AcDbArc
 50
154.440035
 51
221.82017
  0
ARC
  5
14B9
100
AcDbEntity
  8
90000_FRAME
370
    13
  6
CONTINUOUS
 62
     7
100
AcDbCircle
 10
299.491817
 20
149.406567
 30
0.0
 40
0.820618
100
AcDbArc
 50
102.828783
 51
149.225964
  0
ARC
  5
14BA
100
AcDbEntity
  8
90000_FRAME
370
    13
  6
CONTINUOUS
 62
     7
100
AcDbCircle
 10
300.325871
 20
145.921897
 30
0.0
 40
4.403673
100
AcDbArc
 50
84.040006
 51
103.342766
  0
ARC
  5
14BB
100
AcDbEntity
  8
90000_FRAME
370
    13
  6
CONTINUOUS
 62
     7
100
AcDbCircle
 10
299.643943
 20
141.087169
 30
0.0
 40
9.284747
100
AcDbArc
 50
70.262586
 51
82.952419
  0
ARC
  5
14BC
100
AcDbEntity
  8
90000_FRAME
370
    13
  6
CONTINUOUS
 62
     7
100
AcDbCircle
 10
298.615907
 20
150.430415
 30
0.0
 40
6.517512
100
AcDbArc
 50
247.530021
 51
280.757952
  0
ARC
  5
14BD
100
AcDbEntity
  8
90000_FRAME
370
    13
  6
CONTINUOUS
 62
     7
100
AcDbCircle
 10
285.845974
 20
113.927375
 30
0.0
 40
34.663217
100
AcDbArc
 50
65.341467
 51
67.399777
  0
ARC
  5
14BE
100
AcDbEntity
  8
90000_FRAME
370
    13
  6
CONTINUOUS
 62
     7
100
AcDbCircle
 10
307.437699
 20
165.512227
 30
0.0
 40
21.258328
100
AcDbArc
 50
242.86201
 51
247.104203
  0
ARC
  5
14BF
100
AcDbEntity
  8
90000_FRAME
370
    13
  6
CONTINUOUS
 62
     7
100
AcDbCircle
 10
299.727896
 20
150.444364
 30
0.0
 40
4.332583
100
AcDbArc
 50
227.311928
 51
242.704032
  0
ARC
  5
14C0
100
AcDbEntity
  8
90000_FRAME
370
    13
  6
CONTINUOUS
 62
     7
100
AcDbCircle
 10
298.519835
 20
149.033009
 30
0.0
 40
2.477043
100
AcDbArc
 50
194.795219
 51
225.717655
  0
ARC
  5
14C1
100
AcDbEntity
  8
90000_FRAME
370
    13
  6
CONTINUOUS
 62
     7
100
AcDbCircle
 10
298.644151
 20
149.113449
 30
0.0
 40
2.618184
100
AcDbArc
 50
164.197486
 51
195.802514
  0
ARC
  5
14C2
100
AcDbEntity
  8
90000_FRAME
370
    13
  6
CONTINUOUS
 62
     7
100
AcDbCircle
 10
299.758198
 20
147.336915
 30
0.0
 40
4.73385
100
AcDbArc
 50
86.221802
 51
120.42726
  0
ARC
  5
14C3
100
AcDbEntity
  8
90000_FRAME
370
    13
  6
CONTINUOUS
 62
     7
100
AcDbCircle
 10
299.220485
 20
133.944579
 30
0.0
 40
18.13581
100
AcDbArc
 50
78.682705
 51
87.31476
  0
ARC
  5
14C4
100
AcDbEntity
  8
90000_FRAME
370
    13
  6
CONTINUOUS
 62
     7
100
AcDbCircle
 10
298.308347
 20
149.328465
 30
0.0
 40
2.239495
100
AcDbArc
 50
142.813918
 51
167.152295
  0
ARC
  5
14C5
100
AcDbEntity
  8
90000_FRAME
370
    13
  6
CONTINUOUS
 62
     7
100
AcDbCircle
 10
298.998965
 20
148.715301
 30
0.0
 40
3.161093
100
AcDbArc
 50
121.214095
 51
141.525477
  0
ARC
  5
14C6
100
AcDbEntity
  8
90000_FRAME
370
    13
  6
CONTINUOUS
 62
     7
100
AcDbCircle
 10
300.153314
 20
150.337416
 30
0.0
 40
1.732255
100
AcDbArc
 50
222.776039
 51
239.036243
  0
ARC
  5
14C7
100
AcDbEntity
  8
90000_FRAME
370
    13
  6
CONTINUOUS
 62
     7
100
AcDbCircle
 10
295.139895
 20
135.676871
 30
0.0
 40
13.717547
100
AcDbArc
 50
59.902027
 51
68.203648
  0
ARC
  5
14C8
100
AcDbEntity
  8
90000_FRAME
370
    13
  6
CONTINUOUS
 62
     7
100
AcDbCircle
 10
301.956884
 20
153.528644
 30
0.0
 40
5.397482
100
AcDbArc
 50
240.0482
 51
251.377967
  0
ARC
  5
14C9
100
AcDbEntity
  8
90000_FRAME
370
    13
  6
CONTINUOUS
 62
     7
100
AcDbCircle
 10
300.625969
 20
145.214847
 30
0.0
 40
2.866895
100
AcDbArc
 50
315.890455
 51
333.522926
  0
ARC
  5
14CA
100
AcDbEntity
  8
90000_FRAME
370
    13
  6
CONTINUOUS
 62
     7
100
AcDbCircle
 10
300.635246
 20
145.108033
 30
0.0
 40
2.812457
100
AcDbArc
 50
335.386797
 51
24.391512
  0
ARC
  5
14CB
100
AcDbEntity
  8
90000_FRAME
370
    13
  6
CONTINUOUS
 62
     7
100
AcDbCircle
 10
300.490836
 20
144.95232
 30
0.0
 40
3.009405
100
AcDbArc
 50
25.956292
 51
59.483483
  0
LINE
  5
14CC
100
AcDbEntity
  8
90000_FRAME
370
    13
  6
CONTINUOUS
 62
     7
100
AcDbLine
 10
240.939464
 20
142.506405
 30
0.0
 11
240.939464
 21
144.407713
 31
0.0
  0
LINE
  5
14CD
100
AcDbEntity
  8
90000_FRAME
370
    13
  6
CONTINUOUS
 62
     7
100
AcDbLine
 10
247.594041
 20
149.826439
 30
0.0
 11
247.594041
 21
151.727747
 31
0.0
  0
ARC
  5
14CE
100
AcDbEntity
  8
90000_FRAME
370
    13
  6
CONTINUOUS
 62
     7
100
AcDbCircle
 10
244.348747
 20
146.230591
 30
0.0
 40
2.223239
100
AcDbArc
 50
277.709996
 51
295.688493
  0
ARC
  5
14CF
100
AcDbEntity
  8
90000_FRAME
370
    13
  6
CONTINUOUS
 62
     7
100
AcDbCircle
 10
244.917367
 20
144.78094
 30
0.0
 40
0.680338
100
AcDbArc
 50
305.503221
 51
72.46529
  0
ARC
  5
14D0
100
AcDbEntity
  8
90000_FRAME
370
    13
  6
CONTINUOUS
 62
     7
100
AcDbCircle
 10
243.785379
 20
151.584354
 30
0.0
 40
9.513589
100
AcDbArc
 50
252.59392
 51
280.98166
  0
ARC
  5
14D1
100
AcDbEntity
  8
90000_FRAME
370
    13
  6
CONTINUOUS
 62
     7
100
AcDbCircle
 10
244.69505
 20
146.348326
 30
0.0
 40
4.201453
100
AcDbArc
 50
282.405836
 51
311.864443
  0
ARC
  5
14D2
100
AcDbEntity
  8
90000_FRAME
370
    13
  6
CONTINUOUS
 62
     7
100
AcDbCircle
 10
244.147921
 20
149.56501
 30
0.0
 40
0.605925
100
AcDbArc
 50
154.440035
 51
221.82017
  0
ARC
  5
14D3
100
AcDbEntity
  8
90000_FRAME
370
    13
  6
CONTINUOUS
 62
     7
100
AcDbCircle
 10
244.306363
 20
149.406567
 30
0.0
 40
0.820618
100
AcDbArc
 50
102.828783
 51
149.225964
  0
ARC
  5
14D4
100
AcDbEntity
  8
90000_FRAME
370
    13
  6
CONTINUOUS
 62
     7
100
AcDbCircle
 10
245.140417
 20
145.921897
 30
0.0
 40
4.403673
100
AcDbArc
 50
84.040006
 51
103.342766
  0
ARC
  5
14D5
100
AcDbEntity
  8
90000_FRAME
370
    13
  6
CONTINUOUS
 62
     7
100
AcDbCircle
 10
244.458489
 20
141.087169
 30
0.0
 40
9.284747
100
AcDbArc
 50
70.262586
 51
82.952419
  0
ARC
  5
14D6
100
AcDbEntity
  8
90000_FRAME
370
    13
  6
CONTINUOUS
 62
     7
100
AcDbCircle
 10
243.430453
 20
150.430415
 30
0.0
 40
6.517512
100
AcDbArc
 50
247.530021
 51
280.757952
  0
ARC
  5
14D7
100
AcDbEntity
  8
90000_FRAME
370
    13
  6
CONTINUOUS
 62
     7
100
AcDbCircle
 10
230.66052
 20
113.927375
 30
0.0
 40
34.663217
100
AcDbArc
 50
65.341467
 51
67.399777
  0
ARC
  5
14D8
100
AcDbEntity
  8
90000_FRAME
370
    13
  6
CONTINUOUS
 62
     7
100
AcDbCircle
 10
252.252245
 20
165.512227
 30
0.0
 40
21.258328
100
AcDbArc
 50
242.86201
 51
247.104203
  0
ARC
  5
14D9
100
AcDbEntity
  8
90000_FRAME
370
    13
  6
CONTINUOUS
 62
     7
100
AcDbCircle
 10
244.542442
 20
150.444364
 30
0.0
 40
4.332583
100
AcDbArc
 50
227.311928
 51
242.704032
  0
ARC
  5
14DA
100
AcDbEntity
  8
90000_FRAME
370
    13
  6
CONTINUOUS
 62
     7
100
AcDbCircle
 10
243.334381
 20
149.033009
 30
0.0
 40
2.477043
100
AcDbArc
 50
194.795219
 51
225.717655
  0
ARC
  5
14DB
100
AcDbEntity
  8
90000_FRAME
370
    13
  6
CONTINUOUS
 62
     7
100
AcDbCircle
 10
244.572744
 20
147.336915
 30
0.0
 40
4.73385
100
AcDbArc
 50
86.221802
 51
120.42726
  0
ARC
  5
14DC
100
AcDbEntity
  8
90000_FRAME
370
    13
  6
CONTINUOUS
 62
     7
100
AcDbCircle
 10
244.035031
 20
133.944579
 30
0.0
 40
18.13581
100
AcDbArc
 50
78.682705
 51
87.31476
  0
ARC
  5
14DD
100
AcDbEntity
  8
90000_FRAME
370
    13
  6
CONTINUOUS
 62
     7
100
AcDbCircle
 10
243.813511
 20
148.715301
 30
0.0
 40
3.161093
100
AcDbArc
 50
121.214095
 51
141.525477
  0
ARC
  5
14DE
100
AcDbEntity
  8
90000_FRAME
370
    13
  6
CONTINUOUS
 62
     7
100
AcDbCircle
 10
244.96786
 20
150.337416
 30
0.0
 40
1.732255
100
AcDbArc
 50
222.776039
 51
239.036243
  0
ARC
  5
14DF
100
AcDbEntity
  8
90000_FRAME
370
    13
  6
CONTINUOUS
 62
     7
100
AcDbCircle
 10
239.954441
 20
135.676871
 30
0.0
 40
13.717547
100
AcDbArc
 50
59.902027
 51
68.203648
  0
ARC
  5
14E0
100
AcDbEntity
  8
90000_FRAME
370
    13
  6
CONTINUOUS
 62
     7
100
AcDbCircle
 10
246.77143
 20
153.528644
 30
0.0
 40
5.397482
100
AcDbArc
 50
240.0482
 51
251.377967
  0
ARC
  5
14E1
100
AcDbEntity
  8
90000_FRAME
370
    13
  6
CONTINUOUS
 62
     7
100
AcDbCircle
 10
245.440515
 20
145.214847
 30
0.0
 40
2.866895
100
AcDbArc
 50
315.890455
 51
333.522926
  0
ARC
  5
14E2
100
AcDbEntity
  8
90000_FRAME
370
    13
  6
CONTINUOUS
 62
     7
100
AcDbCircle
 10
245.449792
 20
145.108033
 30
0.0
 40
2.812457
100
AcDbArc
 50
335.386797
 51
24.391512
  0
ARC
  5
14E3
100
AcDbEntity
  8
90000_FRAME
370
    13
  6
CONTINUOUS
 62
     7
100
AcDbCircle
 10
245.305382
 20
144.95232
 30
0.0
 40
3.009405
100
AcDbArc
 50
25.956292
 51
59.483483
  0
LINE
  5
14E4
100
AcDbEntity
  8
90000_FRAME
370
    13
  6
CONTINUOUS
 62
     7
100
AcDbLine
 10
241.323121
 20
150.661201
 30
0.0
 11
241.871253
 21
151.209347
 31
0.0
  0
ARC
  5
14E5
100
AcDbEntity
  8
90000_FRAME
370
    13
  6
CONTINUOUS
 62
     7
100
AcDbCircle
 10
243.458697
 20
149.113449
 30
0.0
 40
2.618184
100
AcDbArc
 50
164.197486
 51
195.802514
  0
ARC
  5
14E6
100
AcDbEntity
  8
90000_FRAME
370
    13
  6
CONTINUOUS
 62
     7
100
AcDbCircle
 10
243.122892
 20
149.328465
 30
0.0
 40
2.239495
100
AcDbArc
 50
142.813918
 51
167.152295
  0
TEXT
  5
14E7
100
AcDbEntity
  8
90000_FRAME
370
    13
  6
CONTINUOUS
 62
     7
100
AcDbText
 10
464.0
 20
132.7938
 30
0.0
 40
4.4
  1
1:2
 41
0.9
100
AcDbText
  0
TEXT
  5
14E8
100
AcDbEntity
  8
90000_FRAME
370
    13
  6
CONTINUOUS
 62
     7
100
AcDbText
 10
324.0
 20
144.4
 30
0.0
 40
4.4
  1

 41
0.784213
100
AcDbText
  0
ENDSEC
  0
SECTION
  2
OBJECTS
  0
DICTIONARY
  5
FE4
100
AcDbDictionary
280
     0
281
     1
  3
ACAD_GROUP
350
FE5
  3
ACAD_MLINESTYLE
350
FE6
  0
DICTIONARY
  5
FE5
102
{ACAD_REACTORS
330
FE4
102
}
100
AcDbDictionary
280
     0
281
     1
  0
DICTIONARY
  5
FE6
102
{ACAD_REACTORS
330
FE4
102
}
100
AcDbDictionary
280
     0
281
     1
  3
Standard
350
FE7
  0
MLINESTYLE
  5
FE7
102
{ACAD_REACTORS
330
FE6
102
}
100
AcDbMlineStyle
  2
Standard
 70
     0
  3

 62
     0
 51
90.0
 52
90.0
 71
     2
 49
0.5
 62
   256
  6
ByLayer
 49
-0.5
 62
   256
  6
ByLayer
  0
ENDSEC
  0
EOF
