  0
SECTION
  2
HEADER
  9
$ACADVER
  1
AC1009
  9
$DWGCODEPAGE
  3
dos850
  9
$INSBASE
 10
0.0
 20
0.0
 30
0.0
  9
$EXTMIN
 10
0.0
 20
0.0
 30
0.0
  9
$EXTMAX
 10
1000.0
 20
1000.0
 30
1000.0
  9
$LIMMIN
 10
0.0
 20
0.0
  9
$LIMMAX
 10
420.0
 20
297.0
  9
$ORTHOMODE
 70
     0
  9
$REGENMODE
 70
     1
  9
$FILLMODE
 70
     1
  9
$QTEXTMODE
 70
     0
  9
$MIRRTEXT
 70
     1
  9
$DRAGMODE
 70
     2
  9
$LTSCALE
 40
1.0
  9
$OSMODE
 70
    37
  9
$ATTMODE
 70
     1
  9
$TEXTSIZE
 40
2.5
  9
$TRACEWID
 40
1.0
  9
$TEXTSTYLE
  7
STANDARD
  9
$CLAYER
  8
0
  9
$CELTYPE
  6
BYLAYER
  9
$CECOLOR
 62
   256
  9
$DIMSCALE
 40
1.0
  9
$DIMASZ
 40
2.5
  9
$DIMEXO
 40
0.625
  9
$DIMDLI
 40
3.75
  9
$DIMRND
 40
0.0
  9
$DIMDLE
 40
0.0
  9
$DIMEXE
 40
1.25
  9
$DIMTP
 40
0.0
  9
$DIMTM
 40
0.0
  9
$DIMTXT
 40
2.5
  9
$DIMCEN
 40
2.5
  9
$DIMTSZ
 40
0.0
  9
$DIMTOL
 70
     0
  9
$DIMLIM
 70
     0
  9
$DIMTIH
 70
     0
  9
$DIMTOH
 70
     0
  9
$DIMSE1
 70
     0
  9
$DIMSE2
 70
     0
  9
$DIMTAD
 70
     1
  9
$DIMZIN
 70
     8
  9
$DIMBLK
  1

  9
$DIMASO
 70
     1
  9
$DIMSHO
 70
     1
  9
$DIMPOST
  1

  9
$DIMAPOST
  1

  9
$DIMALT
 70
     0
  9
$DIMALTD
 70
     3
  9
$DIMALTF
 40
0.03937007874016
  9
$DIMLFAC
 40
1.0
  9
$DIMTOFL
 70
     1
  9
$DIMTVP
 40
0.0
  9
$DIMTIX
 70
     0
  9
$DIMSOXD
 70
     0
  9
$DIMSAH
 70
     0
  9
$DIMBLK1
  1

  9
$DIMBLK2
  1

  9
$DIMSTYLE
  2
ISO-25
  9
$DIMCLRD
 70
     0
  9
$DIMCLRE
 70
     0
  9
$DIMCLRT
 70
     0
  9
$DIMTFAC
 40
1.0
  9
$DIMGAP
 40
0.625
  9
$LUNITS
 70
     2
  9
$LUPREC
 70
     4
  9
$SKETCHINC
 40
1.0
  9
$FILLETRAD
 40
10.0
  9
$AUNITS
 70
     0
  9
$AUPREC
 70
     0
  9
$MENU
  1
.
  9
$ELEVATION
 40
0.0
  9
$PELEVATION
 40
0.0
  9
$THICKNESS
 40
0.0
  9
$LIMCHECK
 70
     0
  9
$CHAMFERA
 40
10.0
  9
$CHAMFERB
 40
10.0
  9
$SKPOLY
 70
     0
  9
$TDCREATE
 40
2455702.665451389
  9
$TDUPDATE
 40
2455702.665451389
  9
$TDINDWG
 40
0.0000000116
  9
$TDUSRTIMER
 40
0.0000000116
  9
$USRTIMER
 70
     1
  9
$ANGBASE
 50
0.0
  9
$ANGDIR
 70
     0
  9
$PDMODE
 70
     0
  9
$PDSIZE
 40
0.0
  9
$PLINEWID
 40
0.0
  9
$COORDS
 70
     1
  9
$SPLFRAME
 70
     0
  9
$SPLINETYPE
 70
     6
  9
$SPLINESEGS
 70
     8
  9
$ATTDIA
 70
     0
  9
$ATTREQ
 70
     1
  9
$HANDLING
 70
     1
  9
$HANDSEED
  5
780
  9
$SURFTAB1
 70
     6
  9
$SURFTAB2
 70
     6
  9
$SURFTYPE
 70
     6
  9
$SURFU
 70
     6
  9
$SURFV
 70
     6
  9
$UCSNAME
  2

  9
$UCSORG
 10
0.0
 20
0.0
 30
0.0
  9
$UCSXDIR
 10
1.0
 20
0.0
 30
0.0
  9
$UCSYDIR
 10
0.0
 20
1.0
 30
0.0
  9
$PUCSNAME
  2

  9
$PUCSORG
 10
0.0
 20
0.0
 30
0.0
  9
$PUCSXDIR
 10
1.0
 20
0.0
 30
0.0
  9
$PUCSYDIR
 10
0.0
 20
1.0
 30
0.0
  9
$USERI1
 70
     0
  9
$USERI2
 70
     0
  9
$USERI3
 70
     0
  9
$USERI4
 70
     0
  9
$USERI5
 70
     0
  9
$USERR1
 40
0.0
  9
$USERR2
 40
0.0
  9
$USERR3
 40
0.0
  9
$USERR4
 40
0.0
  9
$USERR5
 40
0.0
  9
$WORLDVIEW
 70
     1
  9
$SHADEDGE
 70
     3
  9
$SHADEDIF
 70
    70
  9
$TILEMODE
 70
     1
  9
$MAXACTVP
 70
    64
  9
$PLIMCHECK
 70
     0
  9
$PEXTMIN
 10
0.0
 20
0.0
 30
0.0
  9
$PEXTMAX
 10
1000.0
 20
1000.0
 30
0.0
  9
$PLIMMIN
 10
0.0
 20
0.0
  9
$PLIMMAX
 10
100.0
 20
100.0
  9
$UNITMODE
 70
     0
  9
$VISRETAIN
 70
     1
  9
$PLINEGEN
 70
     0
  9
$PSLTSCALE
 70
     1
  0
ENDSEC
  0
SECTION
  2
TABLES
  0
TABLE
  2
VPORT
 70
     1
  0
VPORT
  2
*ACTIVE
 70
     0
 10
0.0
 20
0.0
 11
1.0
 21
1.0
 12
0.0000000000000568
 22
-0.0000000000002274
 13
0.0
 23
0.0
 14
10.0
 24
10.0
 15
10.0
 25
10.0
 16
0.0
 26
0.0
 36
1.0
 17
0.0
 27
0.0
 37
0.0
 40
2240.940000000001
 41
1.972972972850329
 42
50.0
 43
0.0
 44
0.0
 50
0.0
 51
0.0
 71
     0
 72
   100
 73
     1
 74
     3
 75
     0
 76
     0
 77
     0
 78
     0
  0
ENDTAB
  0
TABLE
  2
LTYPE
 70
     3
  0
LTYPE
  2
CONTINUOUS
 70
     0
  3
Solid line
 72
    65
 73
     0
 40
0.0
  0
LTYPE
  2
DASHED
 70
     0
  3

 72
    65
 73
     2
 40
2.0
 49
1.0
 49
-1.0
  0
LTYPE
  2
CENTER
 70
     0
  3

 72
    65
 73
     4
 40
2.0
 49
0.45
 49
-0.5
 49
0.05
 49
-0.5
  0
ENDTAB
  0
TABLE
  2
LAYER
 70
     7
  0
LAYER
  2
0
 70
     0
 62
     7
  6
CONTINUOUS
  0
LAYER
  2
ATTRIB
 70
     0
 62
    -7
  6
CONTINUOUS
  0
LAYER
  2
1
 70
     0
 62
     7
  6
CONTINUOUS
  0
LAYER
  2
2
 70
     0
 62
     7
  6
DASHED
  0
LAYER
  2
3
 70
     0
 62
     7
  6
CENTER
  0
LAYER
  2
4
 70
     0
 62
     7
  6
CENTER
  0
LAYER
  2
7
 70
     0
 62
     7
  6
CONTINUOUS
  0
ENDTAB
  0
TABLE
  2
STYLE
 70
     1
  0
STYLE
  2
STANDARD
 70
     0
 40
0.0
 41
1.0
 50
0.0
 71
     0
 42
2.5
  3
txt
  4

  0
ENDTAB
  0
TABLE
  2
VIEW
 70
     0
  0
ENDTAB
  0
TABLE
  2
UCS
 70
     0
  0
ENDTAB
  0
TABLE
  2
APPID
 70
     1
  0
APPID
  2
ACAD
 70
     0
  0
ENDTAB
  0
TABLE
  2
DIMSTYLE
 70
     1
  0
DIMSTYLE
  2
ISO-25
 70
     0
  3

  4

  5

  6

  7

 40
1.0
 41
2.5
 42
0.625
 43
3.75
 44
1.25
 45
0.0
 46
0.0
 47
0.0
 48
0.0
140
2.5
141
2.5
142
0.0
143
0.03937007874016
144
1.0
145
0.0
146
1.0
147
0.625
 71
     0
 72
     0
 73
     0
 74
     0
 75
     0
 76
     0
 77
     1
 78
     8
170
     0
171
     3
172
     1
173
     0
174
     0
175
     0
176
     0
177
     0
178
     0
  0
ENDTAB
  0
ENDSEC
  0
SECTION
  2
BLOCKS
  0
BLOCK
  8
0
  2
$MODEL_SPACE
 70
     0
 10
0.0
 20
0.0
 30
0.0
  3
$MODEL_SPACE
  1

  0
ENDBLK
  5
21
  8
0
  0
BLOCK
 67
     1
  8
0
  2
$PAPER_SPACE
 70
     0
 10
0.0
 20
0.0
 30
0.0
  3
$PAPER_SPACE
  1

  0
ENDBLK
  5
1D
 67
     1
  8
0
  0
ENDSEC
  0
SECTION
  2
ENTITIES
  0
LINE
  5
32
  8
1
  6
CONTINUOUS
 62
     0
 10
-291.25
 20
1095.0
 30
0.0
 11
291.25
 21
1095.0
 31
0.0
  0
LINE
  5
33
  8
2
  6
DASHED
 62
     0
 10
291.25
 20
-1095.0
 30
0.0
 11
-291.25
 21
-1095.0
 31
0.0
  0
LINE
  5
34
  8
1
  6
CONTINUOUS
 62
     0
 10
-377.75
 20
-1008.5
 30
0.0
 11
-377.75
 21
1008.5
 31
0.0
  0
LINE
  5
35
  8
2
  6
DASHED
 62
     0
 10
377.7499999999999
 20
1008.5
 30
0.0
 11
377.7499999999999
 21
-1008.5
 31
0.0
  0
LINE
  5
36
  8
2
  6
DASHED
 62
     0
 10
-379.75
 20
1097.0
 30
0.0
 11
-379.75
 21
-1097.0
 31
0.0
  0
POLYLINE
  5
37
  8
1
  6
CONTINUOUS
 62
     0
 66
     1
 10
0.0
 20
0.0
 30
0.0
  0
VERTEX
  5
FD
  8
1
  6
CONTINUOUS
 62
     0
 10
-378.25
 20
1095.5
 30
0.0
  0
VERTEX
  5
FE
  8
1
  6
CONTINUOUS
 62
     0
 10
-378.315429081048
 20
1095.565429081048
 30
0.0
  0
VERTEX
  5
FF
  8
1
  6
CONTINUOUS
 62
     0
 10
-378.4457892883301
 20
1095.69578928833
 30
0.0
  0
VERTEX
  5
100
  8
1
  6
CONTINUOUS
 62
     0
 10
-378.5746594209072
 20
1095.824659420907
 30
0.0
  0
VERTEX
  5
101
  8
1
  6
CONTINUOUS
 62
     0
 10
-378.6382285676538
 20
1095.888228567654
 30
0.0
  0
VERTEX
  5
102
  8
1
  6
CONTINUOUS
 62
     0
 10
-378.7010586992564
 20
1095.951058699257
 30
0.0
  0
VERTEX
  5
103
  8
1
  6
CONTINUOUS
 62
     0
 10
-378.8240251485476
 20
1096.074025148548
 30
0.0
  0
VERTEX
  5
104
  8
1
  6
CONTINUOUS
 62
     0
 10
-378.9426229198525
 20
1096.192622919853
 30
0.0
  0
VERTEX
  5
105
  8
1
  6
CONTINUOUS
 62
     0
 10
-379.0094269566468
 20
1096.259426956647
 30
0.0
  0
VERTEX
  5
106
  8
1
  6
CONTINUOUS
 62
     0
 10
-379.0281598872408
 20
1096.278159887241
 30
0.0
  0
VERTEX
  5
107
  8
1
  6
CONTINUOUS
 62
     0
 10
-379.0467282088914
 20
1096.296728208891
 30
0.0
  0
VERTEX
  5
108
  8
1
  6
CONTINUOUS
 62
     0
 10
-379.0559494125202
 20
1096.30594941252
 30
0.0
  0
VERTEX
  5
109
  8
1
  6
CONTINUOUS
 62
     0
 10
-379.0651279937274
 20
1096.315127993727
 30
0.0
  0
VERTEX
  5
10A
  8
1
  6
CONTINUOUS
 62
     0
 10
-379.0833553495294
 20
1096.33335534953
 30
0.0
  0
VERTEX
  5
10B
  8
1
  6
CONTINUOUS
 62
     0
 10
-379.1014064205526
 20
1096.351406420553
 30
0.0
  0
VERTEX
  5
10C
  8
1
  6
CONTINUOUS
 62
     0
 10
-379.1192773883432
 20
1096.369277388343
 30
0.0
  0
VERTEX
  5
10D
  8
1
  6
CONTINUOUS
 62
     0
 10
-379.1369644725453
 20
1096.386964472545
 30
0.0
  0
VERTEX
  5
10E
  8
1
  6
CONTINUOUS
 62
     0
 10
-379.1544639317016
 20
1096.404463931702
 30
0.0
  0
VERTEX
  5
10F
  8
1
  6
CONTINUOUS
 62
     0
 10
-379.163142143513
 20
1096.413142143513
 30
0.0
  0
VERTEX
  5
110
  8
1
  6
CONTINUOUS
 62
     0
 10
-379.1717720640436
 20
1096.421772064044
 30
0.0
  0
VERTEX
  5
111
  8
1
  6
CONTINUOUS
 62
     0
 10
-379.1888852082761
 20
1096.438885208276
 30
0.0
  0
VERTEX
  5
112
  8
1
  6
CONTINUOUS
 62
     0
 10
-379.2057997443501
 20
1096.45579974435
 30
0.0
  0
VERTEX
  5
113
  8
1
  6
CONTINUOUS
 62
     0
 10
-379.2225120942302
 20
1096.47251209423
 30
0.0
  0
VERTEX
  5
114
  8
1
  6
CONTINUOUS
 62
     0
 10
-379.2390187226501
 20
1096.48901872265
 30
0.0
  0
VERTEX
  5
115
  8
1
  6
CONTINUOUS
 62
     0
 10
-379.2553161378613
 20
1096.505316137861
 30
0.0
  0
VERTEX
  5
116
  8
1
  6
CONTINUOUS
 62
     0
 10
-379.2633853114235
 20
1096.513385311424
 30
0.0
  0
VERTEX
  5
117
  8
1
  6
CONTINUOUS
 62
     0
 10
-379.2714008923713
 20
1096.521400892372
 30
0.0
  0
VERTEX
  5
118
  8
1
  6
CONTINUOUS
 62
     0
 10
-379.2872695836734
 20
1096.537269583673
 30
0.0
  0
VERTEX
  5
119
  8
1
  6
CONTINUOUS
 62
     0
 10
-379.3029188549655
 20
1096.552918854966
 30
0.0
  0
VERTEX
  5
11A
  8
1
  6
CONTINUOUS
 62
     0
 10
-379.3106601717798
 20
1096.56066017178
 30
0.0
  0
VERTEX
  5
11B
  8
1
  6
CONTINUOUS
 62
     0
 10
-379.3183453958612
 20
1096.568345395861
 30
0.0
  0
VERTEX
  5
11C
  8
1
  6
CONTINUOUS
 62
     0
 10
-379.3335459430896
 20
1096.58354594309
 30
0.0
  0
VERTEX
  5
11D
  8
1
  6
CONTINUOUS
 62
     0
 10
-379.3485172811854
 20
1096.598517281185
 30
0.0
  0
VERTEX
  5
11E
  8
1
  6
CONTINUOUS
 62
     0
 10
-379.3559160052152
 20
1096.605916005215
 30
0.0
  0
VERTEX
  5
11F
  8
1
  6
CONTINUOUS
 62
     0
 10
-379.3632562431694
 20
1096.613256243169
 30
0.0
  0
VERTEX
  5
120
  8
1
  6
CONTINUOUS
 62
     0
 10
-379.3777597112185
 20
1096.627759711219
 30
0.0
  0
VERTEX
  5
121
  8
1
  6
CONTINUOUS
 62
     0
 10
-379.3920246173249
 20
1096.642024617325
 30
0.0
  0
VERTEX
  5
122
  8
1
  6
CONTINUOUS
 62
     0
 10
-379.4060479439453
 20
1096.656047943945
 30
0.0
  0
VERTEX
  5
123
  8
1
  6
CONTINUOUS
 62
     0
 10
-379.4198267246393
 20
1096.669826724639
 30
0.0
  0
VERTEX
  5
124
  8
1
  6
CONTINUOUS
 62
     0
 10
-379.4333580446968
 20
1096.683358044697
 30
0.0
  0
VERTEX
  5
125
  8
1
  6
CONTINUOUS
 62
     0
 10
-379.4400300104369
 20
1096.690030010437
 30
0.0
  0
VERTEX
  5
126
  8
1
  6
CONTINUOUS
 62
     0
 10
-379.4466390417544
 20
1096.696639041755
 30
0.0
  0
VERTEX
  5
127
  8
1
  6
CONTINUOUS
 62
     0
 10
-379.4596669064013
 20
1096.709666906401
 30
0.0
  0
VERTEX
  5
128
  8
1
  6
CONTINUOUS
 62
     0
 10
-379.472438882773
 20
1096.722438882773
 30
0.0
  0
VERTEX
  5
129
  8
1
  6
CONTINUOUS
 62
     0
 10
-379.484952269135
 20
1096.734952269135
 30
0.0
  0
VERTEX
  5
12A
  8
1
  6
CONTINUOUS
 62
     0
 10
-379.4972044184538
 20
1096.747204418454
 30
0.0
  0
VERTEX
  5
12B
  8
1
  6
CONTINUOUS
 62
     0
 10
-379.5091927389569
 20
1096.759192738957
 30
0.0
  0
VERTEX
  5
12C
  8
1
  6
CONTINUOUS
 62
     0
 10
-379.5150871687193
 20
1096.765087168719
 30
0.0
  0
VERTEX
  5
12D
  8
1
  6
CONTINUOUS
 62
     0
 10
-379.5209146946813
 20
1096.770914694681
 30
0.0
  0
VERTEX
  5
12E
  8
1
  6
CONTINUOUS
 62
     0
 10
-379.5323678060094
 20
1096.78236780601
 30
0.0
  0
VERTEX
  5
12F
  8
1
  6
CONTINUOUS
 62
     0
 10
-379.5435496501945
 20
1096.793549650194
 30
0.0
  0
VERTEX
  5
130
  8
1
  6
CONTINUOUS
 62
     0
 10
-379.5544578618721
 20
1096.804457861872
 30
0.0
  0
VERTEX
  5
131
  8
1
  6
CONTINUOUS
 62
     0
 10
-379.5650901335613
 20
1096.815090133561
 30
0.0
  0
VERTEX
  5
132
  8
1
  6
CONTINUOUS
 62
     0
 10
-379.5754442161522
 20
1096.825444216152
 30
0.0
  0
VERTEX
  5
133
  8
1
  6
CONTINUOUS
 62
     0
 10
-379.5805162497674
 20
1096.830516249767
 30
0.0
  0
VERTEX
  5
134
  8
1
  6
CONTINUOUS
 62
     0
 10
-379.5855179193823
 20
1096.835517919382
 30
0.0
  0
VERTEX
  5
135
  8
1
  6
CONTINUOUS
 62
     0
 10
-379.5953091122991
 20
1096.845309112299
 30
0.0
  0
VERTEX
  5
136
  8
1
  6
CONTINUOUS
 62
     0
 10
-379.6048157237113
 20
1096.854815723711
 30
0.0
  0
VERTEX
  5
137
  8
1
  6
CONTINUOUS
 62
     0
 10
-379.6140357426271
 20
1096.864035742627
 30
0.0
  0
VERTEX
  5
138
  8
1
  6
CONTINUOUS
 62
     0
 10
-379.6229672186792
 20
1096.872967218679
 30
0.0
  0
VERTEX
  5
139
  8
1
  6
CONTINUOUS
 62
     0
 10
-379.6316082625376
 20
1096.881608262538
 30
0.0
  0
VERTEX
  5
13A
  8
1
  6
CONTINUOUS
 62
     0
 10
-379.6358192987669
 20
1096.885819298767
 30
0.0
  0
VERTEX
  5
13B
  8
1
  6
CONTINUOUS
 62
     0
 10
-379.6399570463091
 20
1096.889957046309
 30
0.0
  0
VERTEX
  5
13C
  8
1
  6
CONTINUOUS
 62
     0
 10
-379.6480118039242
 20
1096.898011803924
 30
0.0
  0
VERTEX
  5
13D
  8
1
  6
CONTINUOUS
 62
     0
 10
-379.6557708315106
 20
1096.905770831511
 30
0.0
  0
VERTEX
  5
13E
  8
1
  6
CONTINUOUS
 62
     0
 10
-379.6632324877534
 20
1096.913232487754
 30
0.0
  0
VERTEX
  5
13F
  8
1
  6
CONTINUOUS
 62
     0
 10
-379.6703951942426
 20
1096.920395194243
 30
0.0
  0
VERTEX
  5
140
  8
1
  6
CONTINUOUS
 62
     0
 10
-379.6772574358071
 20
1096.927257435807
 30
0.0
  0
VERTEX
  5
141
  8
1
  6
CONTINUOUS
 62
     0
 10
-379.6805754261224
 20
1096.930575426122
 30
0.0
  0
VERTEX
  5
142
  8
1
  6
CONTINUOUS
 62
     0
 10
-379.6838177608344
 20
1096.933817760835
 30
0.0
  0
VERTEX
  5
143
  8
1
  6
CONTINUOUS
 62
     0
 10
-379.6900747815789
 20
1096.940074781579
 30
0.0
  0
VERTEX
  5
144
  8
1
  6
CONTINUOUS
 62
     0
 10
-379.6960271744545
 20
1096.946027174455
 30
0.0
  0
VERTEX
  5
145
  8
1
  6
CONTINUOUS
 62
     0
 10
-379.6988887394336
 20
1096.948888739434
 30
0.0
  0
VERTEX
  5
146
  8
1
  6
CONTINUOUS
 62
     0
 10
-379.7016736803148
 20
1096.951673680315
 30
0.0
  0
VERTEX
  5
147
  8
1
  6
CONTINUOUS
 62
     0
 10
-379.7070131047199
 20
1096.95701310472
 30
0.0
  0
VERTEX
  5
148
  8
1
  6
CONTINUOUS
 62
     0
 10
-379.7120443181885
 20
1096.962044318188
 30
0.0
  0
VERTEX
  5
149
  8
1
  6
CONTINUOUS
 62
     0
 10
-379.7144440106799
 20
1096.96444401068
 30
0.0
  0
VERTEX
  5
14A
  8
1
  6
CONTINUOUS
 62
     0
 10
-379.716766256437
 20
1096.966766256437
 30
0.0
  0
VERTEX
  5
14B
  8
1
  6
CONTINUOUS
 62
     0
 10
-379.7211779206049
 20
1096.971177920605
 30
0.0
  0
VERTEX
  5
14C
  8
1
  6
CONTINUOUS
 62
     0
 10
-379.7252783774656
 20
1096.975278377466
 30
0.0
  0
VERTEX
  5
14D
  8
1
  6
CONTINUOUS
 62
     0
 10
-379.7290667596245
 20
1096.979066759624
 30
0.0
  0
VERTEX
  5
14E
  8
1
  6
CONTINUOUS
 62
     0
 10
-379.7325422657016
 20
1096.982542265702
 30
0.0
  0
VERTEX
  5
14F
  8
1
  6
CONTINUOUS
 62
     0
 10
-379.7357041605019
 20
1096.985704160502
 30
0.0
  0
VERTEX
  5
150
  8
1
  6
CONTINUOUS
 62
     0
 10
-379.7371672920607
 20
1096.987167292061
 30
0.0
  0
VERTEX
  5
151
  8
1
  6
CONTINUOUS
 62
     0
 10
-379.7385517751704
 20
1096.98855177517
 30
0.0
  0
VERTEX
  5
152
  8
1
  6
CONTINUOUS
 62
     0
 10
-379.7410845073335
 20
1096.991084507333
 30
0.0
  0
VERTEX
  5
153
  8
1
  6
CONTINUOUS
 62
     0
 10
-379.7433018212269
 20
1096.993301821227
 30
0.0
  0
VERTEX
  5
154
  8
1
  6
CONTINUOUS
 62
     0
 10
-379.7452032478085
 20
1096.995203247808
 30
0.0
  0
VERTEX
  5
155
  8
1
  6
CONTINUOUS
 62
     0
 10
-379.7467883848579
 20
1096.996788384858
 30
0.0
  0
VERTEX
  5
156
  8
1
  6
CONTINUOUS
 62
     0
 10
-379.7480568970614
 20
1096.998056897061
 30
0.0
  0
VERTEX
  5
157
  8
1
  6
CONTINUOUS
 62
     0
 10
-379.7485723323728
 20
1096.998572332373
 30
0.0
  0
VERTEX
  5
158
  8
1
  6
CONTINUOUS
 62
     0
 10
-379.7490085160826
 20
1096.999008516083
 30
0.0
  0
VERTEX
  5
159
  8
1
  6
CONTINUOUS
 62
     0
 10
-379.7496430406198
 20
1096.99964304062
 30
0.0
  0
VERTEX
  5
15A
  8
1
  6
CONTINUOUS
 62
     0
 10
-379.7499603364483
 20
1096.999960336448
 30
0.0
  0
VERTEX
  5
15B
  8
1
  6
CONTINUOUS
 62
     0
 10
-379.75
 20
1097.0
 30
0.0
  0
SEQEND
  5
FC
  8
1
  6
CONTINUOUS
 62
     0
  0
POLYLINE
  5
38
  8
1
  6
CONTINUOUS
 62
     0
 66
     1
 10
0.0
 20
0.0
 30
0.0
  0
VERTEX
  5
15D
  8
1
  6
CONTINUOUS
 62
     0
 10
379.75
 20
1097.0
 30
0.0
  0
VERTEX
  5
15E
  8
1
  6
CONTINUOUS
 62
     0
 10
379.7499603364483
 20
1096.999960336448
 30
0.0
  0
VERTEX
  5
15F
  8
1
  6
CONTINUOUS
 62
     0
 10
379.7496430406198
 20
1096.99964304062
 30
0.0
  0
VERTEX
  5
160
  8
1
  6
CONTINUOUS
 62
     0
 10
379.7490085160826
 20
1096.999008516083
 30
0.0
  0
VERTEX
  5
161
  8
1
  6
CONTINUOUS
 62
     0
 10
379.7485723323728
 20
1096.998572332373
 30
0.0
  0
VERTEX
  5
162
  8
1
  6
CONTINUOUS
 62
     0
 10
379.7480568970614
 20
1096.998056897061
 30
0.0
  0
VERTEX
  5
163
  8
1
  6
CONTINUOUS
 62
     0
 10
379.7467883848579
 20
1096.996788384858
 30
0.0
  0
VERTEX
  5
164
  8
1
  6
CONTINUOUS
 62
     0
 10
379.7452032478085
 20
1096.995203247808
 30
0.0
  0
VERTEX
  5
165
  8
1
  6
CONTINUOUS
 62
     0
 10
379.7433018212269
 20
1096.993301821227
 30
0.0
  0
VERTEX
  5
166
  8
1
  6
CONTINUOUS
 62
     0
 10
379.7410845073335
 20
1096.991084507333
 30
0.0
  0
VERTEX
  5
167
  8
1
  6
CONTINUOUS
 62
     0
 10
379.7385517751704
 20
1096.98855177517
 30
0.0
  0
VERTEX
  5
168
  8
1
  6
CONTINUOUS
 62
     0
 10
379.7371672920607
 20
1096.987167292061
 30
0.0
  0
VERTEX
  5
169
  8
1
  6
CONTINUOUS
 62
     0
 10
379.7357041605019
 20
1096.985704160502
 30
0.0
  0
VERTEX
  5
16A
  8
1
  6
CONTINUOUS
 62
     0
 10
379.7325422657016
 20
1096.982542265702
 30
0.0
  0
VERTEX
  5
16B
  8
1
  6
CONTINUOUS
 62
     0
 10
379.7290667596245
 20
1096.979066759624
 30
0.0
  0
VERTEX
  5
16C
  8
1
  6
CONTINUOUS
 62
     0
 10
379.7252783774656
 20
1096.975278377466
 30
0.0
  0
VERTEX
  5
16D
  8
1
  6
CONTINUOUS
 62
     0
 10
379.7211779206049
 20
1096.971177920605
 30
0.0
  0
VERTEX
  5
16E
  8
1
  6
CONTINUOUS
 62
     0
 10
379.716766256437
 20
1096.966766256437
 30
0.0
  0
VERTEX
  5
16F
  8
1
  6
CONTINUOUS
 62
     0
 10
379.7144440106799
 20
1096.96444401068
 30
0.0
  0
VERTEX
  5
170
  8
1
  6
CONTINUOUS
 62
     0
 10
379.7120443181885
 20
1096.962044318188
 30
0.0
  0
VERTEX
  5
171
  8
1
  6
CONTINUOUS
 62
     0
 10
379.7070131047199
 20
1096.95701310472
 30
0.0
  0
VERTEX
  5
172
  8
1
  6
CONTINUOUS
 62
     0
 10
379.7016736803148
 20
1096.951673680315
 30
0.0
  0
VERTEX
  5
173
  8
1
  6
CONTINUOUS
 62
     0
 10
379.6988887394336
 20
1096.948888739434
 30
0.0
  0
VERTEX
  5
174
  8
1
  6
CONTINUOUS
 62
     0
 10
379.6960271744545
 20
1096.946027174455
 30
0.0
  0
VERTEX
  5
175
  8
1
  6
CONTINUOUS
 62
     0
 10
379.6900747815789
 20
1096.940074781579
 30
0.0
  0
VERTEX
  5
176
  8
1
  6
CONTINUOUS
 62
     0
 10
379.6838177608344
 20
1096.933817760835
 30
0.0
  0
VERTEX
  5
177
  8
1
  6
CONTINUOUS
 62
     0
 10
379.6805754261224
 20
1096.930575426122
 30
0.0
  0
VERTEX
  5
178
  8
1
  6
CONTINUOUS
 62
     0
 10
379.6772574358071
 20
1096.927257435807
 30
0.0
  0
VERTEX
  5
179
  8
1
  6
CONTINUOUS
 62
     0
 10
379.6703951942426
 20
1096.920395194243
 30
0.0
  0
VERTEX
  5
17A
  8
1
  6
CONTINUOUS
 62
     0
 10
379.6632324877534
 20
1096.913232487754
 30
0.0
  0
VERTEX
  5
17B
  8
1
  6
CONTINUOUS
 62
     0
 10
379.6557708315106
 20
1096.905770831511
 30
0.0
  0
VERTEX
  5
17C
  8
1
  6
CONTINUOUS
 62
     0
 10
379.6480118039242
 20
1096.898011803924
 30
0.0
  0
VERTEX
  5
17D
  8
1
  6
CONTINUOUS
 62
     0
 10
379.6399570463091
 20
1096.889957046309
 30
0.0
  0
VERTEX
  5
17E
  8
1
  6
CONTINUOUS
 62
     0
 10
379.6358192987669
 20
1096.885819298767
 30
0.0
  0
VERTEX
  5
17F
  8
1
  6
CONTINUOUS
 62
     0
 10
379.6316082625376
 20
1096.881608262538
 30
0.0
  0
VERTEX
  5
180
  8
1
  6
CONTINUOUS
 62
     0
 10
379.6229672186792
 20
1096.872967218679
 30
0.0
  0
VERTEX
  5
181
  8
1
  6
CONTINUOUS
 62
     0
 10
379.6140357426271
 20
1096.864035742627
 30
0.0
  0
VERTEX
  5
182
  8
1
  6
CONTINUOUS
 62
     0
 10
379.6048157237113
 20
1096.854815723711
 30
0.0
  0
VERTEX
  5
183
  8
1
  6
CONTINUOUS
 62
     0
 10
379.5953091122991
 20
1096.845309112299
 30
0.0
  0
VERTEX
  5
184
  8
1
  6
CONTINUOUS
 62
     0
 10
379.5855179193823
 20
1096.835517919382
 30
0.0
  0
VERTEX
  5
185
  8
1
  6
CONTINUOUS
 62
     0
 10
379.5805162497674
 20
1096.830516249767
 30
0.0
  0
VERTEX
  5
186
  8
1
  6
CONTINUOUS
 62
     0
 10
379.5754442161522
 20
1096.825444216152
 30
0.0
  0
VERTEX
  5
187
  8
1
  6
CONTINUOUS
 62
     0
 10
379.5650901335613
 20
1096.815090133561
 30
0.0
  0
VERTEX
  5
188
  8
1
  6
CONTINUOUS
 62
     0
 10
379.5544578618721
 20
1096.804457861872
 30
0.0
  0
VERTEX
  5
189
  8
1
  6
CONTINUOUS
 62
     0
 10
379.5435496501945
 20
1096.793549650194
 30
0.0
  0
VERTEX
  5
18A
  8
1
  6
CONTINUOUS
 62
     0
 10
379.5323678060094
 20
1096.78236780601
 30
0.0
  0
VERTEX
  5
18B
  8
1
  6
CONTINUOUS
 62
     0
 10
379.5209146946813
 20
1096.770914694681
 30
0.0
  0
VERTEX
  5
18C
  8
1
  6
CONTINUOUS
 62
     0
 10
379.5150871687193
 20
1096.765087168719
 30
0.0
  0
VERTEX
  5
18D
  8
1
  6
CONTINUOUS
 62
     0
 10
379.5091927389569
 20
1096.759192738957
 30
0.0
  0
VERTEX
  5
18E
  8
1
  6
CONTINUOUS
 62
     0
 10
379.4972044184538
 20
1096.747204418454
 30
0.0
  0
VERTEX
  5
18F
  8
1
  6
CONTINUOUS
 62
     0
 10
379.484952269135
 20
1096.734952269135
 30
0.0
  0
VERTEX
  5
190
  8
1
  6
CONTINUOUS
 62
     0
 10
379.472438882773
 20
1096.722438882773
 30
0.0
  0
VERTEX
  5
191
  8
1
  6
CONTINUOUS
 62
     0
 10
379.4596669064013
 20
1096.709666906401
 30
0.0
  0
VERTEX
  5
192
  8
1
  6
CONTINUOUS
 62
     0
 10
379.4466390417544
 20
1096.696639041755
 30
0.0
  0
VERTEX
  5
193
  8
1
  6
CONTINUOUS
 62
     0
 10
379.4400300104369
 20
1096.690030010437
 30
0.0
  0
VERTEX
  5
194
  8
1
  6
CONTINUOUS
 62
     0
 10
379.4333580446968
 20
1096.683358044697
 30
0.0
  0
VERTEX
  5
195
  8
1
  6
CONTINUOUS
 62
     0
 10
379.4198267246393
 20
1096.669826724639
 30
0.0
  0
VERTEX
  5
196
  8
1
  6
CONTINUOUS
 62
     0
 10
379.4060479439453
 20
1096.656047943945
 30
0.0
  0
VERTEX
  5
197
  8
1
  6
CONTINUOUS
 62
     0
 10
379.3920246173249
 20
1096.642024617325
 30
0.0
  0
VERTEX
  5
198
  8
1
  6
CONTINUOUS
 62
     0
 10
379.3777597112185
 20
1096.627759711219
 30
0.0
  0
VERTEX
  5
199
  8
1
  6
CONTINUOUS
 62
     0
 10
379.3632562431694
 20
1096.613256243169
 30
0.0
  0
VERTEX
  5
19A
  8
1
  6
CONTINUOUS
 62
     0
 10
379.3559160052152
 20
1096.605916005215
 30
0.0
  0
VERTEX
  5
19B
  8
1
  6
CONTINUOUS
 62
     0
 10
379.3485172811854
 20
1096.598517281185
 30
0.0
  0
VERTEX
  5
19C
  8
1
  6
CONTINUOUS
 62
     0
 10
379.3335459430896
 20
1096.58354594309
 30
0.0
  0
VERTEX
  5
19D
  8
1
  6
CONTINUOUS
 62
     0
 10
379.3183453958612
 20
1096.568345395861
 30
0.0
  0
VERTEX
  5
19E
  8
1
  6
CONTINUOUS
 62
     0
 10
379.3106601717798
 20
1096.56066017178
 30
0.0
  0
VERTEX
  5
19F
  8
1
  6
CONTINUOUS
 62
     0
 10
379.3029188549655
 20
1096.552918854966
 30
0.0
  0
VERTEX
  5
1A0
  8
1
  6
CONTINUOUS
 62
     0
 10
379.2872695836734
 20
1096.537269583673
 30
0.0
  0
VERTEX
  5
1A1
  8
1
  6
CONTINUOUS
 62
     0
 10
379.2714008923713
 20
1096.521400892372
 30
0.0
  0
VERTEX
  5
1A2
  8
1
  6
CONTINUOUS
 62
     0
 10
379.2633853114235
 20
1096.513385311424
 30
0.0
  0
VERTEX
  5
1A3
  8
1
  6
CONTINUOUS
 62
     0
 10
379.2553161378613
 20
1096.505316137861
 30
0.0
  0
VERTEX
  5
1A4
  8
1
  6
CONTINUOUS
 62
     0
 10
379.2390187226501
 20
1096.48901872265
 30
0.0
  0
VERTEX
  5
1A5
  8
1
  6
CONTINUOUS
 62
     0
 10
379.2225120942302
 20
1096.47251209423
 30
0.0
  0
VERTEX
  5
1A6
  8
1
  6
CONTINUOUS
 62
     0
 10
379.2057997443501
 20
1096.45579974435
 30
0.0
  0
VERTEX
  5
1A7
  8
1
  6
CONTINUOUS
 62
     0
 10
379.1888852082761
 20
1096.438885208276
 30
0.0
  0
VERTEX
  5
1A8
  8
1
  6
CONTINUOUS
 62
     0
 10
379.1717720640436
 20
1096.421772064044
 30
0.0
  0
VERTEX
  5
1A9
  8
1
  6
CONTINUOUS
 62
     0
 10
379.163142143513
 20
1096.413142143513
 30
0.0
  0
VERTEX
  5
1AA
  8
1
  6
CONTINUOUS
 62
     0
 10
379.1544639317016
 20
1096.404463931702
 30
0.0
  0
VERTEX
  5
1AB
  8
1
  6
CONTINUOUS
 62
     0
 10
379.1369644725453
 20
1096.386964472545
 30
0.0
  0
VERTEX
  5
1AC
  8
1
  6
CONTINUOUS
 62
     0
 10
379.1192773883432
 20
1096.369277388343
 30
0.0
  0
VERTEX
  5
1AD
  8
1
  6
CONTINUOUS
 62
     0
 10
379.1014064205526
 20
1096.351406420553
 30
0.0
  0
VERTEX
  5
1AE
  8
1
  6
CONTINUOUS
 62
     0
 10
379.0833553495294
 20
1096.33335534953
 30
0.0
  0
VERTEX
  5
1AF
  8
1
  6
CONTINUOUS
 62
     0
 10
379.0651279937274
 20
1096.315127993727
 30
0.0
  0
VERTEX
  5
1B0
  8
1
  6
CONTINUOUS
 62
     0
 10
379.0559494125202
 20
1096.30594941252
 30
0.0
  0
VERTEX
  5
1B1
  8
1
  6
CONTINUOUS
 62
     0
 10
379.0467282088914
 20
1096.296728208891
 30
0.0
  0
VERTEX
  5
1B2
  8
1
  6
CONTINUOUS
 62
     0
 10
379.0281598872408
 20
1096.278159887241
 30
0.0
  0
VERTEX
  5
1B3
  8
1
  6
CONTINUOUS
 62
     0
 10
379.0094269566468
 20
1096.259426956647
 30
0.0
  0
VERTEX
  5
1B4
  8
1
  6
CONTINUOUS
 62
     0
 10
378.9426229198525
 20
1096.192622919853
 30
0.0
  0
VERTEX
  5
1B5
  8
1
  6
CONTINUOUS
 62
     0
 10
378.8240251485476
 20
1096.074025148548
 30
0.0
  0
VERTEX
  5
1B6
  8
1
  6
CONTINUOUS
 62
     0
 10
378.7010586992564
 20
1095.951058699257
 30
0.0
  0
VERTEX
  5
1B7
  8
1
  6
CONTINUOUS
 62
     0
 10
378.6382285676538
 20
1095.888228567654
 30
0.0
  0
VERTEX
  5
1B8
  8
1
  6
CONTINUOUS
 62
     0
 10
378.5746594209072
 20
1095.824659420907
 30
0.0
  0
VERTEX
  5
1B9
  8
1
  6
CONTINUOUS
 62
     0
 10
378.4457892883301
 20
1095.69578928833
 30
0.0
  0
VERTEX
  5
1BA
  8
1
  6
CONTINUOUS
 62
     0
 10
378.315429081048
 20
1095.565429081048
 30
0.0
  0
VERTEX
  5
1BB
  8
1
  6
CONTINUOUS
 62
     0
 10
378.25
 20
1095.5
 30
0.0
  0
SEQEND
  5
15C
  8
1
  6
CONTINUOUS
 62
     0
  0
POLYLINE
  5
39
  8
1
  6
CONTINUOUS
 62
     0
 66
     1
 10
0.0
 20
0.0
 30
0.0
  0
VERTEX
  5
1BD
  8
1
  6
CONTINUOUS
 62
     0
 10
-379.7500000000001
 20
-1097.0
 30
0.0
  0
VERTEX
  5
1BE
  8
1
  6
CONTINUOUS
 62
     0
 10
-379.7499603364483
 20
-1096.999960336448
 30
0.0
  0
VERTEX
  5
1BF
  8
1
  6
CONTINUOUS
 62
     0
 10
-379.74964304062
 20
-1096.99964304062
 30
0.0
  0
VERTEX
  5
1C0
  8
1
  6
CONTINUOUS
 62
     0
 10
-379.7490085160827
 20
-1096.999008516083
 30
0.0
  0
VERTEX
  5
1C1
  8
1
  6
CONTINUOUS
 62
     0
 10
-379.7485723323729
 20
-1096.998572332373
 30
0.0
  0
VERTEX
  5
1C2
  8
1
  6
CONTINUOUS
 62
     0
 10
-379.7480568970614
 20
-1096.998056897061
 30
0.0
  0
VERTEX
  5
1C3
  8
1
  6
CONTINUOUS
 62
     0
 10
-379.746788384858
 20
-1096.996788384858
 30
0.0
  0
VERTEX
  5
1C4
  8
1
  6
CONTINUOUS
 62
     0
 10
-379.7452032478086
 20
-1096.995203247809
 30
0.0
  0
VERTEX
  5
1C5
  8
1
  6
CONTINUOUS
 62
     0
 10
-379.743301821227
 20
-1096.993301821227
 30
0.0
  0
VERTEX
  5
1C6
  8
1
  6
CONTINUOUS
 62
     0
 10
-379.7410845073335
 20
-1096.991084507334
 30
0.0
  0
VERTEX
  5
1C7
  8
1
  6
CONTINUOUS
 62
     0
 10
-379.7385517751704
 20
-1096.98855177517
 30
0.0
  0
VERTEX
  5
1C8
  8
1
  6
CONTINUOUS
 62
     0
 10
-379.7371672920608
 20
-1096.987167292061
 30
0.0
  0
VERTEX
  5
1C9
  8
1
  6
CONTINUOUS
 62
     0
 10
-379.7357041605021
 20
-1096.985704160502
 30
0.0
  0
VERTEX
  5
1CA
  8
1
  6
CONTINUOUS
 62
     0
 10
-379.7325422657017
 20
-1096.982542265702
 30
0.0
  0
VERTEX
  5
1CB
  8
1
  6
CONTINUOUS
 62
     0
 10
-379.7290667596246
 20
-1096.979066759625
 30
0.0
  0
VERTEX
  5
1CC
  8
1
  6
CONTINUOUS
 62
     0
 10
-379.7252783774657
 20
-1096.975278377466
 30
0.0
  0
VERTEX
  5
1CD
  8
1
  6
CONTINUOUS
 62
     0
 10
-379.7211779206049
 20
-1096.971177920605
 30
0.0
  0
VERTEX
  5
1CE
  8
1
  6
CONTINUOUS
 62
     0
 10
-379.716766256437
 20
-1096.966766256437
 30
0.0
  0
VERTEX
  5
1CF
  8
1
  6
CONTINUOUS
 62
     0
 10
-379.71444401068
 20
-1096.96444401068
 30
0.0
  0
VERTEX
  5
1D0
  8
1
  6
CONTINUOUS
 62
     0
 10
-379.7120443181885
 20
-1096.962044318188
 30
0.0
  0
VERTEX
  5
1D1
  8
1
  6
CONTINUOUS
 62
     0
 10
-379.70701310472
 20
-1096.95701310472
 30
0.0
  0
VERTEX
  5
1D2
  8
1
  6
CONTINUOUS
 62
     0
 10
-379.7016736803149
 20
-1096.951673680315
 30
0.0
  0
VERTEX
  5
1D3
  8
1
  6
CONTINUOUS
 62
     0
 10
-379.6988887394336
 20
-1096.948888739434
 30
0.0
  0
VERTEX
  5
1D4
  8
1
  6
CONTINUOUS
 62
     0
 10
-379.6960271744545
 20
-1096.946027174455
 30
0.0
  0
VERTEX
  5
1D5
  8
1
  6
CONTINUOUS
 62
     0
 10
-379.690074781579
 20
-1096.940074781579
 30
0.0
  0
VERTEX
  5
1D6
  8
1
  6
CONTINUOUS
 62
     0
 10
-379.6838177608345
 20
-1096.933817760835
 30
0.0
  0
VERTEX
  5
1D7
  8
1
  6
CONTINUOUS
 62
     0
 10
-379.6805754261224
 20
-1096.930575426123
 30
0.0
  0
VERTEX
  5
1D8
  8
1
  6
CONTINUOUS
 62
     0
 10
-379.6772574358071
 20
-1096.927257435807
 30
0.0
  0
VERTEX
  5
1D9
  8
1
  6
CONTINUOUS
 62
     0
 10
-379.6703951942427
 20
-1096.920395194243
 30
0.0
  0
VERTEX
  5
1DA
  8
1
  6
CONTINUOUS
 62
     0
 10
-379.6632324877535
 20
-1096.913232487754
 30
0.0
  0
VERTEX
  5
1DB
  8
1
  6
CONTINUOUS
 62
     0
 10
-379.6557708315106
 20
-1096.905770831511
 30
0.0
  0
VERTEX
  5
1DC
  8
1
  6
CONTINUOUS
 62
     0
 10
-379.6480118039243
 20
-1096.898011803924
 30
0.0
  0
VERTEX
  5
1DD
  8
1
  6
CONTINUOUS
 62
     0
 10
-379.6399570463091
 20
-1096.889957046309
 30
0.0
  0
VERTEX
  5
1DE
  8
1
  6
CONTINUOUS
 62
     0
 10
-379.635819298767
 20
-1096.885819298767
 30
0.0
  0
VERTEX
  5
1DF
  8
1
  6
CONTINUOUS
 62
     0
 10
-379.6316082625376
 20
-1096.881608262538
 30
0.0
  0
VERTEX
  5
1E0
  8
1
  6
CONTINUOUS
 62
     0
 10
-379.6229672186792
 20
-1096.872967218679
 30
0.0
  0
VERTEX
  5
1E1
  8
1
  6
CONTINUOUS
 62
     0
 10
-379.6140357426272
 20
-1096.864035742627
 30
0.0
  0
VERTEX
  5
1E2
  8
1
  6
CONTINUOUS
 62
     0
 10
-379.6048157237113
 20
-1096.854815723711
 30
0.0
  0
VERTEX
  5
1E3
  8
1
  6
CONTINUOUS
 62
     0
 10
-379.5953091122991
 20
-1096.845309112299
 30
0.0
  0
VERTEX
  5
1E4
  8
1
  6
CONTINUOUS
 62
     0
 10
-379.5855179193823
 20
-1096.835517919382
 30
0.0
  0
VERTEX
  5
1E5
  8
1
  6
CONTINUOUS
 62
     0
 10
-379.5805162497674
 20
-1096.830516249768
 30
0.0
  0
VERTEX
  5
1E6
  8
1
  6
CONTINUOUS
 62
     0
 10
-379.5754442161523
 20
-1096.825444216152
 30
0.0
  0
VERTEX
  5
1E7
  8
1
  6
CONTINUOUS
 62
     0
 10
-379.5650901335613
 20
-1096.815090133561
 30
0.0
  0
VERTEX
  5
1E8
  8
1
  6
CONTINUOUS
 62
     0
 10
-379.5544578618721
 20
-1096.804457861872
 30
0.0
  0
VERTEX
  5
1E9
  8
1
  6
CONTINUOUS
 62
     0
 10
-379.5435496501945
 20
-1096.793549650195
 30
0.0
  0
VERTEX
  5
1EA
  8
1
  6
CONTINUOUS
 62
     0
 10
-379.5323678060095
 20
-1096.78236780601
 30
0.0
  0
VERTEX
  5
1EB
  8
1
  6
CONTINUOUS
 62
     0
 10
-379.5209146946813
 20
-1096.770914694681
 30
0.0
  0
VERTEX
  5
1EC
  8
1
  6
CONTINUOUS
 62
     0
 10
-379.5150871687194
 20
-1096.765087168719
 30
0.0
  0
VERTEX
  5
1ED
  8
1
  6
CONTINUOUS
 62
     0
 10
-379.509192738957
 20
-1096.759192738957
 30
0.0
  0
VERTEX
  5
1EE
  8
1
  6
CONTINUOUS
 62
     0
 10
-379.4972044184539
 20
-1096.747204418454
 30
0.0
  0
VERTEX
  5
1EF
  8
1
  6
CONTINUOUS
 62
     0
 10
-379.4849522691351
 20
-1096.734952269135
 30
0.0
  0
VERTEX
  5
1F0
  8
1
  6
CONTINUOUS
 62
     0
 10
-379.472438882773
 20
-1096.722438882773
 30
0.0
  0
VERTEX
  5
1F1
  8
1
  6
CONTINUOUS
 62
     0
 10
-379.4596669064013
 20
-1096.709666906401
 30
0.0
  0
VERTEX
  5
1F2
  8
1
  6
CONTINUOUS
 62
     0
 10
-379.4466390417545
 20
-1096.696639041755
 30
0.0
  0
VERTEX
  5
1F3
  8
1
  6
CONTINUOUS
 62
     0
 10
-379.4400300104369
 20
-1096.690030010437
 30
0.0
  0
VERTEX
  5
1F4
  8
1
  6
CONTINUOUS
 62
     0
 10
-379.4333580446968
 20
-1096.683358044697
 30
0.0
  0
VERTEX
  5
1F5
  8
1
  6
CONTINUOUS
 62
     0
 10
-379.4198267246393
 20
-1096.669826724639
 30
0.0
  0
VERTEX
  5
1F6
  8
1
  6
CONTINUOUS
 62
     0
 10
-379.4060479439453
 20
-1096.656047943945
 30
0.0
  0
VERTEX
  5
1F7
  8
1
  6
CONTINUOUS
 62
     0
 10
-379.3920246173249
 20
-1096.642024617325
 30
0.0
  0
VERTEX
  5
1F8
  8
1
  6
CONTINUOUS
 62
     0
 10
-379.3777597112185
 20
-1096.627759711219
 30
0.0
  0
VERTEX
  5
1F9
  8
1
  6
CONTINUOUS
 62
     0
 10
-379.3632562431694
 20
-1096.613256243169
 30
0.0
  0
VERTEX
  5
1FA
  8
1
  6
CONTINUOUS
 62
     0
 10
-379.3559160052152
 20
-1096.605916005215
 30
0.0
  0
VERTEX
  5
1FB
  8
1
  6
CONTINUOUS
 62
     0
 10
-379.3485172811854
 20
-1096.598517281185
 30
0.0
  0
VERTEX
  5
1FC
  8
1
  6
CONTINUOUS
 62
     0
 10
-379.3335459430897
 20
-1096.58354594309
 30
0.0
  0
VERTEX
  5
1FD
  8
1
  6
CONTINUOUS
 62
     0
 10
-379.3183453958613
 20
-1096.568345395861
 30
0.0
  0
VERTEX
  5
1FE
  8
1
  6
CONTINUOUS
 62
     0
 10
-379.3106601717798
 20
-1096.56066017178
 30
0.0
  0
VERTEX
  5
1FF
  8
1
  6
CONTINUOUS
 62
     0
 10
-379.3029188549656
 20
-1096.552918854966
 30
0.0
  0
VERTEX
  5
200
  8
1
  6
CONTINUOUS
 62
     0
 10
-379.2872695836734
 20
-1096.537269583673
 30
0.0
  0
VERTEX
  5
201
  8
1
  6
CONTINUOUS
 62
     0
 10
-379.2714008923714
 20
-1096.521400892372
 30
0.0
  0
VERTEX
  5
202
  8
1
  6
CONTINUOUS
 62
     0
 10
-379.2633853114235
 20
-1096.513385311424
 30
0.0
  0
VERTEX
  5
203
  8
1
  6
CONTINUOUS
 62
     0
 10
-379.2553161378613
 20
-1096.505316137861
 30
0.0
  0
VERTEX
  5
204
  8
1
  6
CONTINUOUS
 62
     0
 10
-379.2390187226501
 20
-1096.48901872265
 30
0.0
  0
VERTEX
  5
205
  8
1
  6
CONTINUOUS
 62
     0
 10
-379.2225120942302
 20
-1096.47251209423
 30
0.0
  0
VERTEX
  5
206
  8
1
  6
CONTINUOUS
 62
     0
 10
-379.2057997443502
 20
-1096.45579974435
 30
0.0
  0
VERTEX
  5
207
  8
1
  6
CONTINUOUS
 62
     0
 10
-379.1888852082761
 20
-1096.438885208276
 30
0.0
  0
VERTEX
  5
208
  8
1
  6
CONTINUOUS
 62
     0
 10
-379.1717720640438
 20
-1096.421772064044
 30
0.0
  0
VERTEX
  5
209
  8
1
  6
CONTINUOUS
 62
     0
 10
-379.1631421435131
 20
-1096.413142143513
 30
0.0
  0
VERTEX
  5
20A
  8
1
  6
CONTINUOUS
 62
     0
 10
-379.1544639317016
 20
-1096.404463931702
 30
0.0
  0
VERTEX
  5
20B
  8
1
  6
CONTINUOUS
 62
     0
 10
-379.1369644725454
 20
-1096.386964472545
 30
0.0
  0
VERTEX
  5
20C
  8
1
  6
CONTINUOUS
 62
     0
 10
-379.1192773883432
 20
-1096.369277388343
 30
0.0
  0
VERTEX
  5
20D
  8
1
  6
CONTINUOUS
 62
     0
 10
-379.1014064205527
 20
-1096.351406420553
 30
0.0
  0
VERTEX
  5
20E
  8
1
  6
CONTINUOUS
 62
     0
 10
-379.0833553495294
 20
-1096.33335534953
 30
0.0
  0
VERTEX
  5
20F
  8
1
  6
CONTINUOUS
 62
     0
 10
-379.0651279937275
 20
-1096.315127993727
 30
0.0
  0
VERTEX
  5
210
  8
1
  6
CONTINUOUS
 62
     0
 10
-379.0559494125203
 20
-1096.30594941252
 30
0.0
  0
VERTEX
  5
211
  8
1
  6
CONTINUOUS
 62
     0
 10
-379.0467282088914
 20
-1096.296728208891
 30
0.0
  0
VERTEX
  5
212
  8
1
  6
CONTINUOUS
 62
     0
 10
-379.0281598872408
 20
-1096.278159887241
 30
0.0
  0
VERTEX
  5
213
  8
1
  6
CONTINUOUS
 62
     0
 10
-379.0094269566469
 20
-1096.259426956647
 30
0.0
  0
VERTEX
  5
214
  8
1
  6
CONTINUOUS
 62
     0
 10
-378.9426229198526
 20
-1096.192622919853
 30
0.0
  0
VERTEX
  5
215
  8
1
  6
CONTINUOUS
 62
     0
 10
-378.8240251485477
 20
-1096.074025148548
 30
0.0
  0
VERTEX
  5
216
  8
1
  6
CONTINUOUS
 62
     0
 10
-378.7010586992564
 20
-1095.951058699257
 30
0.0
  0
VERTEX
  5
217
  8
1
  6
CONTINUOUS
 62
     0
 10
-378.6382285676538
 20
-1095.888228567654
 30
0.0
  0
VERTEX
  5
218
  8
1
  6
CONTINUOUS
 62
     0
 10
-378.5746594209072
 20
-1095.824659420907
 30
0.0
  0
VERTEX
  5
219
  8
1
  6
CONTINUOUS
 62
     0
 10
-378.4457892883301
 20
-1095.69578928833
 30
0.0
  0
VERTEX
  5
21A
  8
1
  6
CONTINUOUS
 62
     0
 10
-378.315429081048
 20
-1095.565429081048
 30
0.0
  0
VERTEX
  5
21B
  8
1
  6
CONTINUOUS
 62
     0
 10
-378.25
 20
-1095.5
 30
0.0
  0
SEQEND
  5
1BC
  8
1
  6
CONTINUOUS
 62
     0
  0
POLYLINE
  5
3A
  8
1
  6
CONTINUOUS
 62
     0
 66
     1
 10
0.0
 20
0.0
 30
0.0
  0
VERTEX
  5
21D
  8
1
  6
CONTINUOUS
 62
     0
 10
378.25
 20
-1095.5
 30
0.0
  0
VERTEX
  5
21E
  8
1
  6
CONTINUOUS
 62
     0
 10
378.315429081048
 20
-1095.565429081048
 30
0.0
  0
VERTEX
  5
21F
  8
1
  6
CONTINUOUS
 62
     0
 10
378.4457892883301
 20
-1095.69578928833
 30
0.0
  0
VERTEX
  5
220
  8
1
  6
CONTINUOUS
 62
     0
 10
378.5746594209072
 20
-1095.824659420907
 30
0.0
  0
VERTEX
  5
221
  8
1
  6
CONTINUOUS
 62
     0
 10
378.6382285676538
 20
-1095.888228567654
 30
0.0
  0
VERTEX
  5
222
  8
1
  6
CONTINUOUS
 62
     0
 10
378.7010586992564
 20
-1095.951058699257
 30
0.0
  0
VERTEX
  5
223
  8
1
  6
CONTINUOUS
 62
     0
 10
378.8240251485477
 20
-1096.074025148548
 30
0.0
  0
VERTEX
  5
224
  8
1
  6
CONTINUOUS
 62
     0
 10
378.9426229198526
 20
-1096.192622919853
 30
0.0
  0
VERTEX
  5
225
  8
1
  6
CONTINUOUS
 62
     0
 10
379.0094269566469
 20
-1096.259426956647
 30
0.0
  0
VERTEX
  5
226
  8
1
  6
CONTINUOUS
 62
     0
 10
379.0281598872408
 20
-1096.278159887241
 30
0.0
  0
VERTEX
  5
227
  8
1
  6
CONTINUOUS
 62
     0
 10
379.0467282088914
 20
-1096.296728208891
 30
0.0
  0
VERTEX
  5
228
  8
1
  6
CONTINUOUS
 62
     0
 10
379.0559494125203
 20
-1096.30594941252
 30
0.0
  0
VERTEX
  5
229
  8
1
  6
CONTINUOUS
 62
     0
 10
379.0651279937275
 20
-1096.315127993727
 30
0.0
  0
VERTEX
  5
22A
  8
1
  6
CONTINUOUS
 62
     0
 10
379.0833553495294
 20
-1096.33335534953
 30
0.0
  0
VERTEX
  5
22B
  8
1
  6
CONTINUOUS
 62
     0
 10
379.1014064205527
 20
-1096.351406420553
 30
0.0
  0
VERTEX
  5
22C
  8
1
  6
CONTINUOUS
 62
     0
 10
379.1192773883432
 20
-1096.369277388343
 30
0.0
  0
VERTEX
  5
22D
  8
1
  6
CONTINUOUS
 62
     0
 10
379.1369644725454
 20
-1096.386964472545
 30
0.0
  0
VERTEX
  5
22E
  8
1
  6
CONTINUOUS
 62
     0
 10
379.1544639317016
 20
-1096.404463931702
 30
0.0
  0
VERTEX
  5
22F
  8
1
  6
CONTINUOUS
 62
     0
 10
379.1631421435131
 20
-1096.413142143513
 30
0.0
  0
VERTEX
  5
230
  8
1
  6
CONTINUOUS
 62
     0
 10
379.1717720640438
 20
-1096.421772064044
 30
0.0
  0
VERTEX
  5
231
  8
1
  6
CONTINUOUS
 62
     0
 10
379.1888852082761
 20
-1096.438885208276
 30
0.0
  0
VERTEX
  5
232
  8
1
  6
CONTINUOUS
 62
     0
 10
379.2057997443502
 20
-1096.45579974435
 30
0.0
  0
VERTEX
  5
233
  8
1
  6
CONTINUOUS
 62
     0
 10
379.2225120942302
 20
-1096.47251209423
 30
0.0
  0
VERTEX
  5
234
  8
1
  6
CONTINUOUS
 62
     0
 10
379.2390187226501
 20
-1096.48901872265
 30
0.0
  0
VERTEX
  5
235
  8
1
  6
CONTINUOUS
 62
     0
 10
379.2553161378613
 20
-1096.505316137861
 30
0.0
  0
VERTEX
  5
236
  8
1
  6
CONTINUOUS
 62
     0
 10
379.2633853114235
 20
-1096.513385311424
 30
0.0
  0
VERTEX
  5
237
  8
1
  6
CONTINUOUS
 62
     0
 10
379.2714008923714
 20
-1096.521400892372
 30
0.0
  0
VERTEX
  5
238
  8
1
  6
CONTINUOUS
 62
     0
 10
379.2872695836734
 20
-1096.537269583673
 30
0.0
  0
VERTEX
  5
239
  8
1
  6
CONTINUOUS
 62
     0
 10
379.3029188549656
 20
-1096.552918854966
 30
0.0
  0
VERTEX
  5
23A
  8
1
  6
CONTINUOUS
 62
     0
 10
379.3106601717798
 20
-1096.56066017178
 30
0.0
  0
VERTEX
  5
23B
  8
1
  6
CONTINUOUS
 62
     0
 10
379.3183453958613
 20
-1096.568345395861
 30
0.0
  0
VERTEX
  5
23C
  8
1
  6
CONTINUOUS
 62
     0
 10
379.3335459430897
 20
-1096.58354594309
 30
0.0
  0
VERTEX
  5
23D
  8
1
  6
CONTINUOUS
 62
     0
 10
379.3485172811854
 20
-1096.598517281185
 30
0.0
  0
VERTEX
  5
23E
  8
1
  6
CONTINUOUS
 62
     0
 10
379.3559160052152
 20
-1096.605916005215
 30
0.0
  0
VERTEX
  5
23F
  8
1
  6
CONTINUOUS
 62
     0
 10
379.3632562431694
 20
-1096.613256243169
 30
0.0
  0
VERTEX
  5
240
  8
1
  6
CONTINUOUS
 62
     0
 10
379.3777597112185
 20
-1096.627759711219
 30
0.0
  0
VERTEX
  5
241
  8
1
  6
CONTINUOUS
 62
     0
 10
379.3920246173249
 20
-1096.642024617325
 30
0.0
  0
VERTEX
  5
242
  8
1
  6
CONTINUOUS
 62
     0
 10
379.4060479439453
 20
-1096.656047943945
 30
0.0
  0
VERTEX
  5
243
  8
1
  6
CONTINUOUS
 62
     0
 10
379.4198267246393
 20
-1096.669826724639
 30
0.0
  0
VERTEX
  5
244
  8
1
  6
CONTINUOUS
 62
     0
 10
379.4333580446968
 20
-1096.683358044697
 30
0.0
  0
VERTEX
  5
245
  8
1
  6
CONTINUOUS
 62
     0
 10
379.4400300104369
 20
-1096.690030010437
 30
0.0
  0
VERTEX
  5
246
  8
1
  6
CONTINUOUS
 62
     0
 10
379.4466390417545
 20
-1096.696639041755
 30
0.0
  0
VERTEX
  5
247
  8
1
  6
CONTINUOUS
 62
     0
 10
379.4596669064013
 20
-1096.709666906401
 30
0.0
  0
VERTEX
  5
248
  8
1
  6
CONTINUOUS
 62
     0
 10
379.472438882773
 20
-1096.722438882773
 30
0.0
  0
VERTEX
  5
249
  8
1
  6
CONTINUOUS
 62
     0
 10
379.4849522691351
 20
-1096.734952269135
 30
0.0
  0
VERTEX
  5
24A
  8
1
  6
CONTINUOUS
 62
     0
 10
379.4972044184539
 20
-1096.747204418454
 30
0.0
  0
VERTEX
  5
24B
  8
1
  6
CONTINUOUS
 62
     0
 10
379.509192738957
 20
-1096.759192738957
 30
0.0
  0
VERTEX
  5
24C
  8
1
  6
CONTINUOUS
 62
     0
 10
379.5150871687194
 20
-1096.765087168719
 30
0.0
  0
VERTEX
  5
24D
  8
1
  6
CONTINUOUS
 62
     0
 10
379.5209146946813
 20
-1096.770914694681
 30
0.0
  0
VERTEX
  5
24E
  8
1
  6
CONTINUOUS
 62
     0
 10
379.5323678060095
 20
-1096.78236780601
 30
0.0
  0
VERTEX
  5
24F
  8
1
  6
CONTINUOUS
 62
     0
 10
379.5435496501945
 20
-1096.793549650195
 30
0.0
  0
VERTEX
  5
250
  8
1
  6
CONTINUOUS
 62
     0
 10
379.5544578618721
 20
-1096.804457861872
 30
0.0
  0
VERTEX
  5
251
  8
1
  6
CONTINUOUS
 62
     0
 10
379.5650901335613
 20
-1096.815090133561
 30
0.0
  0
VERTEX
  5
252
  8
1
  6
CONTINUOUS
 62
     0
 10
379.5754442161523
 20
-1096.825444216152
 30
0.0
  0
VERTEX
  5
253
  8
1
  6
CONTINUOUS
 62
     0
 10
379.5805162497674
 20
-1096.830516249768
 30
0.0
  0
VERTEX
  5
254
  8
1
  6
CONTINUOUS
 62
     0
 10
379.5855179193823
 20
-1096.835517919382
 30
0.0
  0
VERTEX
  5
255
  8
1
  6
CONTINUOUS
 62
     0
 10
379.5953091122991
 20
-1096.845309112299
 30
0.0
  0
VERTEX
  5
256
  8
1
  6
CONTINUOUS
 62
     0
 10
379.6048157237113
 20
-1096.854815723711
 30
0.0
  0
VERTEX
  5
257
  8
1
  6
CONTINUOUS
 62
     0
 10
379.6140357426272
 20
-1096.864035742627
 30
0.0
  0
VERTEX
  5
258
  8
1
  6
CONTINUOUS
 62
     0
 10
379.6229672186792
 20
-1096.872967218679
 30
0.0
  0
VERTEX
  5
259
  8
1
  6
CONTINUOUS
 62
     0
 10
379.6316082625376
 20
-1096.881608262538
 30
0.0
  0
VERTEX
  5
25A
  8
1
  6
CONTINUOUS
 62
     0
 10
379.635819298767
 20
-1096.885819298767
 30
0.0
  0
VERTEX
  5
25B
  8
1
  6
CONTINUOUS
 62
     0
 10
379.6399570463091
 20
-1096.889957046309
 30
0.0
  0
VERTEX
  5
25C
  8
1
  6
CONTINUOUS
 62
     0
 10
379.6480118039243
 20
-1096.898011803924
 30
0.0
  0
VERTEX
  5
25D
  8
1
  6
CONTINUOUS
 62
     0
 10
379.6557708315106
 20
-1096.905770831511
 30
0.0
  0
VERTEX
  5
25E
  8
1
  6
CONTINUOUS
 62
     0
 10
379.6632324877535
 20
-1096.913232487754
 30
0.0
  0
VERTEX
  5
25F
  8
1
  6
CONTINUOUS
 62
     0
 10
379.6703951942427
 20
-1096.920395194243
 30
0.0
  0
VERTEX
  5
260
  8
1
  6
CONTINUOUS
 62
     0
 10
379.6772574358071
 20
-1096.927257435807
 30
0.0
  0
VERTEX
  5
261
  8
1
  6
CONTINUOUS
 62
     0
 10
379.6805754261224
 20
-1096.930575426123
 30
0.0
  0
VERTEX
  5
262
  8
1
  6
CONTINUOUS
 62
     0
 10
379.6838177608345
 20
-1096.933817760835
 30
0.0
  0
VERTEX
  5
263
  8
1
  6
CONTINUOUS
 62
     0
 10
379.690074781579
 20
-1096.940074781579
 30
0.0
  0
VERTEX
  5
264
  8
1
  6
CONTINUOUS
 62
     0
 10
379.6960271744545
 20
-1096.946027174455
 30
0.0
  0
VERTEX
  5
265
  8
1
  6
CONTINUOUS
 62
     0
 10
379.6988887394336
 20
-1096.948888739434
 30
0.0
  0
VERTEX
  5
266
  8
1
  6
CONTINUOUS
 62
     0
 10
379.7016736803149
 20
-1096.951673680315
 30
0.0
  0
VERTEX
  5
267
  8
1
  6
CONTINUOUS
 62
     0
 10
379.70701310472
 20
-1096.95701310472
 30
0.0
  0
VERTEX
  5
268
  8
1
  6
CONTINUOUS
 62
     0
 10
379.7120443181885
 20
-1096.962044318188
 30
0.0
  0
VERTEX
  5
269
  8
1
  6
CONTINUOUS
 62
     0
 10
379.71444401068
 20
-1096.96444401068
 30
0.0
  0
VERTEX
  5
26A
  8
1
  6
CONTINUOUS
 62
     0
 10
379.716766256437
 20
-1096.966766256437
 30
0.0
  0
VERTEX
  5
26B
  8
1
  6
CONTINUOUS
 62
     0
 10
379.7211779206049
 20
-1096.971177920605
 30
0.0
  0
VERTEX
  5
26C
  8
1
  6
CONTINUOUS
 62
     0
 10
379.7252783774657
 20
-1096.975278377466
 30
0.0
  0
VERTEX
  5
26D
  8
1
  6
CONTINUOUS
 62
     0
 10
379.7290667596246
 20
-1096.979066759625
 30
0.0
  0
VERTEX
  5
26E
  8
1
  6
CONTINUOUS
 62
     0
 10
379.7325422657017
 20
-1096.982542265702
 30
0.0
  0
VERTEX
  5
26F
  8
1
  6
CONTINUOUS
 62
     0
 10
379.7357041605021
 20
-1096.985704160502
 30
0.0
  0
VERTEX
  5
270
  8
1
  6
CONTINUOUS
 62
     0
 10
379.7371672920608
 20
-1096.987167292061
 30
0.0
  0
VERTEX
  5
271
  8
1
  6
CONTINUOUS
 62
     0
 10
379.7385517751704
 20
-1096.98855177517
 30
0.0
  0
VERTEX
  5
272
  8
1
  6
CONTINUOUS
 62
     0
 10
379.7410845073335
 20
-1096.991084507334
 30
0.0
  0
VERTEX
  5
273
  8
1
  6
CONTINUOUS
 62
     0
 10
379.743301821227
 20
-1096.993301821227
 30
0.0
  0
VERTEX
  5
274
  8
1
  6
CONTINUOUS
 62
     0
 10
379.7452032478086
 20
-1096.995203247809
 30
0.0
  0
VERTEX
  5
275
  8
1
  6
CONTINUOUS
 62
     0
 10
379.746788384858
 20
-1096.996788384858
 30
0.0
  0
VERTEX
  5
276
  8
1
  6
CONTINUOUS
 62
     0
 10
379.7480568970614
 20
-1096.998056897061
 30
0.0
  0
VERTEX
  5
277
  8
1
  6
CONTINUOUS
 62
     0
 10
379.7485723323729
 20
-1096.998572332373
 30
0.0
  0
VERTEX
  5
278
  8
1
  6
CONTINUOUS
 62
     0
 10
379.7490085160827
 20
-1096.999008516083
 30
0.0
  0
VERTEX
  5
279
  8
1
  6
CONTINUOUS
 62
     0
 10
379.74964304062
 20
-1096.99964304062
 30
0.0
  0
VERTEX
  5
27A
  8
1
  6
CONTINUOUS
 62
     0
 10
379.7499603364483
 20
-1096.999960336448
 30
0.0
  0
VERTEX
  5
27B
  8
1
  6
CONTINUOUS
 62
     0
 10
379.7500000000001
 20
-1097.0
 30
0.0
  0
SEQEND
  5
21C
  8
1
  6
CONTINUOUS
 62
     0
  0
LINE
  5
3B
  8
2
  6
DASHED
 62
     0
 10
-378.2500000000001
 20
-1095.5
 30
0.0
 11
378.25
 21
-1095.5
 31
0.0
  0
LINE
  5
3C
  8
2
  6
DASHED
 62
     0
 10
-378.2500000000001
 20
1095.5
 30
0.0
 11
378.25
 21
1095.5
 31
0.0
  0
POLYLINE
  5
3D
  8
2
  6
DASHED
 62
     0
 66
     1
 10
0.0
 20
0.0
 30
0.0
  0
VERTEX
  5
27D
  8
2
  6
DASHED
 62
     0
 10
381.25
 20
1098.5
 30
0.0
  0
VERTEX
  5
27E
  8
2
  6
DASHED
 62
     0
 10
381.2499647434232
 20
1098.499964743423
 30
0.0
  0
VERTEX
  5
27F
  8
2
  6
DASHED
 62
     0
 10
381.2496826957813
 20
1098.499682695781
 30
0.0
  0
VERTEX
  5
280
  8
2
  6
DASHED
 62
     0
 10
381.2491186270147
 20
1098.499118627015
 30
0.0
  0
VERTEX
  5
281
  8
2
  6
DASHED
 62
     0
 10
381.2487308502466
 20
1098.498730850247
 30
0.0
  0
VERTEX
  5
282
  8
2
  6
DASHED
 62
     0
 10
381.2482725901555
 20
1098.498272590156
 30
0.0
  0
VERTEX
  5
283
  8
2
  6
DASHED
 62
     0
 10
381.2471446647456
 20
1098.497144664746
 30
0.0
  0
VERTEX
  5
284
  8
2
  6
DASHED
 62
     0
 10
381.2457349568289
 20
1098.495734956829
 30
0.0
  0
VERTEX
  5
285
  8
2
  6
DASHED
 62
     0
 10
381.2440435989422
 20
1098.494043598942
 30
0.0
  0
VERTEX
  5
286
  8
2
  6
DASHED
 62
     0
 10
381.2420707501017
 20
1098.492070750102
 30
0.0
  0
VERTEX
  5
287
  8
2
  6
DASHED
 62
     0
 10
381.2398165957887
 20
1098.489816595789
 30
0.0
  0
VERTEX
  5
288
  8
2
  6
DASHED
 62
     0
 10
381.2385840942752
 20
1098.488584094275
 30
0.0
  0
VERTEX
  5
289
  8
2
  6
DASHED
 62
     0
 10
381.2372813479321
 20
1098.487281347932
 30
0.0
  0
VERTEX
  5
28A
  8
2
  6
DASHED
 62
     0
 10
381.2344652448881
 20
1098.484465244888
 30
0.0
  0
VERTEX
  5
28B
  8
2
  6
DASHED
 62
     0
 10
381.2313685514183
 20
1098.481368551418
 30
0.0
  0
VERTEX
  5
28C
  8
2
  6
DASHED
 62
     0
 10
381.2279915586645
 20
1098.477991558665
 30
0.0
  0
VERTEX
  5
28D
  8
2
  6
DASHED
 62
     0
 10
381.2243345841214
 20
1098.474334584121
 30
0.0
  0
VERTEX
  5
28E
  8
2
  6
DASHED
 62
     0
 10
381.2203979716067
 20
1098.470397971607
 30
0.0
  0
VERTEX
  5
28F
  8
2
  6
DASHED
 62
     0
 10
381.2183249157428
 20
1098.468324915743
 30
0.0
  0
VERTEX
  5
290
  8
2
  6
DASHED
 62
     0
 10
381.2161820912288
 20
1098.466182091229
 30
0.0
  0
VERTEX
  5
291
  8
2
  6
DASHED
 62
     0
 10
381.2116873393521
 20
1098.461687339352
 30
0.0
  0
VERTEX
  5
292
  8
2
  6
DASHED
 62
     0
 10
381.2069141385596
 20
1098.45691413856
 30
0.0
  0
VERTEX
  5
293
  8
2
  6
DASHED
 62
     0
 10
381.2044232590366
 20
1098.454423259037
 30
0.0
  0
VERTEX
  5
294
  8
2
  6
DASHED
 62
     0
 10
381.2018629376133
 20
1098.451862937613
 30
0.0
  0
VERTEX
  5
295
  8
2
  6
DASHED
 62
     0
 10
381.1965342114119
 20
1098.446534211412
 30
0.0
  0
VERTEX
  5
296
  8
2
  6
DASHED
 62
     0
 10
381.1909284609461
 20
1098.440928460946
 30
0.0
  0
VERTEX
  5
297
  8
2
  6
DASHED
 62
     0
 10
381.1880218652967
 20
1098.438021865297
 30
0.0
  0
VERTEX
  5
298
  8
2
  6
DASHED
 62
     0
 10
381.1850462132516
 20
1098.435046213252
 30
0.0
  0
VERTEX
  5
299
  8
2
  6
DASHED
 62
     0
 10
381.1788880213598
 20
1098.42888802136
 30
0.0
  0
VERTEX
  5
29A
  8
2
  6
DASHED
 62
     0
 10
381.1724544642452
 20
1098.422454464245
 30
0.0
  0
VERTEX
  5
29B
  8
2
  6
DASHED
 62
     0
 10
381.1657461467714
 20
1098.415746146771
 30
0.0
  0
VERTEX
  5
29C
  8
2
  6
DASHED
 62
     0
 10
381.1587636996343
 20
1098.408763699634
 30
0.0
  0
VERTEX
  5
29D
  8
2
  6
DASHED
 62
     0
 10
381.1515077793026
 20
1098.401507779303
 30
0.0
  0
VERTEX
  5
29E
  8
2
  6
DASHED
 62
     0
 10
381.1477774788672
 20
1098.397777478867
 30
0.0
  0
VERTEX
  5
29F
  8
2
  6
DASHED
 62
     0
 10
381.1439790679558
 20
1098.393979067956
 30
0.0
  0
VERTEX
  5
2A0
  8
2
  6
DASHED
 62
     0
 10
381.1361782734209
 20
1098.386178273421
 30
0.0
  0
VERTEX
  5
2A1
  8
2
  6
DASHED
 62
     0
 10
381.1281061291049
 20
1098.378106129105
 30
0.0
  0
VERTEX
  5
2A2
  8
2
  6
DASHED
 62
     0
 10
381.1197633939265
 20
1098.369763393927
 30
0.0
  0
VERTEX
  5
2A3
  8
2
  6
DASHED
 62
     0
 10
381.1111508522447
 20
1098.361150852245
 30
0.0
  0
VERTEX
  5
2A4
  8
2
  6
DASHED
 62
     0
 10
381.1022693137845
 20
1098.352269313785
 30
0.0
  0
VERTEX
  5
2A5
  8
2
  6
DASHED
 62
     0
 10
381.0977279307191
 20
1098.347727930719
 30
0.0
  0
VERTEX
  5
2A6
  8
2
  6
DASHED
 62
     0
 10
381.0931196135614
 20
1098.343119613561
 30
0.0
  0
VERTEX
  5
2A7
  8
2
  6
DASHED
 62
     0
 10
381.0837026118028
 20
1098.333702611803
 30
0.0
  0
VERTEX
  5
2A8
  8
2
  6
DASHED
 62
     0
 10
381.0740191938667
 20
1098.324019193867
 30
0.0
  0
VERTEX
  5
2A9
  8
2
  6
DASHED
 62
     0
 10
381.0640702701588
 20
1098.314070270159
 30
0.0
  0
VERTEX
  5
2AA
  8
2
  6
DASHED
 62
     0
 10
381.053856776047
 20
1098.303856776047
 30
0.0
  0
VERTEX
  5
2AB
  8
2
  6
DASHED
 62
     0
 10
381.0433796717732
 20
1098.293379671773
 30
0.0
  0
VERTEX
  5
2AC
  8
2
  6
DASHED
 62
     0
 10
381.0380425726805
 20
1098.288042572681
 30
0.0
  0
VERTEX
  5
2AD
  8
2
  6
DASHED
 62
     0
 10
381.0326399423631
 20
1098.282639942363
 30
0.0
  0
VERTEX
  5
2AE
  8
2
  6
DASHED
 62
     0
 10
381.0216385975339
 20
1098.271638597534
 30
0.0
  0
VERTEX
  5
2AF
  8
2
  6
DASHED
 62
     0
 10
381.0103766715986
 20
1098.260376671599
 30
0.0
  0
VERTEX
  5
2B0
  8
2
  6
DASHED
 62
     0
 10
380.9988552233697
 20
1098.24885522337
 30
0.0
  0
VERTEX
  5
2B1
  8
2
  6
DASHED
 62
     0
 10
380.987075336059
 20
1098.237075336059
 30
0.0
  0
VERTEX
  5
2B2
  8
2
  6
DASHED
 62
     0
 10
380.975038117176
 20
1098.225038117176
 30
0.0
  0
VERTEX
  5
2B3
  8
2
  6
DASHED
 62
     0
 10
380.9689233611099
 20
1098.21892336111
 30
0.0
  0
VERTEX
  5
2B4
  8
2
  6
DASHED
 62
     0
 10
380.9627446984238
 20
1098.212744698424
 30
0.0
  0
VERTEX
  5
2B5
  8
2
  6
DASHED
 62
     0
 10
380.9501962355924
 20
1098.200196235592
 30
0.0
  0
VERTEX
  5
2B6
  8
2
  6
DASHED
 62
     0
 10
380.9373939084505
 20
1098.187393908451
 30
0.0
  0
VERTEX
  5
2B7
  8
2
  6
DASHED
 62
     0
 10
380.8906041735403
 20
1098.14060417354
 30
0.0
  0
VERTEX
  5
2B8
  8
2
  6
DASHED
 62
     0
 10
380.8480762113533
 20
1098.098076211353
 30
0.0
  0
VERTEX
  5
2B9
  8
2
  6
DASHED
 62
     0
 10
380.803350017311
 20
1098.053350017311
 30
0.0
  0
VERTEX
  5
2BA
  8
2
  6
DASHED
 62
     0
 10
380.707456132867
 20
1097.957456132867
 30
0.0
  0
VERTEX
  5
2BB
  8
2
  6
DASHED
 62
     0
 10
380.6032469947588
 20
1097.853246994759
 30
0.0
  0
VERTEX
  5
2BC
  8
2
  6
DASHED
 62
     0
 10
380.491075213723
 20
1097.741075213723
 30
0.0
  0
VERTEX
  5
2BD
  8
2
  6
DASHED
 62
     0
 10
380.3713203435597
 20
1097.62132034356
 30
0.0
  0
VERTEX
  5
2BE
  8
2
  6
DASHED
 62
     0
 10
380.2443875968419
 20
1097.494387596842
 30
0.0
  0
VERTEX
  5
2BF
  8
2
  6
DASHED
 62
     0
 10
380.1783628290597
 20
1097.42836282906
 30
0.0
  0
VERTEX
  5
2C0
  8
2
  6
DASHED
 62
     0
 10
380.1107064738048
 20
1097.360706473805
 30
0.0
  0
VERTEX
  5
2C1
  8
2
  6
DASHED
 62
     0
 10
379.9707293090532
 20
1097.220729309053
 30
0.0
  0
VERTEX
  5
2C2
  8
2
  6
DASHED
 62
     0
 10
379.8249297410038
 20
1097.074929741004
 30
0.0
  0
VERTEX
  5
2C3
  8
2
  6
DASHED
 62
     0
 10
379.7500000000001
 20
1097.0
 30
0.0
  0
SEQEND
  5
27C
  8
2
  6
DASHED
 62
     0
  0
POLYLINE
  5
3E
  8
2
  6
DASHED
 62
     0
 66
     1
 10
0.0
 20
0.0
 30
0.0
  0
VERTEX
  5
2C5
  8
2
  6
DASHED
 62
     0
 10
379.7500000000001
 20
1097.0
 30
0.0
  0
VERTEX
  5
2C6
  8
2
  6
DASHED
 62
     0
 10
379.7120551933818
 20
1096.962055193382
 30
0.0
  0
VERTEX
  5
2C7
  8
2
  6
DASHED
 62
     0
 10
379.6352458397051
 20
1096.885245839705
 30
0.0
  0
VERTEX
  5
2C8
  8
2
  6
DASHED
 62
     0
 10
379.5572644297513
 20
1096.807264429751
 30
0.0
  0
VERTEX
  5
2C9
  8
2
  6
DASHED
 62
     0
 10
379.5178547852221
 20
1096.767854785222
 30
0.0
  0
VERTEX
  5
2CA
  8
2
  6
DASHED
 62
     0
 10
379.4781769435783
 20
1096.728176943578
 30
0.0
  0
VERTEX
  5
2CB
  8
2
  6
DASHED
 62
     0
 10
379.3980502970953
 20
1096.648050297095
 30
0.0
  0
VERTEX
  5
2CC
  8
2
  6
DASHED
 62
     0
 10
379.3169522854446
 20
1096.566952285445
 30
0.0
  0
VERTEX
  5
2CD
  8
2
  6
DASHED
 62
     0
 10
379.2349515256407
 20
1096.484951525641
 30
0.0
  0
VERTEX
  5
2CE
  8
2
  6
DASHED
 62
     0
 10
379.1521173985129
 20
1096.402117398513
 30
0.0
  0
VERTEX
  5
2CF
  8
2
  6
DASHED
 62
     0
 10
379.0685199900024
 20
1096.318519990002
 30
0.0
  0
VERTEX
  5
2D0
  8
2
  6
DASHED
 62
     0
 10
379.0264571353076
 20
1096.276457135308
 30
0.0
  0
VERTEX
  5
2D1
  8
2
  6
DASHED
 62
     0
 10
378.984230031863
 20
1096.234230031863
 30
0.0
  0
VERTEX
  5
2D2
  8
2
  6
DASHED
 62
     0
 10
378.8993188418143
 20
1096.149318841814
 30
0.0
  0
VERTEX
  5
2D3
  8
2
  6
DASHED
 62
     0
 10
378.8138582632004
 20
1096.0638582632
 30
0.0
  0
VERTEX
  5
2D4
  8
2
  6
DASHED
 62
     0
 10
378.7279206042026
 20
1095.977920604202
 30
0.0
  0
VERTEX
  5
2D5
  8
2
  6
DASHED
 62
     0
 10
378.6415785766602
 20
1095.89157857666
 30
0.0
  0
VERTEX
  5
2D6
  8
2
  6
DASHED
 62
     0
 10
378.5549052345484
 20
1095.804905234548
 30
0.0
  0
VERTEX
  5
2D7
  8
2
  6
DASHED
 62
     0
 10
378.511467228243
 20
1095.761467228243
 30
0.0
  0
VERTEX
  5
2D8
  8
2
  6
DASHED
 62
     0
 10
378.4679739121679
 20
1095.717973912168
 30
0.0
  0
VERTEX
  5
2D9
  8
2
  6
DASHED
 62
     0
 10
378.380858162096
 20
1095.630858162096
 30
0.0
  0
VERTEX
  5
2DA
  8
2
  6
DASHED
 62
     0
 10
378.2936316929548
 20
1095.543631692955
 30
0.0
  0
VERTEX
  5
2DB
  8
2
  6
DASHED
 62
     0
 10
378.25
 20
1095.5
 30
0.0
  0
SEQEND
  5
2C4
  8
2
  6
DASHED
 62
     0
  0
LINE
  5
3F
  8
2
  6
DASHED
 62
     0
 10
378.25
 20
-1095.5
 30
0.0
 11
378.25
 21
1095.5
 31
0.0
  0
POLYLINE
  5
40
  8
2
  6
DASHED
 62
     0
 66
     1
 10
0.0
 20
0.0
 30
0.0
  0
VERTEX
  5
2DD
  8
2
  6
DASHED
 62
     0
 10
378.2499999999999
 20
-1095.5
 30
0.0
  0
VERTEX
  5
2DE
  8
2
  6
DASHED
 62
     0
 10
378.2936316929547
 20
-1095.543631692955
 30
0.0
  0
VERTEX
  5
2DF
  8
2
  6
DASHED
 62
     0
 10
378.3808581620959
 20
-1095.630858162096
 30
0.0
  0
VERTEX
  5
2E0
  8
2
  6
DASHED
 62
     0
 10
378.4679739121677
 20
-1095.717973912168
 30
0.0
  0
VERTEX
  5
2E1
  8
2
  6
DASHED
 62
     0
 10
378.5114672282429
 20
-1095.761467228243
 30
0.0
  0
VERTEX
  5
2E2
  8
2
  6
DASHED
 62
     0
 10
378.5549052345483
 20
-1095.804905234548
 30
0.0
  0
VERTEX
  5
2E3
  8
2
  6
DASHED
 62
     0
 10
378.64157857666
 20
-1095.89157857666
 30
0.0
  0
VERTEX
  5
2E4
  8
2
  6
DASHED
 62
     0
 10
378.7279206042024
 20
-1095.977920604203
 30
0.0
  0
VERTEX
  5
2E5
  8
2
  6
DASHED
 62
     0
 10
378.8138582632003
 20
-1096.0638582632
 30
0.0
  0
VERTEX
  5
2E6
  8
2
  6
DASHED
 62
     0
 10
378.8993188418142
 20
-1096.149318841814
 30
0.0
  0
VERTEX
  5
2E7
  8
2
  6
DASHED
 62
     0
 10
378.9842300318629
 20
-1096.234230031863
 30
0.0
  0
VERTEX
  5
2E8
  8
2
  6
DASHED
 62
     0
 10
379.0264571353075
 20
-1096.276457135308
 30
0.0
  0
VERTEX
  5
2E9
  8
2
  6
DASHED
 62
     0
 10
379.0685199900023
 20
-1096.318519990002
 30
0.0
  0
VERTEX
  5
2EA
  8
2
  6
DASHED
 62
     0
 10
379.1521173985127
 20
-1096.402117398513
 30
0.0
  0
VERTEX
  5
2EB
  8
2
  6
DASHED
 62
     0
 10
379.2349515256406
 20
-1096.484951525641
 30
0.0
  0
VERTEX
  5
2EC
  8
2
  6
DASHED
 62
     0
 10
379.3169522854445
 20
-1096.566952285445
 30
0.0
  0
VERTEX
  5
2ED
  8
2
  6
DASHED
 62
     0
 10
379.3980502970952
 20
-1096.648050297095
 30
0.0
  0
VERTEX
  5
2EE
  8
2
  6
DASHED
 62
     0
 10
379.4781769435782
 20
-1096.728176943578
 30
0.0
  0
VERTEX
  5
2EF
  8
2
  6
DASHED
 62
     0
 10
379.517854785222
 20
-1096.767854785222
 30
0.0
  0
VERTEX
  5
2F0
  8
2
  6
DASHED
 62
     0
 10
379.5572644297512
 20
-1096.807264429751
 30
0.0
  0
VERTEX
  5
2F1
  8
2
  6
DASHED
 62
     0
 10
379.635245839705
 20
-1096.885245839705
 30
0.0
  0
VERTEX
  5
2F2
  8
2
  6
DASHED
 62
     0
 10
379.7120551933816
 20
-1096.962055193382
 30
0.0
  0
VERTEX
  5
2F3
  8
2
  6
DASHED
 62
     0
 10
379.7499999999999
 20
-1097.0
 30
0.0
  0
SEQEND
  5
2DC
  8
2
  6
DASHED
 62
     0
  0
POLYLINE
  5
41
  8
2
  6
DASHED
 62
     0
 66
     1
 10
0.0
 20
0.0
 30
0.0
  0
VERTEX
  5
2F5
  8
2
  6
DASHED
 62
     0
 10
379.7499999999999
 20
-1097.0
 30
0.0
  0
VERTEX
  5
2F6
  8
2
  6
DASHED
 62
     0
 10
379.8249297410036
 20
-1097.074929741004
 30
0.0
  0
VERTEX
  5
2F7
  8
2
  6
DASHED
 62
     0
 10
379.9707293090531
 20
-1097.220729309053
 30
0.0
  0
VERTEX
  5
2F8
  8
2
  6
DASHED
 62
     0
 10
380.1107064738047
 20
-1097.360706473805
 30
0.0
  0
VERTEX
  5
2F9
  8
2
  6
DASHED
 62
     0
 10
380.1783628290596
 20
-1097.42836282906
 30
0.0
  0
VERTEX
  5
2FA
  8
2
  6
DASHED
 62
     0
 10
380.2443875968418
 20
-1097.494387596842
 30
0.0
  0
VERTEX
  5
2FB
  8
2
  6
DASHED
 62
     0
 10
380.3713203435596
 20
-1097.62132034356
 30
0.0
  0
VERTEX
  5
2FC
  8
2
  6
DASHED
 62
     0
 10
380.4910752137229
 20
-1097.741075213723
 30
0.0
  0
VERTEX
  5
2FD
  8
2
  6
DASHED
 62
     0
 10
380.6032469947587
 20
-1097.853246994759
 30
0.0
  0
VERTEX
  5
2FE
  8
2
  6
DASHED
 62
     0
 10
380.7074561328669
 20
-1097.957456132867
 30
0.0
  0
VERTEX
  5
2FF
  8
2
  6
DASHED
 62
     0
 10
380.803350017311
 20
-1098.053350017311
 30
0.0
  0
VERTEX
  5
300
  8
2
  6
DASHED
 62
     0
 10
380.8480762113533
 20
-1098.098076211354
 30
0.0
  0
VERTEX
  5
301
  8
2
  6
DASHED
 62
     0
 10
380.8906041735403
 20
-1098.140604173541
 30
0.0
  0
VERTEX
  5
302
  8
2
  6
DASHED
 62
     0
 10
380.9689233611099
 20
-1098.21892336111
 30
0.0
  0
VERTEX
  5
303
  8
2
  6
DASHED
 62
     0
 10
381.0103766715986
 20
-1098.260376671599
 30
0.0
  0
VERTEX
  5
304
  8
2
  6
DASHED
 62
     0
 10
381.0216385975338
 20
-1098.271638597534
 30
0.0
  0
VERTEX
  5
305
  8
2
  6
DASHED
 62
     0
 10
381.0326399423631
 20
-1098.282639942363
 30
0.0
  0
VERTEX
  5
306
  8
2
  6
DASHED
 62
     0
 10
381.0380425726804
 20
-1098.288042572681
 30
0.0
  0
VERTEX
  5
307
  8
2
  6
DASHED
 62
     0
 10
381.0433796717731
 20
-1098.293379671773
 30
0.0
  0
VERTEX
  5
308
  8
2
  6
DASHED
 62
     0
 10
381.0538567760469
 20
-1098.303856776047
 30
0.0
  0
VERTEX
  5
309
  8
2
  6
DASHED
 62
     0
 10
381.0640702701587
 20
-1098.314070270159
 30
0.0
  0
VERTEX
  5
30A
  8
2
  6
DASHED
 62
     0
 10
381.0740191938666
 20
-1098.324019193867
 30
0.0
  0
VERTEX
  5
30B
  8
2
  6
DASHED
 62
     0
 10
381.0837026118028
 20
-1098.333702611803
 30
0.0
  0
VERTEX
  5
30C
  8
2
  6
DASHED
 62
     0
 10
381.0931196135614
 20
-1098.343119613562
 30
0.0
  0
VERTEX
  5
30D
  8
2
  6
DASHED
 62
     0
 10
381.097727930719
 20
-1098.347727930719
 30
0.0
  0
VERTEX
  5
30E
  8
2
  6
DASHED
 62
     0
 10
381.1022693137845
 20
-1098.352269313785
 30
0.0
  0
VERTEX
  5
30F
  8
2
  6
DASHED
 62
     0
 10
381.1111508522446
 20
-1098.361150852245
 30
0.0
  0
VERTEX
  5
310
  8
2
  6
DASHED
 62
     0
 10
381.1197633939265
 20
-1098.369763393927
 30
0.0
  0
VERTEX
  5
311
  8
2
  6
DASHED
 62
     0
 10
381.1281061291048
 20
-1098.378106129105
 30
0.0
  0
VERTEX
  5
312
  8
2
  6
DASHED
 62
     0
 10
381.1361782734208
 20
-1098.386178273421
 30
0.0
  0
VERTEX
  5
313
  8
2
  6
DASHED
 62
     0
 10
381.1439790679557
 20
-1098.393979067956
 30
0.0
  0
VERTEX
  5
314
  8
2
  6
DASHED
 62
     0
 10
381.1477774788672
 20
-1098.397777478868
 30
0.0
  0
VERTEX
  5
315
  8
2
  6
DASHED
 62
     0
 10
381.1515077793025
 20
-1098.401507779303
 30
0.0
  0
VERTEX
  5
316
  8
2
  6
DASHED
 62
     0
 10
381.1587636996343
 20
-1098.408763699635
 30
0.0
  0
VERTEX
  5
317
  8
2
  6
DASHED
 62
     0
 10
381.1657461467714
 20
-1098.415746146772
 30
0.0
  0
VERTEX
  5
318
  8
2
  6
DASHED
 62
     0
 10
381.1724544642452
 20
-1098.422454464246
 30
0.0
  0
VERTEX
  5
319
  8
2
  6
DASHED
 62
     0
 10
381.1788880213597
 20
-1098.42888802136
 30
0.0
  0
VERTEX
  5
31A
  8
2
  6
DASHED
 62
     0
 10
381.1850462132516
 20
-1098.435046213252
 30
0.0
  0
VERTEX
  5
31B
  8
2
  6
DASHED
 62
     0
 10
381.1880218652966
 20
-1098.438021865297
 30
0.0
  0
VERTEX
  5
31C
  8
2
  6
DASHED
 62
     0
 10
381.1909284609461
 20
-1098.440928460947
 30
0.0
  0
VERTEX
  5
31D
  8
2
  6
DASHED
 62
     0
 10
381.1965342114119
 20
-1098.446534211412
 30
0.0
  0
VERTEX
  5
31E
  8
2
  6
DASHED
 62
     0
 10
381.2018629376133
 20
-1098.451862937614
 30
0.0
  0
VERTEX
  5
31F
  8
2
  6
DASHED
 62
     0
 10
381.2044232590366
 20
-1098.454423259037
 30
0.0
  0
VERTEX
  5
320
  8
2
  6
DASHED
 62
     0
 10
381.2069141385596
 20
-1098.45691413856
 30
0.0
  0
VERTEX
  5
321
  8
2
  6
DASHED
 62
     0
 10
381.2116873393521
 20
-1098.461687339353
 30
0.0
  0
VERTEX
  5
322
  8
2
  6
DASHED
 62
     0
 10
381.2161820912288
 20
-1098.466182091229
 30
0.0
  0
VERTEX
  5
323
  8
2
  6
DASHED
 62
     0
 10
381.2183249157428
 20
-1098.468324915743
 30
0.0
  0
VERTEX
  5
324
  8
2
  6
DASHED
 62
     0
 10
381.2203979716067
 20
-1098.470397971607
 30
0.0
  0
VERTEX
  5
325
  8
2
  6
DASHED
 62
     0
 10
381.2243345841214
 20
-1098.474334584122
 30
0.0
  0
VERTEX
  5
326
  8
2
  6
DASHED
 62
     0
 10
381.2279915586645
 20
-1098.477991558665
 30
0.0
  0
VERTEX
  5
327
  8
2
  6
DASHED
 62
     0
 10
381.2313685514183
 20
-1098.481368551419
 30
0.0
  0
VERTEX
  5
328
  8
2
  6
DASHED
 62
     0
 10
381.234465244888
 20
-1098.484465244889
 30
0.0
  0
VERTEX
  5
329
  8
2
  6
DASHED
 62
     0
 10
381.237281347932
 20
-1098.487281347933
 30
0.0
  0
VERTEX
  5
32A
  8
2
  6
DASHED
 62
     0
 10
381.2385840942752
 20
-1098.488584094276
 30
0.0
  0
VERTEX
  5
32B
  8
2
  6
DASHED
 62
     0
 10
381.2398165957887
 20
-1098.489816595789
 30
0.0
  0
VERTEX
  5
32C
  8
2
  6
DASHED
 62
     0
 10
381.2420707501017
 20
-1098.492070750102
 30
0.0
  0
VERTEX
  5
32D
  8
2
  6
DASHED
 62
     0
 10
381.2440435989422
 20
-1098.494043598943
 30
0.0
  0
VERTEX
  5
32E
  8
2
  6
DASHED
 62
     0
 10
381.2457349568289
 20
-1098.495734956829
 30
0.0
  0
VERTEX
  5
32F
  8
2
  6
DASHED
 62
     0
 10
381.2471446647455
 20
-1098.497144664746
 30
0.0
  0
VERTEX
  5
330
  8
2
  6
DASHED
 62
     0
 10
381.2482725901555
 20
-1098.498272590156
 30
0.0
  0
VERTEX
  5
331
  8
2
  6
DASHED
 62
     0
 10
381.2487308502466
 20
-1098.498730850247
 30
0.0
  0
VERTEX
  5
332
  8
2
  6
DASHED
 62
     0
 10
381.2491186270147
 20
-1098.499118627015
 30
0.0
  0
VERTEX
  5
333
  8
2
  6
DASHED
 62
     0
 10
381.2496826957813
 20
-1098.499682695782
 30
0.0
  0
VERTEX
  5
334
  8
2
  6
DASHED
 62
     0
 10
381.2499647434232
 20
-1098.499964743424
 30
0.0
  0
VERTEX
  5
335
  8
2
  6
DASHED
 62
     0
 10
381.25
 20
-1098.500000000001
 30
0.0
  0
SEQEND
  5
2F4
  8
2
  6
DASHED
 62
     0
  0
LINE
  5
42
  8
2
  6
DASHED
 62
     0
 10
-378.2500000000001
 20
-1095.5
 30
0.0
 11
-378.2500000000001
 21
1095.5
 31
0.0
  0
POLYLINE
  5
43
  8
2
  6
DASHED
 62
     0
 66
     1
 10
0.0
 20
0.0
 30
0.0
  0
VERTEX
  5
337
  8
2
  6
DASHED
 62
     0
 10
-378.25
 20
1095.5
 30
0.0
  0
VERTEX
  5
338
  8
2
  6
DASHED
 62
     0
 10
-378.2936316929548
 20
1095.543631692955
 30
0.0
  0
VERTEX
  5
339
  8
2
  6
DASHED
 62
     0
 10
-378.3808581620961
 20
1095.630858162096
 30
0.0
  0
VERTEX
  5
33A
  8
2
  6
DASHED
 62
     0
 10
-378.4679739121679
 20
1095.717973912168
 30
0.0
  0
VERTEX
  5
33B
  8
2
  6
DASHED
 62
     0
 10
-378.511467228243
 20
1095.761467228243
 30
0.0
  0
VERTEX
  5
33C
  8
2
  6
DASHED
 62
     0
 10
-378.5549052345484
 20
1095.804905234548
 30
0.0
  0
VERTEX
  5
33D
  8
2
  6
DASHED
 62
     0
 10
-378.6415785766602
 20
1095.89157857666
 30
0.0
  0
VERTEX
  5
33E
  8
2
  6
DASHED
 62
     0
 10
-378.7279206042026
 20
1095.977920604202
 30
0.0
  0
VERTEX
  5
33F
  8
2
  6
DASHED
 62
     0
 10
-378.8138582632004
 20
1096.0638582632
 30
0.0
  0
VERTEX
  5
340
  8
2
  6
DASHED
 62
     0
 10
-378.8993188418144
 20
1096.149318841814
 30
0.0
  0
VERTEX
  5
341
  8
2
  6
DASHED
 62
     0
 10
-378.984230031863
 20
1096.234230031863
 30
0.0
  0
VERTEX
  5
342
  8
2
  6
DASHED
 62
     0
 10
-379.0264571353076
 20
1096.276457135307
 30
0.0
  0
VERTEX
  5
343
  8
2
  6
DASHED
 62
     0
 10
-379.0685199900024
 20
1096.318519990002
 30
0.0
  0
VERTEX
  5
344
  8
2
  6
DASHED
 62
     0
 10
-379.1521173985129
 20
1096.402117398513
 30
0.0
  0
VERTEX
  5
345
  8
2
  6
DASHED
 62
     0
 10
-379.2349515256407
 20
1096.484951525641
 30
0.0
  0
VERTEX
  5
346
  8
2
  6
DASHED
 62
     0
 10
-379.3169522854447
 20
1096.566952285445
 30
0.0
  0
VERTEX
  5
347
  8
2
  6
DASHED
 62
     0
 10
-379.3980502970953
 20
1096.648050297095
 30
0.0
  0
VERTEX
  5
348
  8
2
  6
DASHED
 62
     0
 10
-379.4781769435783
 20
1096.728176943578
 30
0.0
  0
VERTEX
  5
349
  8
2
  6
DASHED
 62
     0
 10
-379.5178547852221
 20
1096.767854785222
 30
0.0
  0
VERTEX
  5
34A
  8
2
  6
DASHED
 62
     0
 10
-379.5572644297513
 20
1096.807264429751
 30
0.0
  0
VERTEX
  5
34B
  8
2
  6
DASHED
 62
     0
 10
-379.6352458397051
 20
1096.885245839705
 30
0.0
  0
VERTEX
  5
34C
  8
2
  6
DASHED
 62
     0
 10
-379.7120551933818
 20
1096.962055193382
 30
0.0
  0
VERTEX
  5
34D
  8
2
  6
DASHED
 62
     0
 10
-379.7500000000001
 20
1097.0
 30
0.0
  0
SEQEND
  5
336
  8
2
  6
DASHED
 62
     0
  0
POLYLINE
  5
44
  8
2
  6
DASHED
 62
     0
 66
     1
 10
0.0
 20
0.0
 30
0.0
  0
VERTEX
  5
34F
  8
2
  6
DASHED
 62
     0
 10
-379.7500000000001
 20
1097.0
 30
0.0
  0
VERTEX
  5
350
  8
2
  6
DASHED
 62
     0
 10
-379.8249297410038
 20
1097.074929741004
 30
0.0
  0
VERTEX
  5
351
  8
2
  6
DASHED
 62
     0
 10
-379.9707293090532
 20
1097.220729309053
 30
0.0
  0
VERTEX
  5
352
  8
2
  6
DASHED
 62
     0
 10
-380.1107064738048
 20
1097.360706473805
 30
0.0
  0
VERTEX
  5
353
  8
2
  6
DASHED
 62
     0
 10
-380.1783628290597
 20
1097.42836282906
 30
0.0
  0
VERTEX
  5
354
  8
2
  6
DASHED
 62
     0
 10
-380.2443875968419
 20
1097.494387596842
 30
0.0
  0
VERTEX
  5
355
  8
2
  6
DASHED
 62
     0
 10
-380.3713203435597
 20
1097.62132034356
 30
0.0
  0
VERTEX
  5
356
  8
2
  6
DASHED
 62
     0
 10
-380.491075213723
 20
1097.741075213723
 30
0.0
  0
VERTEX
  5
357
  8
2
  6
DASHED
 62
     0
 10
-380.6032469947588
 20
1097.853246994759
 30
0.0
  0
VERTEX
  5
358
  8
2
  6
DASHED
 62
     0
 10
-380.707456132867
 20
1097.957456132867
 30
0.0
  0
VERTEX
  5
359
  8
2
  6
DASHED
 62
     0
 10
-380.8033500173111
 20
1098.053350017311
 30
0.0
  0
VERTEX
  5
35A
  8
2
  6
DASHED
 62
     0
 10
-380.8480762113534
 20
1098.098076211353
 30
0.0
  0
VERTEX
  5
35B
  8
2
  6
DASHED
 62
     0
 10
-380.8906041735403
 20
1098.14060417354
 30
0.0
  0
VERTEX
  5
35C
  8
2
  6
DASHED
 62
     0
 10
-380.96892336111
 20
1098.21892336111
 30
0.0
  0
VERTEX
  5
35D
  8
2
  6
DASHED
 62
     0
 10
-381.0103766715986
 20
1098.260376671599
 30
0.0
  0
VERTEX
  5
35E
  8
2
  6
DASHED
 62
     0
 10
-381.0216385975339
 20
1098.271638597534
 30
0.0
  0
VERTEX
  5
35F
  8
2
  6
DASHED
 62
     0
 10
-381.0326399423632
 20
1098.282639942363
 30
0.0
  0
VERTEX
  5
360
  8
2
  6
DASHED
 62
     0
 10
-381.0380425726805
 20
1098.288042572681
 30
0.0
  0
VERTEX
  5
361
  8
2
  6
DASHED
 62
     0
 10
-381.0433796717732
 20
1098.293379671773
 30
0.0
  0
VERTEX
  5
362
  8
2
  6
DASHED
 62
     0
 10
-381.053856776047
 20
1098.303856776047
 30
0.0
  0
VERTEX
  5
363
  8
2
  6
DASHED
 62
     0
 10
-381.0640702701588
 20
1098.314070270159
 30
0.0
  0
VERTEX
  5
364
  8
2
  6
DASHED
 62
     0
 10
-381.0740191938667
 20
1098.324019193867
 30
0.0
  0
VERTEX
  5
365
  8
2
  6
DASHED
 62
     0
 10
-381.0837026118028
 20
1098.333702611803
 30
0.0
  0
VERTEX
  5
366
  8
2
  6
DASHED
 62
     0
 10
-381.0931196135615
 20
1098.343119613561
 30
0.0
  0
VERTEX
  5
367
  8
2
  6
DASHED
 62
     0
 10
-381.0977279307192
 20
1098.347727930719
 30
0.0
  0
VERTEX
  5
368
  8
2
  6
DASHED
 62
     0
 10
-381.1022693137845
 20
1098.352269313785
 30
0.0
  0
VERTEX
  5
369
  8
2
  6
DASHED
 62
     0
 10
-381.1111508522447
 20
1098.361150852245
 30
0.0
  0
VERTEX
  5
36A
  8
2
  6
DASHED
 62
     0
 10
-381.1197633939266
 20
1098.369763393927
 30
0.0
  0
VERTEX
  5
36B
  8
2
  6
DASHED
 62
     0
 10
-381.1281061291049
 20
1098.378106129105
 30
0.0
  0
VERTEX
  5
36C
  8
2
  6
DASHED
 62
     0
 10
-381.1361782734209
 20
1098.386178273421
 30
0.0
  0
VERTEX
  5
36D
  8
2
  6
DASHED
 62
     0
 10
-381.1439790679558
 20
1098.393979067956
 30
0.0
  0
VERTEX
  5
36E
  8
2
  6
DASHED
 62
     0
 10
-381.1477774788672
 20
1098.397777478867
 30
0.0
  0
VERTEX
  5
36F
  8
2
  6
DASHED
 62
     0
 10
-381.1515077793026
 20
1098.401507779303
 30
0.0
  0
VERTEX
  5
370
  8
2
  6
DASHED
 62
     0
 10
-381.1587636996344
 20
1098.408763699634
 30
0.0
  0
VERTEX
  5
371
  8
2
  6
DASHED
 62
     0
 10
-381.1657461467714
 20
1098.415746146771
 30
0.0
  0
VERTEX
  5
372
  8
2
  6
DASHED
 62
     0
 10
-381.1724544642452
 20
1098.422454464245
 30
0.0
  0
VERTEX
  5
373
  8
2
  6
DASHED
 62
     0
 10
-381.1788880213598
 20
1098.42888802136
 30
0.0
  0
VERTEX
  5
374
  8
2
  6
DASHED
 62
     0
 10
-381.1850462132517
 20
1098.435046213252
 30
0.0
  0
VERTEX
  5
375
  8
2
  6
DASHED
 62
     0
 10
-381.1880218652967
 20
1098.438021865297
 30
0.0
  0
VERTEX
  5
376
  8
2
  6
DASHED
 62
     0
 10
-381.1909284609461
 20
1098.440928460946
 30
0.0
  0
VERTEX
  5
377
  8
2
  6
DASHED
 62
     0
 10
-381.1965342114119
 20
1098.446534211412
 30
0.0
  0
VERTEX
  5
378
  8
2
  6
DASHED
 62
     0
 10
-381.2018629376133
 20
1098.451862937613
 30
0.0
  0
VERTEX
  5
379
  8
2
  6
DASHED
 62
     0
 10
-381.2044232590366
 20
1098.454423259037
 30
0.0
  0
VERTEX
  5
37A
  8
2
  6
DASHED
 62
     0
 10
-381.2069141385597
 20
1098.45691413856
 30
0.0
  0
VERTEX
  5
37B
  8
2
  6
DASHED
 62
     0
 10
-381.2116873393521
 20
1098.461687339352
 30
0.0
  0
VERTEX
  5
37C
  8
2
  6
DASHED
 62
     0
 10
-381.2161820912288
 20
1098.466182091229
 30
0.0
  0
VERTEX
  5
37D
  8
2
  6
DASHED
 62
     0
 10
-381.2183249157429
 20
1098.468324915743
 30
0.0
  0
VERTEX
  5
37E
  8
2
  6
DASHED
 62
     0
 10
-381.2203979716067
 20
1098.470397971607
 30
0.0
  0
VERTEX
  5
37F
  8
2
  6
DASHED
 62
     0
 10
-381.2243345841214
 20
1098.474334584121
 30
0.0
  0
VERTEX
  5
380
  8
2
  6
DASHED
 62
     0
 10
-381.2279915586645
 20
1098.477991558665
 30
0.0
  0
VERTEX
  5
381
  8
2
  6
DASHED
 62
     0
 10
-381.2313685514183
 20
1098.481368551418
 30
0.0
  0
VERTEX
  5
382
  8
2
  6
DASHED
 62
     0
 10
-381.2344652448881
 20
1098.484465244888
 30
0.0
  0
VERTEX
  5
383
  8
2
  6
DASHED
 62
     0
 10
-381.2372813479321
 20
1098.487281347932
 30
0.0
  0
VERTEX
  5
384
  8
2
  6
DASHED
 62
     0
 10
-381.2385840942753
 20
1098.488584094275
 30
0.0
  0
VERTEX
  5
385
  8
2
  6
DASHED
 62
     0
 10
-381.2398165957887
 20
1098.489816595789
 30
0.0
  0
VERTEX
  5
386
  8
2
  6
DASHED
 62
     0
 10
-381.2420707501017
 20
1098.492070750102
 30
0.0
  0
VERTEX
  5
387
  8
2
  6
DASHED
 62
     0
 10
-381.2440435989423
 20
1098.494043598942
 30
0.0
  0
VERTEX
  5
388
  8
2
  6
DASHED
 62
     0
 10
-381.245734956829
 20
1098.495734956829
 30
0.0
  0
VERTEX
  5
389
  8
2
  6
DASHED
 62
     0
 10
-381.2471446647456
 20
1098.497144664746
 30
0.0
  0
VERTEX
  5
38A
  8
2
  6
DASHED
 62
     0
 10
-381.2482725901555
 20
1098.498272590156
 30
0.0
  0
VERTEX
  5
38B
  8
2
  6
DASHED
 62
     0
 10
-381.2487308502466
 20
1098.498730850247
 30
0.0
  0
VERTEX
  5
38C
  8
2
  6
DASHED
 62
     0
 10
-381.2491186270148
 20
1098.499118627015
 30
0.0
  0
VERTEX
  5
38D
  8
2
  6
DASHED
 62
     0
 10
-381.2496826957813
 20
1098.499682695781
 30
0.0
  0
VERTEX
  5
38E
  8
2
  6
DASHED
 62
     0
 10
-381.2499647434232
 20
1098.499964743423
 30
0.0
  0
VERTEX
  5
38F
  8
2
  6
DASHED
 62
     0
 10
-381.25
 20
1098.5
 30
0.0
  0
SEQEND
  5
34E
  8
2
  6
DASHED
 62
     0
  0
POLYLINE
  5
45
  8
2
  6
DASHED
 62
     0
 66
     1
 10
0.0
 20
0.0
 30
0.0
  0
VERTEX
  5
391
  8
2
  6
DASHED
 62
     0
 10
-381.25
 20
-1098.5
 30
0.0
  0
VERTEX
  5
392
  8
2
  6
DASHED
 62
     0
 10
-381.2499647434232
 20
-1098.499964743423
 30
0.0
  0
VERTEX
  5
393
  8
2
  6
DASHED
 62
     0
 10
-381.2496826957813
 20
-1098.499682695781
 30
0.0
  0
VERTEX
  5
394
  8
2
  6
DASHED
 62
     0
 10
-381.2491186270148
 20
-1098.499118627015
 30
0.0
  0
VERTEX
  5
395
  8
2
  6
DASHED
 62
     0
 10
-381.2487308502466
 20
-1098.498730850247
 30
0.0
  0
VERTEX
  5
396
  8
2
  6
DASHED
 62
     0
 10
-381.2482725901555
 20
-1098.498272590156
 30
0.0
  0
VERTEX
  5
397
  8
2
  6
DASHED
 62
     0
 10
-381.2471446647456
 20
-1098.497144664746
 30
0.0
  0
VERTEX
  5
398
  8
2
  6
DASHED
 62
     0
 10
-381.245734956829
 20
-1098.495734956829
 30
0.0
  0
VERTEX
  5
399
  8
2
  6
DASHED
 62
     0
 10
-381.2440435989422
 20
-1098.494043598942
 30
0.0
  0
VERTEX
  5
39A
  8
2
  6
DASHED
 62
     0
 10
-381.2420707501017
 20
-1098.492070750102
 30
0.0
  0
VERTEX
  5
39B
  8
2
  6
DASHED
 62
     0
 10
-381.2398165957887
 20
-1098.489816595789
 30
0.0
  0
VERTEX
  5
39C
  8
2
  6
DASHED
 62
     0
 10
-381.2385840942752
 20
-1098.488584094275
 30
0.0
  0
VERTEX
  5
39D
  8
2
  6
DASHED
 62
     0
 10
-381.2372813479321
 20
-1098.487281347932
 30
0.0
  0
VERTEX
  5
39E
  8
2
  6
DASHED
 62
     0
 10
-381.2344652448881
 20
-1098.484465244888
 30
0.0
  0
VERTEX
  5
39F
  8
2
  6
DASHED
 62
     0
 10
-381.2313685514183
 20
-1098.481368551418
 30
0.0
  0
VERTEX
  5
3A0
  8
2
  6
DASHED
 62
     0
 10
-381.2279915586645
 20
-1098.477991558665
 30
0.0
  0
VERTEX
  5
3A1
  8
2
  6
DASHED
 62
     0
 10
-381.2243345841214
 20
-1098.474334584121
 30
0.0
  0
VERTEX
  5
3A2
  8
2
  6
DASHED
 62
     0
 10
-381.2203979716067
 20
-1098.470397971607
 30
0.0
  0
VERTEX
  5
3A3
  8
2
  6
DASHED
 62
     0
 10
-381.2183249157428
 20
-1098.468324915743
 30
0.0
  0
VERTEX
  5
3A4
  8
2
  6
DASHED
 62
     0
 10
-381.2161820912288
 20
-1098.466182091229
 30
0.0
  0
VERTEX
  5
3A5
  8
2
  6
DASHED
 62
     0
 10
-381.2116873393521
 20
-1098.461687339352
 30
0.0
  0
VERTEX
  5
3A6
  8
2
  6
DASHED
 62
     0
 10
-381.2069141385596
 20
-1098.45691413856
 30
0.0
  0
VERTEX
  5
3A7
  8
2
  6
DASHED
 62
     0
 10
-381.2044232590366
 20
-1098.454423259037
 30
0.0
  0
VERTEX
  5
3A8
  8
2
  6
DASHED
 62
     0
 10
-381.2018629376133
 20
-1098.451862937613
 30
0.0
  0
VERTEX
  5
3A9
  8
2
  6
DASHED
 62
     0
 10
-381.1965342114119
 20
-1098.446534211412
 30
0.0
  0
VERTEX
  5
3AA
  8
2
  6
DASHED
 62
     0
 10
-381.1909284609461
 20
-1098.440928460946
 30
0.0
  0
VERTEX
  5
3AB
  8
2
  6
DASHED
 62
     0
 10
-381.1880218652967
 20
-1098.438021865297
 30
0.0
  0
VERTEX
  5
3AC
  8
2
  6
DASHED
 62
     0
 10
-381.1850462132516
 20
-1098.435046213252
 30
0.0
  0
VERTEX
  5
3AD
  8
2
  6
DASHED
 62
     0
 10
-381.1788880213598
 20
-1098.42888802136
 30
0.0
  0
VERTEX
  5
3AE
  8
2
  6
DASHED
 62
     0
 10
-381.1724544642452
 20
-1098.422454464245
 30
0.0
  0
VERTEX
  5
3AF
  8
2
  6
DASHED
 62
     0
 10
-381.1657461467714
 20
-1098.415746146771
 30
0.0
  0
VERTEX
  5
3B0
  8
2
  6
DASHED
 62
     0
 10
-381.1587636996343
 20
-1098.408763699634
 30
0.0
  0
VERTEX
  5
3B1
  8
2
  6
DASHED
 62
     0
 10
-381.1515077793026
 20
-1098.401507779303
 30
0.0
  0
VERTEX
  5
3B2
  8
2
  6
DASHED
 62
     0
 10
-381.1477774788672
 20
-1098.397777478867
 30
0.0
  0
VERTEX
  5
3B3
  8
2
  6
DASHED
 62
     0
 10
-381.1439790679558
 20
-1098.393979067956
 30
0.0
  0
VERTEX
  5
3B4
  8
2
  6
DASHED
 62
     0
 10
-381.1361782734208
 20
-1098.386178273421
 30
0.0
  0
VERTEX
  5
3B5
  8
2
  6
DASHED
 62
     0
 10
-381.1281061291048
 20
-1098.378106129105
 30
0.0
  0
VERTEX
  5
3B6
  8
2
  6
DASHED
 62
     0
 10
-381.1197633939265
 20
-1098.369763393926
 30
0.0
  0
VERTEX
  5
3B7
  8
2
  6
DASHED
 62
     0
 10
-381.1111508522447
 20
-1098.361150852245
 30
0.0
  0
VERTEX
  5
3B8
  8
2
  6
DASHED
 62
     0
 10
-381.1022693137845
 20
-1098.352269313785
 30
0.0
  0
VERTEX
  5
3B9
  8
2
  6
DASHED
 62
     0
 10
-381.0977279307191
 20
-1098.347727930719
 30
0.0
  0
VERTEX
  5
3BA
  8
2
  6
DASHED
 62
     0
 10
-381.0931196135614
 20
-1098.343119613561
 30
0.0
  0
VERTEX
  5
3BB
  8
2
  6
DASHED
 62
     0
 10
-381.0837026118028
 20
-1098.333702611803
 30
0.0
  0
VERTEX
  5
3BC
  8
2
  6
DASHED
 62
     0
 10
-381.0740191938667
 20
-1098.324019193867
 30
0.0
  0
VERTEX
  5
3BD
  8
2
  6
DASHED
 62
     0
 10
-381.0640702701588
 20
-1098.314070270159
 30
0.0
  0
VERTEX
  5
3BE
  8
2
  6
DASHED
 62
     0
 10
-381.0538567760469
 20
-1098.303856776047
 30
0.0
  0
VERTEX
  5
3BF
  8
2
  6
DASHED
 62
     0
 10
-381.0433796717732
 20
-1098.293379671773
 30
0.0
  0
VERTEX
  5
3C0
  8
2
  6
DASHED
 62
     0
 10
-381.0380425726805
 20
-1098.288042572681
 30
0.0
  0
VERTEX
  5
3C1
  8
2
  6
DASHED
 62
     0
 10
-381.0326399423631
 20
-1098.282639942363
 30
0.0
  0
VERTEX
  5
3C2
  8
2
  6
DASHED
 62
     0
 10
-381.0216385975339
 20
-1098.271638597534
 30
0.0
  0
VERTEX
  5
3C3
  8
2
  6
DASHED
 62
     0
 10
-381.0103766715986
 20
-1098.260376671599
 30
0.0
  0
VERTEX
  5
3C4
  8
2
  6
DASHED
 62
     0
 10
-380.9988552233697
 20
-1098.24885522337
 30
0.0
  0
VERTEX
  5
3C5
  8
2
  6
DASHED
 62
     0
 10
-380.987075336059
 20
-1098.237075336059
 30
0.0
  0
VERTEX
  5
3C6
  8
2
  6
DASHED
 62
     0
 10
-380.975038117176
 20
-1098.225038117176
 30
0.0
  0
VERTEX
  5
3C7
  8
2
  6
DASHED
 62
     0
 10
-380.9689233611099
 20
-1098.21892336111
 30
0.0
  0
VERTEX
  5
3C8
  8
2
  6
DASHED
 62
     0
 10
-380.9627446984238
 20
-1098.212744698424
 30
0.0
  0
VERTEX
  5
3C9
  8
2
  6
DASHED
 62
     0
 10
-380.9501962355923
 20
-1098.200196235592
 30
0.0
  0
VERTEX
  5
3CA
  8
2
  6
DASHED
 62
     0
 10
-380.9373939084505
 20
-1098.187393908451
 30
0.0
  0
VERTEX
  5
3CB
  8
2
  6
DASHED
 62
     0
 10
-380.8906041735403
 20
-1098.14060417354
 30
0.0
  0
VERTEX
  5
3CC
  8
2
  6
DASHED
 62
     0
 10
-380.8480762113533
 20
-1098.098076211353
 30
0.0
  0
VERTEX
  5
3CD
  8
2
  6
DASHED
 62
     0
 10
-380.803350017311
 20
-1098.053350017311
 30
0.0
  0
VERTEX
  5
3CE
  8
2
  6
DASHED
 62
     0
 10
-380.707456132867
 20
-1097.957456132867
 30
0.0
  0
VERTEX
  5
3CF
  8
2
  6
DASHED
 62
     0
 10
-380.6032469947587
 20
-1097.853246994759
 30
0.0
  0
VERTEX
  5
3D0
  8
2
  6
DASHED
 62
     0
 10
-380.491075213723
 20
-1097.741075213723
 30
0.0
  0
VERTEX
  5
3D1
  8
2
  6
DASHED
 62
     0
 10
-380.3713203435596
 20
-1097.62132034356
 30
0.0
  0
VERTEX
  5
3D2
  8
2
  6
DASHED
 62
     0
 10
-380.2443875968418
 20
-1097.494387596842
 30
0.0
  0
VERTEX
  5
3D3
  8
2
  6
DASHED
 62
     0
 10
-380.1783628290596
 20
-1097.42836282906
 30
0.0
  0
VERTEX
  5
3D4
  8
2
  6
DASHED
 62
     0
 10
-380.1107064738048
 20
-1097.360706473805
 30
0.0
  0
VERTEX
  5
3D5
  8
2
  6
DASHED
 62
     0
 10
-379.9707293090531
 20
-1097.220729309053
 30
0.0
  0
VERTEX
  5
3D6
  8
2
  6
DASHED
 62
     0
 10
-379.8249297410036
 20
-1097.074929741004
 30
0.0
  0
VERTEX
  5
3D7
  8
2
  6
DASHED
 62
     0
 10
-379.75
 20
-1097.0
 30
0.0
  0
SEQEND
  5
390
  8
2
  6
DASHED
 62
     0
  0
POLYLINE
  5
46
  8
2
  6
DASHED
 62
     0
 66
     1
 10
0.0
 20
0.0
 30
0.0
  0
VERTEX
  5
3D9
  8
2
  6
DASHED
 62
     0
 10
-379.75
 20
-1097.0
 30
0.0
  0
VERTEX
  5
3DA
  8
2
  6
DASHED
 62
     0
 10
-379.7120551933817
 20
-1096.962055193382
 30
0.0
  0
VERTEX
  5
3DB
  8
2
  6
DASHED
 62
     0
 10
-379.6352458397051
 20
-1096.885245839705
 30
0.0
  0
VERTEX
  5
3DC
  8
2
  6
DASHED
 62
     0
 10
-379.5572644297512
 20
-1096.807264429751
 30
0.0
  0
VERTEX
  5
3DD
  8
2
  6
DASHED
 62
     0
 10
-379.5178547852221
 20
-1096.767854785222
 30
0.0
  0
VERTEX
  5
3DE
  8
2
  6
DASHED
 62
     0
 10
-379.4781769435783
 20
-1096.728176943578
 30
0.0
  0
VERTEX
  5
3DF
  8
2
  6
DASHED
 62
     0
 10
-379.3980502970953
 20
-1096.648050297095
 30
0.0
  0
VERTEX
  5
3E0
  8
2
  6
DASHED
 62
     0
 10
-379.3169522854446
 20
-1096.566952285445
 30
0.0
  0
VERTEX
  5
3E1
  8
2
  6
DASHED
 62
     0
 10
-379.2349515256407
 20
-1096.484951525641
 30
0.0
  0
VERTEX
  5
3E2
  8
2
  6
DASHED
 62
     0
 10
-379.1521173985128
 20
-1096.402117398513
 30
0.0
  0
VERTEX
  5
3E3
  8
2
  6
DASHED
 62
     0
 10
-379.0685199900024
 20
-1096.318519990002
 30
0.0
  0
VERTEX
  5
3E4
  8
2
  6
DASHED
 62
     0
 10
-379.0264571353075
 20
-1096.276457135308
 30
0.0
  0
VERTEX
  5
3E5
  8
2
  6
DASHED
 62
     0
 10
-378.9842300318629
 20
-1096.234230031863
 30
0.0
  0
VERTEX
  5
3E6
  8
2
  6
DASHED
 62
     0
 10
-378.8993188418143
 20
-1096.149318841814
 30
0.0
  0
VERTEX
  5
3E7
  8
2
  6
DASHED
 62
     0
 10
-378.8138582632003
 20
-1096.0638582632
 30
0.0
  0
VERTEX
  5
3E8
  8
2
  6
DASHED
 62
     0
 10
-378.7279206042025
 20
-1095.977920604202
 30
0.0
  0
VERTEX
  5
3E9
  8
2
  6
DASHED
 62
     0
 10
-378.6415785766601
 20
-1095.89157857666
 30
0.0
  0
VERTEX
  5
3EA
  8
2
  6
DASHED
 62
     0
 10
-378.5549052345483
 20
-1095.804905234548
 30
0.0
  0
VERTEX
  5
3EB
  8
2
  6
DASHED
 62
     0
 10
-378.5114672282429
 20
-1095.761467228243
 30
0.0
  0
VERTEX
  5
3EC
  8
2
  6
DASHED
 62
     0
 10
-378.4679739121677
 20
-1095.717973912168
 30
0.0
  0
VERTEX
  5
3ED
  8
2
  6
DASHED
 62
     0
 10
-378.3808581620959
 20
-1095.630858162096
 30
0.0
  0
VERTEX
  5
3EE
  8
2
  6
DASHED
 62
     0
 10
-378.2936316929547
 20
-1095.543631692955
 30
0.0
  0
VERTEX
  5
3EF
  8
2
  6
DASHED
 62
     0
 10
-378.2499999999999
 20
-1095.5
 30
0.0
  0
SEQEND
  5
3D8
  8
2
  6
DASHED
 62
     0
  0
LINE
  5
47
  8
1
  6
CONTINUOUS
 62
     0
 10
-379.75
 20
-1008.5
 30
0.0
 11
-379.75
 21
-1097.0
 31
0.0
  0
LINE
  5
48
  8
1
  6
CONTINUOUS
 62
     0
 10
-381.25
 20
-1098.5
 30
0.0
 11
381.25
 21
-1098.5
 31
0.0
  0
LINE
  5
49
  8
1
  6
CONTINUOUS
 62
     0
 10
-379.75
 20
1097.0
 30
0.0
 11
-379.75
 21
1008.5
 31
0.0
  0
LINE
  5
4A
  8
1
  6
CONTINUOUS
 62
     0
 10
-381.25
 20
1098.5
 30
0.0
 11
-381.25
 21
-1098.5
 31
0.0
  0
LINE
  5
4B
  8
1
  6
CONTINUOUS
 62
     0
 10
-381.25
 20
1098.5
 30
0.0
 11
381.25
 21
1098.5
 31
0.0
  0
LINE
  5
4C
  8
1
  6
CONTINUOUS
 62
     0
 10
381.25
 20
1098.5
 30
0.0
 11
381.25
 21
-1098.5
 31
0.0
  0
LINE
  5
4D
  8
1
  6
CONTINUOUS
 62
     0
 10
379.75
 20
1097.0
 30
0.0
 11
291.25
 21
1097.0
 31
0.0
  0
LINE
  5
4E
  8
2
  6
DASHED
 62
     0
 10
379.75
 20
1097.0
 30
0.0
 11
-379.75
 21
1097.0
 31
0.0
  0
LINE
  5
4F
  8
1
  6
CONTINUOUS
 62
     0
 10
-291.25
 20
1097.0
 30
0.0
 11
-379.75
 21
1097.0
 31
0.0
  0
LINE
  5
50
  8
1
  6
CONTINUOUS
 62
     0
 10
379.75
 20
-1008.5
 30
0.0
 11
379.75
 21
-1097.0
 31
0.0
  0
LINE
  5
51
  8
2
  6
DASHED
 62
     0
 10
379.75
 20
1097.0
 30
0.0
 11
379.75
 21
-1097.0
 31
0.0
  0
LINE
  5
52
  8
1
  6
CONTINUOUS
 62
     0
 10
379.75
 20
1097.0
 30
0.0
 11
379.75
 21
1008.5
 31
0.0
  0
LINE
  5
53
  8
1
  6
CONTINUOUS
 62
     0
 10
-291.25
 20
-1097.0
 30
0.0
 11
-379.75
 21
-1097.0
 31
0.0
  0
LINE
  5
54
  8
2
  6
DASHED
 62
     0
 10
379.75
 20
-1097.0
 30
0.0
 11
-379.75
 21
-1097.0
 31
0.0
  0
LINE
  5
55
  8
1
  6
CONTINUOUS
 62
     0
 10
379.75
 20
-1097.0
 30
0.0
 11
291.25
 21
-1097.0
 31
0.0
  0
LINE
  5
56
  8
1
  6
CONTINUOUS
 62
     0
 10
-381.25
 20
1008.5
 30
0.0
 11
-377.7499999999999
 21
1008.5
 31
0.0
  0
LINE
  5
57
  8
1
  6
CONTINUOUS
 62
     0
 10
-291.25
 20
1095.0
 30
0.0
 11
-291.25
 21
1098.5
 31
0.0
  0
LINE
  5
58
  8
1
  6
CONTINUOUS
 62
     0
 10
-377.75
 20
-1008.5
 30
0.0
 11
-381.25
 21
-1008.5
 31
0.0
  0
LINE
  5
59
  8
1
  6
CONTINUOUS
 62
     0
 10
291.25
 20
1098.5
 30
0.0
 11
291.25
 21
1095.0
 31
0.0
  0
LINE
  5
5A
  8
1
  6
CONTINUOUS
 62
     0
 10
381.25
 20
-1008.5
 30
0.0
 11
377.7499999999999
 21
-1008.5
 31
0.0
  0
LINE
  5
5B
  8
1
  6
CONTINUOUS
 62
     0
 10
-291.25
 20
-1098.5
 30
0.0
 11
-291.25
 21
-1095.0
 31
0.0
  0
LINE
  5
5C
  8
2
  6
DASHED
 62
     0
 10
291.25
 20
1096.5
 30
0.0
 11
-291.25
 21
1096.5
 31
0.0
  0
LINE
  5
5D
  8
2
  6
DASHED
 62
     0
 10
291.25
 20
1096.899183308023
 30
0.0
 11
-291.25
 21
1096.899183308023
 31
0.0
  0
LINE
  5
5E
  8
2
  6
DASHED
 62
     0
 10
291.25
 20
1095.001383038748
 30
0.0
 11
-291.25
 21
1095.001383038748
 31
0.0
  0
LINE
  5
5F
  8
2
  6
DASHED
 62
     0
 10
291.25
 20
1095.001383038748
 30
0.0
 11
291.25
 21
1097.0
 31
0.0
  0
LINE
  5
60
  8
2
  6
DASHED
 62
     0
 10
291.25
 20
1095.402245902936
 30
0.0
 11
-291.25
 21
1095.402245902936
 31
0.0
  0
LINE
  5
61
  8
2
  6
DASHED
 62
     0
 10
-291.25
 20
1095.001383038748
 30
0.0
 11
-291.25
 21
1097.0
 31
0.0
  0
LINE
  5
62
  8
1
  6
CONTINUOUS
 62
     0
 10
291.25
 20
-1095.000000000041
 30
0.0
 11
291.25
 21
-1098.5
 31
0.0
  0
LINE
  5
63
  8
2
  6
DASHED
 62
     0
 10
291.25
 20
-1095.001383038748
 30
0.0
 11
-291.25
 21
-1095.001383038748
 31
0.0
  0
LINE
  5
64
  8
2
  6
DASHED
 62
     0
 10
291.25
 20
-1095.402245902936
 30
0.0
 11
-291.25
 21
-1095.402245902936
 31
0.0
  0
LINE
  5
65
  8
2
  6
DASHED
 62
     0
 10
291.25
 20
-1096.899183308023
 30
0.0
 11
-291.25
 21
-1096.899183308023
 31
0.0
  0
LINE
  5
66
  8
2
  6
DASHED
 62
     0
 10
291.25
 20
-1096.5
 30
0.0
 11
-291.25
 21
-1096.5
 31
0.0
  0
LINE
  5
67
  8
2
  6
DASHED
 62
     0
 10
-291.25
 20
-1097.0
 30
0.0
 11
-291.25
 21
-1095.001383038748
 31
0.0
  0
LINE
  5
68
  8
2
  6
DASHED
 62
     0
 10
291.25
 20
-1097.0
 30
0.0
 11
291.25
 21
-1095.001383038748
 31
0.0
  0
LINE
  5
69
  8
2
  6
DASHED
 62
     0
 10
-379.25
 20
1008.5
 30
0.0
 11
-379.25
 21
-1008.5
 31
0.0
  0
LINE
  5
6A
  8
2
  6
DASHED
 62
     0
 10
-379.6491833080232
 20
1008.5
 30
0.0
 11
-379.6491833080232
 21
-1008.5
 31
0.0
  0
LINE
  5
6B
  8
2
  6
DASHED
 62
     0
 10
-377.7513830387478
 20
1008.5
 30
0.0
 11
-379.7500000000001
 21
1008.5
 31
0.0
  0
LINE
  5
6C
  8
2
  6
DASHED
 62
     0
 10
-378.1522459029364
 20
1008.5
 30
0.0
 11
-378.1522459029364
 21
-1008.5
 31
0.0
  0
LINE
  5
6D
  8
2
  6
DASHED
 62
     0
 10
-377.7513830387478
 20
1008.5
 30
0.0
 11
-377.7513830387478
 21
-1008.5
 31
0.0
  0
LINE
  5
6E
  8
2
  6
DASHED
 62
     0
 10
-377.7513830387478
 20
-1008.5
 30
0.0
 11
-379.75
 21
-1008.5
 31
0.0
  0
LINE
  5
6F
  8
1
  6
CONTINUOUS
 62
     0
 10
377.750000000041
 20
1008.5
 30
0.0
 11
381.25
 21
1008.5
 31
0.0
  0
LINE
  5
70
  8
2
  6
DASHED
 62
     0
 10
378.1522459029364
 20
1008.5
 30
0.0
 11
378.1522459029364
 21
-1008.5
 31
0.0
  0
LINE
  5
71
  8
2
  6
DASHED
 62
     0
 10
379.6491833080232
 20
1008.5
 30
0.0
 11
379.6491833080232
 21
-1008.5
 31
0.0
  0
LINE
  5
72
  8
2
  6
DASHED
 62
     0
 10
379.75
 20
1008.5
 30
0.0
 11
377.7513830387478
 21
1008.5
 31
0.0
  0
LINE
  5
73
  8
2
  6
DASHED
 62
     0
 10
379.25
 20
1008.5
 30
0.0
 11
379.25
 21
-1008.5
 31
0.0
  0
LINE
  5
74
  8
2
  6
DASHED
 62
     0
 10
377.7513830387478
 20
1008.5
 30
0.0
 11
377.7513830387478
 21
-1008.5
 31
0.0
  0
LINE
  5
75
  8
2
  6
DASHED
 62
     0
 10
379.7500000000001
 20
-1008.5
 30
0.0
 11
377.7513830387478
 21
-1008.5
 31
0.0
  0
LINE
  5
76
  8
1
  6
CONTINUOUS
 62
     0
 10
349.25
 20
-1054.0
 30
0.0
 11
349.25
 21
1054.0
 31
0.0
  0
LINE
  5
77
  8
1
  6
CONTINUOUS
 62
     0
 10
-349.25
 20
-1054.0
 30
0.0
 11
349.25
 21
-1054.0
 31
0.0
  0
POLYLINE
  5
78
  8
1
  6
CONTINUOUS
 62
     0
 66
     1
 10
0.0
 20
0.0
 30
0.0
  0
VERTEX
  5
3F1
  8
1
  6
CONTINUOUS
 62
     0
 10
349.2500000000002
 20
-1054.0
 30
0.0
  0
VERTEX
  5
3F2
  8
1
  6
CONTINUOUS
 62
     0
 10
349.2572587621589
 20
-1054.007258762159
 30
0.0
  0
VERTEX
  5
3F3
  8
1
  6
CONTINUOUS
 62
     0
 10
349.2726790990732
 20
-1054.022679099073
 30
0.0
  0
VERTEX
  5
3F4
  8
1
  6
CONTINUOUS
 62
     0
 10
349.2893009516732
 20
-1054.039300951673
 30
0.0
  0
VERTEX
  5
3F5
  8
1
  6
CONTINUOUS
 62
     0
 10
349.2980615599452
 20
-1054.048061559945
 30
0.0
  0
VERTEX
  5
3F6
  8
1
  6
CONTINUOUS
 62
     0
 10
349.3071214576257
 20
-1054.057121457626
 30
0.0
  0
VERTEX
  5
3F7
  8
1
  6
CONTINUOUS
 62
     0
 10
349.3261375481858
 20
-1054.076137548186
 30
0.0
  0
VERTEX
  5
3F8
  8
1
  6
CONTINUOUS
 62
     0
 10
349.3463459487255
 20
-1054.096345948725
 30
0.0
  0
VERTEX
  5
3F9
  8
1
  6
CONTINUOUS
 62
     0
 10
349.3677431792972
 20
-1054.117743179297
 30
0.0
  0
VERTEX
  5
3FA
  8
1
  6
CONTINUOUS
 62
     0
 10
349.3903255552335
 20
-1054.140325555233
 30
0.0
  0
VERTEX
  5
3FB
  8
1
  6
CONTINUOUS
 62
     0
 10
349.414089187781
 20
-1054.164089187781
 30
0.0
  0
VERTEX
  5
3FC
  8
1
  6
CONTINUOUS
 62
     0
 10
349.4264127044081
 20
-1054.176412704408
 30
0.0
  0
VERTEX
  5
3FD
  8
1
  6
CONTINUOUS
 62
     0
 10
349.4390299847708
 20
-1054.189029984771
 30
0.0
  0
VERTEX
  5
3FE
  8
1
  6
CONTINUOUS
 62
     0
 10
349.4651436513223
 20
-1054.215143651322
 30
0.0
  0
VERTEX
  5
3FF
  8
1
  6
CONTINUOUS
 62
     0
 10
349.4924256905836
 20
-1054.242425690583
 30
0.0
  0
VERTEX
  5
400
  8
1
  6
CONTINUOUS
 62
     0
 10
349.5208714045051
 20
-1054.270871404505
 30
0.0
  0
VERTEX
  5
401
  8
1
  6
CONTINUOUS
 62
     0
 10
349.5504758946493
 20
-1054.300475894649
 30
0.0
  0
VERTEX
  5
402
  8
1
  6
CONTINUOUS
 62
     0
 10
349.5812340630338
 20
-1054.331234063034
 30
0.0
  0
VERTEX
  5
403
  8
1
  6
CONTINUOUS
 62
     0
 10
349.5970441290989
 20
-1054.347044129099
 30
0.0
  0
VERTEX
  5
404
  8
1
  6
CONTINUOUS
 62
     0
 10
349.6131406130092
 20
-1054.363140613009
 30
0.0
  0
VERTEX
  5
405
  8
1
  6
CONTINUOUS
 62
     0
 10
349.6461900501715
 20
-1054.396190050171
 30
0.0
  0
VERTEX
  5
406
  8
1
  6
CONTINUOUS
 62
     0
 10
349.6803766833081
 20
-1054.430376683308
 30
0.0
  0
VERTEX
  5
407
  8
1
  6
CONTINUOUS
 62
     0
 10
349.6978946162883
 20
-1054.447894616288
 30
0.0
  0
VERTEX
  5
408
  8
1
  6
CONTINUOUS
 62
     0
 10
349.7156946253776
 20
-1054.465694625377
 30
0.0
  0
VERTEX
  5
409
  8
1
  6
CONTINUOUS
 62
     0
 10
349.752137794524
 20
-1054.502137794524
 30
0.0
  0
VERTEX
  5
40A
  8
1
  6
CONTINUOUS
 62
     0
 10
349.7896999151238
 20
-1054.539699915124
 30
0.0
  0
VERTEX
  5
40B
  8
1
  6
CONTINUOUS
 62
     0
 10
349.8088985683684
 20
-1054.558898568368
 30
0.0
  0
VERTEX
  5
40C
  8
1
  6
CONTINUOUS
 62
     0
 10
349.8283745188667
 20
-1054.578374518866
 30
0.0
  0
VERTEX
  5
40D
  8
1
  6
CONTINUOUS
 62
     0
 10
349.8681549458692
 20
-1054.618154945869
 30
0.0
  0
VERTEX
  5
40E
  8
1
  6
CONTINUOUS
 62
     0
 10
349.909034345822
 20
-1054.659034345822
 30
0.0
  0
VERTEX
  5
40F
  8
1
  6
CONTINUOUS
 62
     0
 10
349.9510056791692
 20
-1054.701005679169
 30
0.0
  0
VERTEX
  5
410
  8
1
  6
CONTINUOUS
 62
     0
 10
349.9940617183208
 20
-1054.744061718321
 30
0.0
  0
VERTEX
  5
411
  8
1
  6
CONTINUOUS
 62
     0
 10
350.038195048897
 20
-1054.788195048897
 30
0.0
  0
VERTEX
  5
412
  8
1
  6
CONTINUOUS
 62
     0
 10
350.060663330714
 20
-1054.810663330714
 30
0.0
  0
VERTEX
  5
413
  8
1
  6
CONTINUOUS
 62
     0
 10
350.0833980710053
 20
-1054.833398071005
 30
0.0
  0
VERTEX
  5
414
  8
1
  6
CONTINUOUS
 62
     0
 10
350.1296630005492
 20
-1054.879663000549
 30
0.0
  0
VERTEX
  5
415
  8
1
  6
CONTINUOUS
 62
     0
 10
350.1769818705682
 20
-1054.926981870568
 30
0.0
  0
VERTEX
  5
416
  8
1
  6
CONTINUOUS
 62
     0
 10
350.2253465326104
 20
-1054.97534653261
 30
0.0
  0
VERTEX
  5
417
  8
1
  6
CONTINUOUS
 62
     0
 10
350.2747486581353
 20
-1055.024748658135
 30
0.0
  0
VERTEX
  5
418
  8
1
  6
CONTINUOUS
 62
     0
 10
350.3251797399479
 20
-1055.075179739948
 30
0.0
  0
VERTEX
  5
419
  8
1
  6
CONTINUOUS
 62
     0
 10
350.3507784324728
 20
-1055.100778432473
 30
0.0
  0
VERTEX
  5
41A
  8
1
  6
CONTINUOUS
 62
     0
 10
350.376631093664
 20
-1055.126631093664
 30
0.0
  0
VERTEX
  5
41B
  8
1
  6
CONTINUOUS
 62
     0
 10
350.4290938592054
 20
-1055.179093859205
 30
0.0
  0
VERTEX
  5
41C
  8
1
  6
CONTINUOUS
 62
     0
 10
350.4825590023258
 20
-1055.232559002326
 30
0.0
  0
VERTEX
  5
41D
  8
1
  6
CONTINUOUS
 62
     0
 10
350.5370173161664
 20
-1055.287017316166
 30
0.0
  0
VERTEX
  5
41E
  8
1
  6
CONTINUOUS
 62
     0
 10
350.5924594228416
 20
-1055.342459422841
 30
0.0
  0
VERTEX
  5
41F
  8
1
  6
CONTINUOUS
 62
     0
 10
350.6488757750533
 20
-1055.398875775053
 30
0.0
  0
VERTEX
  5
420
  8
1
  6
CONTINUOUS
 62
     0
 10
350.6774462637852
 20
-1055.427446263785
 30
0.0
  0
VERTEX
  5
421
  8
1
  6
CONTINUOUS
 62
     0
 10
350.7062566577358
 20
-1055.456256657736
 30
0.0
  0
VERTEX
  5
422
  8
1
  6
CONTINUOUS
 62
     0
 10
350.7645921897282
 20
-1055.514592189728
 30
0.0
  0
VERTEX
  5
423
  8
1
  6
CONTINUOUS
 62
     0
 10
350.823872325476
 20
-1055.573872325476
 30
0.0
  0
VERTEX
  5
424
  8
1
  6
CONTINUOUS
 62
     0
 10
350.8840868567612
 20
-1055.634086856761
 30
0.0
  0
VERTEX
  5
425
  8
1
  6
CONTINUOUS
 62
     0
 10
350.9452254144601
 20
-1055.69522541446
 30
0.0
  0
VERTEX
  5
426
  8
1
  6
CONTINUOUS
 62
     0
 10
351.0072774703288
 20
-1055.757277470329
 30
0.0
  0
VERTEX
  5
427
  8
1
  6
CONTINUOUS
 62
     0
 10
351.0386427269368
 20
-1055.788642726937
 30
0.0
  0
VERTEX
  5
428
  8
1
  6
CONTINUOUS
 62
     0
 10
351.0702323388163
 20
-1055.820232338816
 30
0.0
  0
VERTEX
  5
429
  8
1
  6
CONTINUOUS
 62
     0
 10
351.1340791789045
 20
-1055.884079178904
 30
0.0
  0
VERTEX
  5
42A
  8
1
  6
CONTINUOUS
 62
     0
 10
351.1988069959751
 20
-1055.948806995975
 30
0.0
  0
VERTEX
  5
42B
  8
1
  6
CONTINUOUS
 62
     0
 10
351.264404643703
 20
-1056.014404643703
 30
0.0
  0
VERTEX
  5
42C
  8
1
  6
CONTINUOUS
 62
     0
 10
351.3308608259756
 20
-1056.080860825975
 30
0.0
  0
VERTEX
  5
42D
  8
1
  6
CONTINUOUS
 62
     0
 10
351.3981640988379
 20
-1056.148164098838
 30
0.0
  0
VERTEX
  5
42E
  8
1
  6
CONTINUOUS
 62
     0
 10
351.4321297780633
 20
-1056.182129778063
 30
0.0
  0
VERTEX
  5
42F
  8
1
  6
CONTINUOUS
 62
     0
 10
351.4663028724637
 20
-1056.216302872464
 30
0.0
  0
VERTEX
  5
430
  8
1
  6
CONTINUOUS
 62
     0
 10
351.5352654131507
 20
-1056.285265413151
 30
0.0
  0
VERTEX
  5
431
  8
1
  6
CONTINUOUS
 62
     0
 10
351.6050398453417
 20
-1056.355039845342
 30
0.0
  0
VERTEX
  5
432
  8
1
  6
CONTINUOUS
 62
     0
 10
351.6402277713537
 20
-1056.390227771354
 30
0.0
  0
VERTEX
  5
433
  8
1
  6
CONTINUOUS
 62
     0
 10
351.8554692945075
 20
-1056.605469294507
 30
0.0
  0
VERTEX
  5
434
  8
1
  6
CONTINUOUS
 62
     0
 10
352.3060381819043
 20
-1057.056038181904
 30
0.0
  0
VERTEX
  5
435
  8
1
  6
CONTINUOUS
 62
     0
 10
352.781044627385
 20
-1057.531044627385
 30
0.0
  0
VERTEX
  5
436
  8
1
  6
CONTINUOUS
 62
     0
 10
353.277545398196
 20
-1058.027545398196
 30
0.0
  0
VERTEX
  5
437
  8
1
  6
CONTINUOUS
 62
     0
 10
353.7924640785442
 20
-1058.542464078544
 30
0.0
  0
VERTEX
  5
438
  8
1
  6
CONTINUOUS
 62
     0
 10
354.3226101316699
 20
-1059.07261013167
 30
0.0
  0
VERTEX
  5
439
  8
1
  6
CONTINUOUS
 62
     0
 10
354.5923700278697
 20
-1059.34237002787
 30
0.0
  0
VERTEX
  5
43A
  8
1
  6
CONTINUOUS
 62
     0
 10
354.864698669036
 20
-1059.614698669036
 30
0.0
  0
VERTEX
  5
43B
  8
1
  6
CONTINUOUS
 62
     0
 10
355.4153708041397
 20
-1060.16537080414
 30
0.0
  0
VERTEX
  5
43C
  8
1
  6
CONTINUOUS
 62
     0
 10
355.9712144648295
 20
-1060.72121446483
 30
0.0
  0
VERTEX
  5
43D
  8
1
  6
CONTINUOUS
 62
     0
 10
356.25
 20
-1061.0
 30
0.0
  0
SEQEND
  5
3F0
  8
1
  6
CONTINUOUS
 62
     0
  0
POLYLINE
  5
79
  8
1
  6
CONTINUOUS
 62
     0
 66
     1
 10
0.0
 20
0.0
 30
0.0
  0
VERTEX
  5
43F
  8
1
  6
CONTINUOUS
 62
     0
 10
356.2499999999999
 20
-1061.0
 30
0.0
  0
VERTEX
  5
440
  8
1
  6
CONTINUOUS
 62
     0
 10
356.5287855351704
 20
-1061.278785535171
 30
0.0
  0
VERTEX
  5
441
  8
1
  6
CONTINUOUS
 62
     0
 10
357.0846291958602
 20
-1061.83462919586
 30
0.0
  0
VERTEX
  5
442
  8
1
  6
CONTINUOUS
 62
     0
 10
357.635301330964
 20
-1062.385301330964
 30
0.0
  0
VERTEX
  5
443
  8
1
  6
CONTINUOUS
 62
     0
 10
357.9076299721303
 20
-1062.657629972131
 30
0.0
  0
VERTEX
  5
444
  8
1
  6
CONTINUOUS
 62
     0
 10
358.1773898683302
 20
-1062.92738986833
 30
0.0
  0
VERTEX
  5
445
  8
1
  6
CONTINUOUS
 62
     0
 10
358.7075359214558
 20
-1063.457535921456
 30
0.0
  0
VERTEX
  5
446
  8
1
  6
CONTINUOUS
 62
     0
 10
359.2224546018041
 20
-1063.972454601804
 30
0.0
  0
VERTEX
  5
447
  8
1
  6
CONTINUOUS
 62
     0
 10
359.7189553726153
 20
-1064.468955372615
 30
0.0
  0
VERTEX
  5
448
  8
1
  6
CONTINUOUS
 62
     0
 10
360.1939618180959
 20
-1064.943961818096
 30
0.0
  0
VERTEX
  5
449
  8
1
  6
CONTINUOUS
 62
     0
 10
360.6445307054927
 20
-1065.394530705493
 30
0.0
  0
VERTEX
  5
44A
  8
1
  6
CONTINUOUS
 62
     0
 10
360.8597722286466
 20
-1065.609772228647
 30
0.0
  0
VERTEX
  5
44B
  8
1
  6
CONTINUOUS
 62
     0
 10
360.8949601546586
 20
-1065.644960154659
 30
0.0
  0
VERTEX
  5
44C
  8
1
  6
CONTINUOUS
 62
     0
 10
360.9647345868495
 20
-1065.71473458685
 30
0.0
  0
VERTEX
  5
44D
  8
1
  6
CONTINUOUS
 62
     0
 10
361.0336971275366
 20
-1065.783697127537
 30
0.0
  0
VERTEX
  5
44E
  8
1
  6
CONTINUOUS
 62
     0
 10
361.067870221937
 20
-1065.817870221937
 30
0.0
  0
VERTEX
  5
44F
  8
1
  6
CONTINUOUS
 62
     0
 10
361.1018359011624
 20
-1065.851835901162
 30
0.0
  0
VERTEX
  5
450
  8
1
  6
CONTINUOUS
 62
     0
 10
361.1691391740247
 20
-1065.919139174025
 30
0.0
  0
VERTEX
  5
451
  8
1
  6
CONTINUOUS
 62
     0
 10
361.2355953562973
 20
-1065.985595356297
 30
0.0
  0
VERTEX
  5
452
  8
1
  6
CONTINUOUS
 62
     0
 10
361.3011930040252
 20
-1066.051193004025
 30
0.0
  0
VERTEX
  5
453
  8
1
  6
CONTINUOUS
 62
     0
 10
361.3659208210959
 20
-1066.115920821096
 30
0.0
  0
VERTEX
  5
454
  8
1
  6
CONTINUOUS
 62
     0
 10
361.429767661184
 20
-1066.179767661184
 30
0.0
  0
VERTEX
  5
455
  8
1
  6
CONTINUOUS
 62
     0
 10
361.4613572730635
 20
-1066.211357273063
 30
0.0
  0
VERTEX
  5
456
  8
1
  6
CONTINUOUS
 62
     0
 10
361.4927225296715
 20
-1066.242722529672
 30
0.0
  0
VERTEX
  5
457
  8
1
  6
CONTINUOUS
 62
     0
 10
361.5547745855402
 20
-1066.30477458554
 30
0.0
  0
VERTEX
  5
458
  8
1
  6
CONTINUOUS
 62
     0
 10
361.6159131432391
 20
-1066.365913143239
 30
0.0
  0
VERTEX
  5
459
  8
1
  6
CONTINUOUS
 62
     0
 10
361.6761276745244
 20
-1066.426127674524
 30
0.0
  0
VERTEX
  5
45A
  8
1
  6
CONTINUOUS
 62
     0
 10
361.7354078102722
 20
-1066.485407810272
 30
0.0
  0
VERTEX
  5
45B
  8
1
  6
CONTINUOUS
 62
     0
 10
361.7937433422645
 20
-1066.543743342264
 30
0.0
  0
VERTEX
  5
45C
  8
1
  6
CONTINUOUS
 62
     0
 10
361.8225537362151
 20
-1066.572553736215
 30
0.0
  0
VERTEX
  5
45D
  8
1
  6
CONTINUOUS
 62
     0
 10
361.8511242249471
 20
-1066.601124224947
 30
0.0
  0
VERTEX
  5
45E
  8
1
  6
CONTINUOUS
 62
     0
 10
361.9075405771588
 20
-1066.657540577159
 30
0.0
  0
VERTEX
  5
45F
  8
1
  6
CONTINUOUS
 62
     0
 10
361.9629826838339
 20
-1066.712982683834
 30
0.0
  0
VERTEX
  5
460
  8
1
  6
CONTINUOUS
 62
     0
 10
362.0174409976746
 20
-1066.767440997674
 30
0.0
  0
VERTEX
  5
461
  8
1
  6
CONTINUOUS
 62
     0
 10
362.070906140795
 20
-1066.820906140795
 30
0.0
  0
VERTEX
  5
462
  8
1
  6
CONTINUOUS
 62
     0
 10
362.1233689063364
 20
-1066.873368906336
 30
0.0
  0
VERTEX
  5
463
  8
1
  6
CONTINUOUS
 62
     0
 10
362.1492215675276
 20
-1066.899221567527
 30
0.0
  0
VERTEX
  5
464
  8
1
  6
CONTINUOUS
 62
     0
 10
362.1748202600525
 20
-1066.924820260052
 30
0.0
  0
VERTEX
  5
465
  8
1
  6
CONTINUOUS
 62
     0
 10
362.2252513418651
 20
-1066.975251341865
 30
0.0
  0
VERTEX
  5
466
  8
1
  6
CONTINUOUS
 62
     0
 10
362.27465346739
 20
-1067.02465346739
 30
0.0
  0
VERTEX
  5
467
  8
1
  6
CONTINUOUS
 62
     0
 10
362.3230181294322
 20
-1067.073018129432
 30
0.0
  0
VERTEX
  5
468
  8
1
  6
CONTINUOUS
 62
     0
 10
362.3703369994512
 20
-1067.120336999451
 30
0.0
  0
VERTEX
  5
469
  8
1
  6
CONTINUOUS
 62
     0
 10
362.4166019289951
 20
-1067.166601928995
 30
0.0
  0
VERTEX
  5
46A
  8
1
  6
CONTINUOUS
 62
     0
 10
362.4393366692864
 20
-1067.189336669286
 30
0.0
  0
VERTEX
  5
46B
  8
1
  6
CONTINUOUS
 62
     0
 10
362.4618049511034
 20
-1067.211804951103
 30
0.0
  0
VERTEX
  5
46C
  8
1
  6
CONTINUOUS
 62
     0
 10
362.5059382816796
 20
-1067.255938281679
 30
0.0
  0
VERTEX
  5
46D
  8
1
  6
CONTINUOUS
 62
     0
 10
362.5489943208312
 20
-1067.298994320831
 30
0.0
  0
VERTEX
  5
46E
  8
1
  6
CONTINUOUS
 62
     0
 10
362.5909656541784
 20
-1067.340965654178
 30
0.0
  0
VERTEX
  5
46F
  8
1
  6
CONTINUOUS
 62
     0
 10
362.6318450541313
 20
-1067.381845054131
 30
0.0
  0
VERTEX
  5
470
  8
1
  6
CONTINUOUS
 62
     0
 10
362.6716254811338
 20
-1067.421625481134
 30
0.0
  0
VERTEX
  5
471
  8
1
  6
CONTINUOUS
 62
     0
 10
362.6911014316321
 20
-1067.441101431632
 30
0.0
  0
VERTEX
  5
472
  8
1
  6
CONTINUOUS
 62
     0
 10
362.7103000848766
 20
-1067.460300084876
 30
0.0
  0
VERTEX
  5
473
  8
1
  6
CONTINUOUS
 62
     0
 10
362.7478622054764
 20
-1067.497862205476
 30
0.0
  0
VERTEX
  5
474
  8
1
  6
CONTINUOUS
 62
     0
 10
362.7843053746229
 20
-1067.534305374623
 30
0.0
  0
VERTEX
  5
475
  8
1
  6
CONTINUOUS
 62
     0
 10
362.8021053837121
 20
-1067.552105383712
 30
0.0
  0
VERTEX
  5
476
  8
1
  6
CONTINUOUS
 62
     0
 10
362.8196233166924
 20
-1067.569623316692
 30
0.0
  0
VERTEX
  5
477
  8
1
  6
CONTINUOUS
 62
     0
 10
362.8538099498289
 20
-1067.603809949829
 30
0.0
  0
VERTEX
  5
478
  8
1
  6
CONTINUOUS
 62
     0
 10
362.8868593869913
 20
-1067.636859386991
 30
0.0
  0
VERTEX
  5
479
  8
1
  6
CONTINUOUS
 62
     0
 10
362.9029558709016
 20
-1067.652955870901
 30
0.0
  0
VERTEX
  5
47A
  8
1
  6
CONTINUOUS
 62
     0
 10
362.9187659369667
 20
-1067.668765936966
 30
0.0
  0
VERTEX
  5
47B
  8
1
  6
CONTINUOUS
 62
     0
 10
362.9495241053511
 20
-1067.699524105351
 30
0.0
  0
VERTEX
  5
47C
  8
1
  6
CONTINUOUS
 62
     0
 10
362.9791285954954
 20
-1067.729128595495
 30
0.0
  0
VERTEX
  5
47D
  8
1
  6
CONTINUOUS
 62
     0
 10
363.0075743094169
 20
-1067.757574309417
 30
0.0
  0
VERTEX
  5
47E
  8
1
  6
CONTINUOUS
 62
     0
 10
363.0348563486782
 20
-1067.784856348678
 30
0.0
  0
VERTEX
  5
47F
  8
1
  6
CONTINUOUS
 62
     0
 10
363.0609700152297
 20
-1067.81097001523
 30
0.0
  0
VERTEX
  5
480
  8
1
  6
CONTINUOUS
 62
     0
 10
363.0735872955924
 20
-1067.823587295592
 30
0.0
  0
VERTEX
  5
481
  8
1
  6
CONTINUOUS
 62
     0
 10
363.0859108122194
 20
-1067.835910812219
 30
0.0
  0
VERTEX
  5
482
  8
1
  6
CONTINUOUS
 62
     0
 10
363.109674444767
 20
-1067.859674444767
 30
0.0
  0
VERTEX
  5
483
  8
1
  6
CONTINUOUS
 62
     0
 10
363.1322568207032
 20
-1067.882256820703
 30
0.0
  0
VERTEX
  5
484
  8
1
  6
CONTINUOUS
 62
     0
 10
363.153654051275
 20
-1067.903654051275
 30
0.0
  0
VERTEX
  5
485
  8
1
  6
CONTINUOUS
 62
     0
 10
363.1738624518147
 20
-1067.923862451814
 30
0.0
  0
VERTEX
  5
486
  8
1
  6
CONTINUOUS
 62
     0
 10
363.1928785423748
 20
-1067.942878542375
 30
0.0
  0
VERTEX
  5
487
  8
1
  6
CONTINUOUS
 62
     0
 10
363.2019384400553
 20
-1067.951938440055
 30
0.0
  0
VERTEX
  5
488
  8
1
  6
CONTINUOUS
 62
     0
 10
363.2106990483272
 20
-1067.960699048327
 30
0.0
  0
VERTEX
  5
489
  8
1
  6
CONTINUOUS
 62
     0
 10
363.2273209009272
 20
-1067.977320900927
 30
0.0
  0
VERTEX
  5
48A
  8
1
  6
CONTINUOUS
 62
     0
 10
363.2427412378415
 20
-1067.992741237841
 30
0.0
  0
VERTEX
  5
48B
  8
1
  6
CONTINUOUS
 62
     0
 10
363.2500000000003
 20
-1068.0
 30
0.0
  0
SEQEND
  5
43E
  8
1
  6
CONTINUOUS
 62
     0
  0
LINE
  5
7A
  8
1
  6
CONTINUOUS
 62
     0
 10
363.25
 20
1068.0
 30
0.0
 11
363.25
 21
-1068.0
 31
0.0
  0
LINE
  5
7B
  8
1
  6
CONTINUOUS
 62
     0
 10
363.25
 20
-1068.0
 30
0.0
 11
-363.25
 21
-1068.0
 31
0.0
  0
LINE
  5
7C
  8
1
  6
CONTINUOUS
 62
     0
 10
-378.25
 20
1095.5
 30
0.0
 11
-378.25
 21
1008.5
 31
0.0
  0
LINE
  5
7D
  8
1
  6
CONTINUOUS
 62
     0
 10
-378.25
 20
-1008.5
 30
0.0
 11
-378.25
 21
-1095.5
 31
0.0
  0
LINE
  5
7E
  8
1
  6
CONTINUOUS
 62
     0
 10
-378.25
 20
1095.5
 30
0.0
 11
-291.25
 21
1095.5
 31
0.0
  0
LINE
  5
7F
  8
1
  6
CONTINUOUS
 62
     0
 10
291.25
 20
1095.5
 30
0.0
 11
378.25
 21
1095.5
 31
0.0
  0
LINE
  5
80
  8
1
  6
CONTINUOUS
 62
     0
 10
378.25
 20
1095.5
 30
0.0
 11
378.25
 21
1008.5
 31
0.0
  0
LINE
  5
81
  8
1
  6
CONTINUOUS
 62
     0
 10
378.25
 20
-1008.5
 30
0.0
 11
378.25
 21
-1095.5
 31
0.0
  0
LINE
  5
82
  8
1
  6
CONTINUOUS
 62
     0
 10
-378.25
 20
-1095.5
 30
0.0
 11
-291.25
 21
-1095.5
 31
0.0
  0
LINE
  5
83
  8
1
  6
CONTINUOUS
 62
     0
 10
208.0357142857142
 20
-1095.5
 30
0.0
 11
378.25
 21
-1095.5
 31
0.0
  0
POLYLINE
  5
84
  8
1
  6
CONTINUOUS
 62
     0
 66
     1
 10
0.0
 20
0.0
 30
0.0
  0
VERTEX
  5
48D
  8
1
  6
CONTINUOUS
 62
     0
 10
-363.2500000000003
 20
-1068.0
 30
0.0
  0
VERTEX
  5
48E
  8
1
  6
CONTINUOUS
 62
     0
 10
-363.2427412378415
 20
-1067.992741237841
 30
0.0
  0
VERTEX
  5
48F
  8
1
  6
CONTINUOUS
 62
     0
 10
-363.2273209009272
 20
-1067.977320900927
 30
0.0
  0
VERTEX
  5
490
  8
1
  6
CONTINUOUS
 62
     0
 10
-363.2106990483272
 20
-1067.960699048327
 30
0.0
  0
VERTEX
  5
491
  8
1
  6
CONTINUOUS
 62
     0
 10
-363.2019384400553
 20
-1067.951938440055
 30
0.0
  0
VERTEX
  5
492
  8
1
  6
CONTINUOUS
 62
     0
 10
-363.1928785423748
 20
-1067.942878542375
 30
0.0
  0
VERTEX
  5
493
  8
1
  6
CONTINUOUS
 62
     0
 10
-363.1738624518147
 20
-1067.923862451814
 30
0.0
  0
VERTEX
  5
494
  8
1
  6
CONTINUOUS
 62
     0
 10
-363.153654051275
 20
-1067.903654051275
 30
0.0
  0
VERTEX
  5
495
  8
1
  6
CONTINUOUS
 62
     0
 10
-363.1322568207032
 20
-1067.882256820703
 30
0.0
  0
VERTEX
  5
496
  8
1
  6
CONTINUOUS
 62
     0
 10
-363.109674444767
 20
-1067.859674444767
 30
0.0
  0
VERTEX
  5
497
  8
1
  6
CONTINUOUS
 62
     0
 10
-363.0859108122194
 20
-1067.835910812219
 30
0.0
  0
VERTEX
  5
498
  8
1
  6
CONTINUOUS
 62
     0
 10
-363.0735872955924
 20
-1067.823587295592
 30
0.0
  0
VERTEX
  5
499
  8
1
  6
CONTINUOUS
 62
     0
 10
-363.0609700152297
 20
-1067.81097001523
 30
0.0
  0
VERTEX
  5
49A
  8
1
  6
CONTINUOUS
 62
     0
 10
-363.0348563486782
 20
-1067.784856348678
 30
0.0
  0
VERTEX
  5
49B
  8
1
  6
CONTINUOUS
 62
     0
 10
-363.0075743094169
 20
-1067.757574309417
 30
0.0
  0
VERTEX
  5
49C
  8
1
  6
CONTINUOUS
 62
     0
 10
-362.9791285954954
 20
-1067.729128595495
 30
0.0
  0
VERTEX
  5
49D
  8
1
  6
CONTINUOUS
 62
     0
 10
-362.9495241053511
 20
-1067.699524105351
 30
0.0
  0
VERTEX
  5
49E
  8
1
  6
CONTINUOUS
 62
     0
 10
-362.9187659369667
 20
-1067.668765936966
 30
0.0
  0
VERTEX
  5
49F
  8
1
  6
CONTINUOUS
 62
     0
 10
-362.9029558709016
 20
-1067.652955870901
 30
0.0
  0
VERTEX
  5
4A0
  8
1
  6
CONTINUOUS
 62
     0
 10
-362.8868593869913
 20
-1067.636859386991
 30
0.0
  0
VERTEX
  5
4A1
  8
1
  6
CONTINUOUS
 62
     0
 10
-362.8538099498289
 20
-1067.603809949829
 30
0.0
  0
VERTEX
  5
4A2
  8
1
  6
CONTINUOUS
 62
     0
 10
-362.8196233166924
 20
-1067.569623316692
 30
0.0
  0
VERTEX
  5
4A3
  8
1
  6
CONTINUOUS
 62
     0
 10
-362.8021053837121
 20
-1067.552105383712
 30
0.0
  0
VERTEX
  5
4A4
  8
1
  6
CONTINUOUS
 62
     0
 10
-362.7843053746229
 20
-1067.534305374623
 30
0.0
  0
VERTEX
  5
4A5
  8
1
  6
CONTINUOUS
 62
     0
 10
-362.7478622054764
 20
-1067.497862205476
 30
0.0
  0
VERTEX
  5
4A6
  8
1
  6
CONTINUOUS
 62
     0
 10
-362.7103000848766
 20
-1067.460300084876
 30
0.0
  0
VERTEX
  5
4A7
  8
1
  6
CONTINUOUS
 62
     0
 10
-362.6911014316321
 20
-1067.441101431632
 30
0.0
  0
VERTEX
  5
4A8
  8
1
  6
CONTINUOUS
 62
     0
 10
-362.6716254811338
 20
-1067.421625481134
 30
0.0
  0
VERTEX
  5
4A9
  8
1
  6
CONTINUOUS
 62
     0
 10
-362.6318450541313
 20
-1067.381845054131
 30
0.0
  0
VERTEX
  5
4AA
  8
1
  6
CONTINUOUS
 62
     0
 10
-362.5909656541784
 20
-1067.340965654178
 30
0.0
  0
VERTEX
  5
4AB
  8
1
  6
CONTINUOUS
 62
     0
 10
-362.5489943208312
 20
-1067.298994320831
 30
0.0
  0
VERTEX
  5
4AC
  8
1
  6
CONTINUOUS
 62
     0
 10
-362.5059382816796
 20
-1067.255938281679
 30
0.0
  0
VERTEX
  5
4AD
  8
1
  6
CONTINUOUS
 62
     0
 10
-362.4618049511034
 20
-1067.211804951103
 30
0.0
  0
VERTEX
  5
4AE
  8
1
  6
CONTINUOUS
 62
     0
 10
-362.4393366692864
 20
-1067.189336669286
 30
0.0
  0
VERTEX
  5
4AF
  8
1
  6
CONTINUOUS
 62
     0
 10
-362.4166019289951
 20
-1067.166601928995
 30
0.0
  0
VERTEX
  5
4B0
  8
1
  6
CONTINUOUS
 62
     0
 10
-362.3703369994512
 20
-1067.120336999451
 30
0.0
  0
VERTEX
  5
4B1
  8
1
  6
CONTINUOUS
 62
     0
 10
-362.3230181294322
 20
-1067.073018129432
 30
0.0
  0
VERTEX
  5
4B2
  8
1
  6
CONTINUOUS
 62
     0
 10
-362.27465346739
 20
-1067.02465346739
 30
0.0
  0
VERTEX
  5
4B3
  8
1
  6
CONTINUOUS
 62
     0
 10
-362.2252513418651
 20
-1066.975251341865
 30
0.0
  0
VERTEX
  5
4B4
  8
1
  6
CONTINUOUS
 62
     0
 10
-362.1748202600525
 20
-1066.924820260052
 30
0.0
  0
VERTEX
  5
4B5
  8
1
  6
CONTINUOUS
 62
     0
 10
-362.1492215675276
 20
-1066.899221567527
 30
0.0
  0
VERTEX
  5
4B6
  8
1
  6
CONTINUOUS
 62
     0
 10
-362.1233689063364
 20
-1066.873368906336
 30
0.0
  0
VERTEX
  5
4B7
  8
1
  6
CONTINUOUS
 62
     0
 10
-362.070906140795
 20
-1066.820906140795
 30
0.0
  0
VERTEX
  5
4B8
  8
1
  6
CONTINUOUS
 62
     0
 10
-362.0174409976746
 20
-1066.767440997674
 30
0.0
  0
VERTEX
  5
4B9
  8
1
  6
CONTINUOUS
 62
     0
 10
-361.9629826838339
 20
-1066.712982683834
 30
0.0
  0
VERTEX
  5
4BA
  8
1
  6
CONTINUOUS
 62
     0
 10
-361.9075405771588
 20
-1066.657540577159
 30
0.0
  0
VERTEX
  5
4BB
  8
1
  6
CONTINUOUS
 62
     0
 10
-361.8511242249471
 20
-1066.601124224947
 30
0.0
  0
VERTEX
  5
4BC
  8
1
  6
CONTINUOUS
 62
     0
 10
-361.8225537362151
 20
-1066.572553736215
 30
0.0
  0
VERTEX
  5
4BD
  8
1
  6
CONTINUOUS
 62
     0
 10
-361.7937433422645
 20
-1066.543743342264
 30
0.0
  0
VERTEX
  5
4BE
  8
1
  6
CONTINUOUS
 62
     0
 10
-361.7354078102722
 20
-1066.485407810272
 30
0.0
  0
VERTEX
  5
4BF
  8
1
  6
CONTINUOUS
 62
     0
 10
-361.6761276745244
 20
-1066.426127674524
 30
0.0
  0
VERTEX
  5
4C0
  8
1
  6
CONTINUOUS
 62
     0
 10
-361.6159131432391
 20
-1066.365913143239
 30
0.0
  0
VERTEX
  5
4C1
  8
1
  6
CONTINUOUS
 62
     0
 10
-361.5547745855402
 20
-1066.30477458554
 30
0.0
  0
VERTEX
  5
4C2
  8
1
  6
CONTINUOUS
 62
     0
 10
-361.4927225296715
 20
-1066.242722529672
 30
0.0
  0
VERTEX
  5
4C3
  8
1
  6
CONTINUOUS
 62
     0
 10
-361.4613572730635
 20
-1066.211357273063
 30
0.0
  0
VERTEX
  5
4C4
  8
1
  6
CONTINUOUS
 62
     0
 10
-361.429767661184
 20
-1066.179767661184
 30
0.0
  0
VERTEX
  5
4C5
  8
1
  6
CONTINUOUS
 62
     0
 10
-361.3659208210959
 20
-1066.115920821096
 30
0.0
  0
VERTEX
  5
4C6
  8
1
  6
CONTINUOUS
 62
     0
 10
-361.3011930040252
 20
-1066.051193004025
 30
0.0
  0
VERTEX
  5
4C7
  8
1
  6
CONTINUOUS
 62
     0
 10
-361.2355953562973
 20
-1065.985595356297
 30
0.0
  0
VERTEX
  5
4C8
  8
1
  6
CONTINUOUS
 62
     0
 10
-361.1691391740247
 20
-1065.919139174025
 30
0.0
  0
VERTEX
  5
4C9
  8
1
  6
CONTINUOUS
 62
     0
 10
-361.1018359011624
 20
-1065.851835901162
 30
0.0
  0
VERTEX
  5
4CA
  8
1
  6
CONTINUOUS
 62
     0
 10
-361.067870221937
 20
-1065.817870221937
 30
0.0
  0
VERTEX
  5
4CB
  8
1
  6
CONTINUOUS
 62
     0
 10
-361.0336971275366
 20
-1065.783697127537
 30
0.0
  0
VERTEX
  5
4CC
  8
1
  6
CONTINUOUS
 62
     0
 10
-360.9647345868495
 20
-1065.71473458685
 30
0.0
  0
VERTEX
  5
4CD
  8
1
  6
CONTINUOUS
 62
     0
 10
-360.8949601546586
 20
-1065.644960154659
 30
0.0
  0
VERTEX
  5
4CE
  8
1
  6
CONTINUOUS
 62
     0
 10
-360.8597722286466
 20
-1065.609772228647
 30
0.0
  0
VERTEX
  5
4CF
  8
1
  6
CONTINUOUS
 62
     0
 10
-360.6445307054927
 20
-1065.394530705493
 30
0.0
  0
VERTEX
  5
4D0
  8
1
  6
CONTINUOUS
 62
     0
 10
-360.1939618180959
 20
-1064.943961818096
 30
0.0
  0
VERTEX
  5
4D1
  8
1
  6
CONTINUOUS
 62
     0
 10
-359.7189553726153
 20
-1064.468955372615
 30
0.0
  0
VERTEX
  5
4D2
  8
1
  6
CONTINUOUS
 62
     0
 10
-359.2224546018041
 20
-1063.972454601804
 30
0.0
  0
VERTEX
  5
4D3
  8
1
  6
CONTINUOUS
 62
     0
 10
-358.7075359214558
 20
-1063.457535921456
 30
0.0
  0
VERTEX
  5
4D4
  8
1
  6
CONTINUOUS
 62
     0
 10
-358.1773898683302
 20
-1062.92738986833
 30
0.0
  0
VERTEX
  5
4D5
  8
1
  6
CONTINUOUS
 62
     0
 10
-357.9076299721303
 20
-1062.657629972131
 30
0.0
  0
VERTEX
  5
4D6
  8
1
  6
CONTINUOUS
 62
     0
 10
-357.635301330964
 20
-1062.385301330964
 30
0.0
  0
VERTEX
  5
4D7
  8
1
  6
CONTINUOUS
 62
     0
 10
-357.0846291958602
 20
-1061.83462919586
 30
0.0
  0
VERTEX
  5
4D8
  8
1
  6
CONTINUOUS
 62
     0
 10
-356.5287855351704
 20
-1061.278785535171
 30
0.0
  0
VERTEX
  5
4D9
  8
1
  6
CONTINUOUS
 62
     0
 10
-356.2499999999999
 20
-1061.0
 30
0.0
  0
SEQEND
  5
48C
  8
1
  6
CONTINUOUS
 62
     0
  0
LINE
  5
85
  8
1
  6
CONTINUOUS
 62
     0
 10
-363.25
 20
-1068.0
 30
0.0
 11
-363.25
 21
1068.0
 31
0.0
  0
LINE
  5
86
  8
1
  6
CONTINUOUS
 62
     0
 10
-349.25
 20
1054.0
 30
0.0
 11
-349.25
 21
-1054.0
 31
0.0
  0
POLYLINE
  5
87
  8
1
  6
CONTINUOUS
 62
     0
 66
     1
 10
0.0
 20
0.0
 30
0.0
  0
VERTEX
  5
4DB
  8
1
  6
CONTINUOUS
 62
     0
 10
-356.25
 20
-1061.0
 30
0.0
  0
VERTEX
  5
4DC
  8
1
  6
CONTINUOUS
 62
     0
 10
-355.9712144648295
 20
-1060.72121446483
 30
0.0
  0
VERTEX
  5
4DD
  8
1
  6
CONTINUOUS
 62
     0
 10
-355.4153708041397
 20
-1060.16537080414
 30
0.0
  0
VERTEX
  5
4DE
  8
1
  6
CONTINUOUS
 62
     0
 10
-354.864698669036
 20
-1059.614698669036
 30
0.0
  0
VERTEX
  5
4DF
  8
1
  6
CONTINUOUS
 62
     0
 10
-354.5923700278697
 20
-1059.34237002787
 30
0.0
  0
VERTEX
  5
4E0
  8
1
  6
CONTINUOUS
 62
     0
 10
-354.3226101316699
 20
-1059.07261013167
 30
0.0
  0
VERTEX
  5
4E1
  8
1
  6
CONTINUOUS
 62
     0
 10
-353.7924640785442
 20
-1058.542464078544
 30
0.0
  0
VERTEX
  5
4E2
  8
1
  6
CONTINUOUS
 62
     0
 10
-353.277545398196
 20
-1058.027545398196
 30
0.0
  0
VERTEX
  5
4E3
  8
1
  6
CONTINUOUS
 62
     0
 10
-352.781044627385
 20
-1057.531044627385
 30
0.0
  0
VERTEX
  5
4E4
  8
1
  6
CONTINUOUS
 62
     0
 10
-352.3060381819043
 20
-1057.056038181904
 30
0.0
  0
VERTEX
  5
4E5
  8
1
  6
CONTINUOUS
 62
     0
 10
-351.8554692945075
 20
-1056.605469294507
 30
0.0
  0
VERTEX
  5
4E6
  8
1
  6
CONTINUOUS
 62
     0
 10
-351.6402277713537
 20
-1056.390227771354
 30
0.0
  0
VERTEX
  5
4E7
  8
1
  6
CONTINUOUS
 62
     0
 10
-351.6050398453417
 20
-1056.355039845342
 30
0.0
  0
VERTEX
  5
4E8
  8
1
  6
CONTINUOUS
 62
     0
 10
-351.5352654131507
 20
-1056.285265413151
 30
0.0
  0
VERTEX
  5
4E9
  8
1
  6
CONTINUOUS
 62
     0
 10
-351.4663028724637
 20
-1056.216302872464
 30
0.0
  0
VERTEX
  5
4EA
  8
1
  6
CONTINUOUS
 62
     0
 10
-351.4321297780633
 20
-1056.182129778063
 30
0.0
  0
VERTEX
  5
4EB
  8
1
  6
CONTINUOUS
 62
     0
 10
-351.3981640988379
 20
-1056.148164098838
 30
0.0
  0
VERTEX
  5
4EC
  8
1
  6
CONTINUOUS
 62
     0
 10
-351.3308608259756
 20
-1056.080860825975
 30
0.0
  0
VERTEX
  5
4ED
  8
1
  6
CONTINUOUS
 62
     0
 10
-351.264404643703
 20
-1056.014404643703
 30
0.0
  0
VERTEX
  5
4EE
  8
1
  6
CONTINUOUS
 62
     0
 10
-351.1988069959751
 20
-1055.948806995975
 30
0.0
  0
VERTEX
  5
4EF
  8
1
  6
CONTINUOUS
 62
     0
 10
-351.1340791789045
 20
-1055.884079178904
 30
0.0
  0
VERTEX
  5
4F0
  8
1
  6
CONTINUOUS
 62
     0
 10
-351.0702323388163
 20
-1055.820232338816
 30
0.0
  0
VERTEX
  5
4F1
  8
1
  6
CONTINUOUS
 62
     0
 10
-351.0386427269368
 20
-1055.788642726937
 30
0.0
  0
VERTEX
  5
4F2
  8
1
  6
CONTINUOUS
 62
     0
 10
-351.0072774703288
 20
-1055.757277470329
 30
0.0
  0
VERTEX
  5
4F3
  8
1
  6
CONTINUOUS
 62
     0
 10
-350.9452254144601
 20
-1055.69522541446
 30
0.0
  0
VERTEX
  5
4F4
  8
1
  6
CONTINUOUS
 62
     0
 10
-350.8840868567612
 20
-1055.634086856761
 30
0.0
  0
VERTEX
  5
4F5
  8
1
  6
CONTINUOUS
 62
     0
 10
-350.823872325476
 20
-1055.573872325476
 30
0.0
  0
VERTEX
  5
4F6
  8
1
  6
CONTINUOUS
 62
     0
 10
-350.7645921897282
 20
-1055.514592189728
 30
0.0
  0
VERTEX
  5
4F7
  8
1
  6
CONTINUOUS
 62
     0
 10
-350.7062566577358
 20
-1055.456256657736
 30
0.0
  0
VERTEX
  5
4F8
  8
1
  6
CONTINUOUS
 62
     0
 10
-350.6774462637852
 20
-1055.427446263785
 30
0.0
  0
VERTEX
  5
4F9
  8
1
  6
CONTINUOUS
 62
     0
 10
-350.6488757750533
 20
-1055.398875775053
 30
0.0
  0
VERTEX
  5
4FA
  8
1
  6
CONTINUOUS
 62
     0
 10
-350.5924594228416
 20
-1055.342459422841
 30
0.0
  0
VERTEX
  5
4FB
  8
1
  6
CONTINUOUS
 62
     0
 10
-350.5370173161664
 20
-1055.287017316166
 30
0.0
  0
VERTEX
  5
4FC
  8
1
  6
CONTINUOUS
 62
     0
 10
-350.4825590023258
 20
-1055.232559002326
 30
0.0
  0
VERTEX
  5
4FD
  8
1
  6
CONTINUOUS
 62
     0
 10
-350.4290938592054
 20
-1055.179093859205
 30
0.0
  0
VERTEX
  5
4FE
  8
1
  6
CONTINUOUS
 62
     0
 10
-350.376631093664
 20
-1055.126631093664
 30
0.0
  0
VERTEX
  5
4FF
  8
1
  6
CONTINUOUS
 62
     0
 10
-350.3507784324728
 20
-1055.100778432473
 30
0.0
  0
VERTEX
  5
500
  8
1
  6
CONTINUOUS
 62
     0
 10
-350.3251797399479
 20
-1055.075179739948
 30
0.0
  0
VERTEX
  5
501
  8
1
  6
CONTINUOUS
 62
     0
 10
-350.2747486581353
 20
-1055.024748658135
 30
0.0
  0
VERTEX
  5
502
  8
1
  6
CONTINUOUS
 62
     0
 10
-350.2253465326104
 20
-1054.97534653261
 30
0.0
  0
VERTEX
  5
503
  8
1
  6
CONTINUOUS
 62
     0
 10
-350.1769818705682
 20
-1054.926981870568
 30
0.0
  0
VERTEX
  5
504
  8
1
  6
CONTINUOUS
 62
     0
 10
-350.1296630005492
 20
-1054.879663000549
 30
0.0
  0
VERTEX
  5
505
  8
1
  6
CONTINUOUS
 62
     0
 10
-350.0833980710053
 20
-1054.833398071005
 30
0.0
  0
VERTEX
  5
506
  8
1
  6
CONTINUOUS
 62
     0
 10
-350.060663330714
 20
-1054.810663330714
 30
0.0
  0
VERTEX
  5
507
  8
1
  6
CONTINUOUS
 62
     0
 10
-350.038195048897
 20
-1054.788195048897
 30
0.0
  0
VERTEX
  5
508
  8
1
  6
CONTINUOUS
 62
     0
 10
-349.9940617183208
 20
-1054.744061718321
 30
0.0
  0
VERTEX
  5
509
  8
1
  6
CONTINUOUS
 62
     0
 10
-349.9510056791692
 20
-1054.701005679169
 30
0.0
  0
VERTEX
  5
50A
  8
1
  6
CONTINUOUS
 62
     0
 10
-349.909034345822
 20
-1054.659034345822
 30
0.0
  0
VERTEX
  5
50B
  8
1
  6
CONTINUOUS
 62
     0
 10
-349.8681549458692
 20
-1054.618154945869
 30
0.0
  0
VERTEX
  5
50C
  8
1
  6
CONTINUOUS
 62
     0
 10
-349.8283745188667
 20
-1054.578374518866
 30
0.0
  0
VERTEX
  5
50D
  8
1
  6
CONTINUOUS
 62
     0
 10
-349.8088985683684
 20
-1054.558898568368
 30
0.0
  0
VERTEX
  5
50E
  8
1
  6
CONTINUOUS
 62
     0
 10
-349.7896999151238
 20
-1054.539699915124
 30
0.0
  0
VERTEX
  5
50F
  8
1
  6
CONTINUOUS
 62
     0
 10
-349.752137794524
 20
-1054.502137794524
 30
0.0
  0
VERTEX
  5
510
  8
1
  6
CONTINUOUS
 62
     0
 10
-349.7156946253776
 20
-1054.465694625377
 30
0.0
  0
VERTEX
  5
511
  8
1
  6
CONTINUOUS
 62
     0
 10
-349.6978946162883
 20
-1054.447894616288
 30
0.0
  0
VERTEX
  5
512
  8
1
  6
CONTINUOUS
 62
     0
 10
-349.6803766833081
 20
-1054.430376683308
 30
0.0
  0
VERTEX
  5
513
  8
1
  6
CONTINUOUS
 62
     0
 10
-349.6461900501715
 20
-1054.396190050171
 30
0.0
  0
VERTEX
  5
514
  8
1
  6
CONTINUOUS
 62
     0
 10
-349.6131406130092
 20
-1054.363140613009
 30
0.0
  0
VERTEX
  5
515
  8
1
  6
CONTINUOUS
 62
     0
 10
-349.5970441290989
 20
-1054.347044129099
 30
0.0
  0
VERTEX
  5
516
  8
1
  6
CONTINUOUS
 62
     0
 10
-349.5812340630338
 20
-1054.331234063034
 30
0.0
  0
VERTEX
  5
517
  8
1
  6
CONTINUOUS
 62
     0
 10
-349.5504758946493
 20
-1054.300475894649
 30
0.0
  0
VERTEX
  5
518
  8
1
  6
CONTINUOUS
 62
     0
 10
-349.5208714045051
 20
-1054.270871404505
 30
0.0
  0
VERTEX
  5
519
  8
1
  6
CONTINUOUS
 62
     0
 10
-349.4924256905836
 20
-1054.242425690583
 30
0.0
  0
VERTEX
  5
51A
  8
1
  6
CONTINUOUS
 62
     0
 10
-349.4651436513223
 20
-1054.215143651322
 30
0.0
  0
VERTEX
  5
51B
  8
1
  6
CONTINUOUS
 62
     0
 10
-349.4390299847708
 20
-1054.189029984771
 30
0.0
  0
VERTEX
  5
51C
  8
1
  6
CONTINUOUS
 62
     0
 10
-349.4264127044081
 20
-1054.176412704408
 30
0.0
  0
VERTEX
  5
51D
  8
1
  6
CONTINUOUS
 62
     0
 10
-349.414089187781
 20
-1054.164089187781
 30
0.0
  0
VERTEX
  5
51E
  8
1
  6
CONTINUOUS
 62
     0
 10
-349.3903255552335
 20
-1054.140325555233
 30
0.0
  0
VERTEX
  5
51F
  8
1
  6
CONTINUOUS
 62
     0
 10
-349.3677431792972
 20
-1054.117743179297
 30
0.0
  0
VERTEX
  5
520
  8
1
  6
CONTINUOUS
 62
     0
 10
-349.3463459487255
 20
-1054.096345948725
 30
0.0
  0
VERTEX
  5
521
  8
1
  6
CONTINUOUS
 62
     0
 10
-349.3261375481858
 20
-1054.076137548186
 30
0.0
  0
VERTEX
  5
522
  8
1
  6
CONTINUOUS
 62
     0
 10
-349.3071214576257
 20
-1054.057121457626
 30
0.0
  0
VERTEX
  5
523
  8
1
  6
CONTINUOUS
 62
     0
 10
-349.2980615599452
 20
-1054.048061559945
 30
0.0
  0
VERTEX
  5
524
  8
1
  6
CONTINUOUS
 62
     0
 10
-349.2893009516732
 20
-1054.039300951673
 30
0.0
  0
VERTEX
  5
525
  8
1
  6
CONTINUOUS
 62
     0
 10
-349.2726790990732
 20
-1054.022679099073
 30
0.0
  0
VERTEX
  5
526
  8
1
  6
CONTINUOUS
 62
     0
 10
-349.2572587621589
 20
-1054.007258762159
 30
0.0
  0
VERTEX
  5
527
  8
1
  6
CONTINUOUS
 62
     0
 10
-349.2500000000002
 20
-1054.0
 30
0.0
  0
SEQEND
  5
4DA
  8
1
  6
CONTINUOUS
 62
     0
  0
POLYLINE
  5
88
  8
1
  6
CONTINUOUS
 62
     0
 66
     1
 10
0.0
 20
0.0
 30
0.0
  0
VERTEX
  5
529
  8
1
  6
CONTINUOUS
 62
     0
 10
-356.2499999999999
 20
1061.0
 30
0.0
  0
VERTEX
  5
52A
  8
1
  6
CONTINUOUS
 62
     0
 10
-356.5287855351704
 20
1061.278785535171
 30
0.0
  0
VERTEX
  5
52B
  8
1
  6
CONTINUOUS
 62
     0
 10
-357.0846291958602
 20
1061.834629195861
 30
0.0
  0
VERTEX
  5
52C
  8
1
  6
CONTINUOUS
 62
     0
 10
-357.635301330964
 20
1062.385301330964
 30
0.0
  0
VERTEX
  5
52D
  8
1
  6
CONTINUOUS
 62
     0
 10
-357.9076299721303
 20
1062.657629972131
 30
0.0
  0
VERTEX
  5
52E
  8
1
  6
CONTINUOUS
 62
     0
 10
-358.1773898683302
 20
1062.927389868331
 30
0.0
  0
VERTEX
  5
52F
  8
1
  6
CONTINUOUS
 62
     0
 10
-358.7075359214558
 20
1063.457535921456
 30
0.0
  0
VERTEX
  5
530
  8
1
  6
CONTINUOUS
 62
     0
 10
-359.222454601804
 20
1063.972454601804
 30
0.0
  0
VERTEX
  5
531
  8
1
  6
CONTINUOUS
 62
     0
 10
-359.7189553726152
 20
1064.468955372616
 30
0.0
  0
VERTEX
  5
532
  8
1
  6
CONTINUOUS
 62
     0
 10
-360.1939618180959
 20
1064.943961818096
 30
0.0
  0
VERTEX
  5
533
  8
1
  6
CONTINUOUS
 62
     0
 10
-360.6445307054926
 20
1065.394530705493
 30
0.0
  0
VERTEX
  5
534
  8
1
  6
CONTINUOUS
 62
     0
 10
-360.8597722286465
 20
1065.609772228647
 30
0.0
  0
VERTEX
  5
535
  8
1
  6
CONTINUOUS
 62
     0
 10
-360.8949601546585
 20
1065.644960154659
 30
0.0
  0
VERTEX
  5
536
  8
1
  6
CONTINUOUS
 62
     0
 10
-360.9647345868495
 20
1065.71473458685
 30
0.0
  0
VERTEX
  5
537
  8
1
  6
CONTINUOUS
 62
     0
 10
-361.0336971275365
 20
1065.783697127537
 30
0.0
  0
VERTEX
  5
538
  8
1
  6
CONTINUOUS
 62
     0
 10
-361.067870221937
 20
1065.817870221937
 30
0.0
  0
VERTEX
  5
539
  8
1
  6
CONTINUOUS
 62
     0
 10
-361.1018359011623
 20
1065.851835901162
 30
0.0
  0
VERTEX
  5
53A
  8
1
  6
CONTINUOUS
 62
     0
 10
-361.1691391740247
 20
1065.919139174025
 30
0.0
  0
VERTEX
  5
53B
  8
1
  6
CONTINUOUS
 62
     0
 10
-361.2355953562973
 20
1065.985595356297
 30
0.0
  0
VERTEX
  5
53C
  8
1
  6
CONTINUOUS
 62
     0
 10
-361.3011930040252
 20
1066.051193004025
 30
0.0
  0
VERTEX
  5
53D
  8
1
  6
CONTINUOUS
 62
     0
 10
-361.3659208210958
 20
1066.115920821096
 30
0.0
  0
VERTEX
  5
53E
  8
1
  6
CONTINUOUS
 62
     0
 10
-361.429767661184
 20
1066.179767661184
 30
0.0
  0
VERTEX
  5
53F
  8
1
  6
CONTINUOUS
 62
     0
 10
-361.4613572730635
 20
1066.211357273064
 30
0.0
  0
VERTEX
  5
540
  8
1
  6
CONTINUOUS
 62
     0
 10
-361.4927225296715
 20
1066.242722529672
 30
0.0
  0
VERTEX
  5
541
  8
1
  6
CONTINUOUS
 62
     0
 10
-361.5547745855402
 20
1066.30477458554
 30
0.0
  0
VERTEX
  5
542
  8
1
  6
CONTINUOUS
 62
     0
 10
-361.6159131432391
 20
1066.365913143239
 30
0.0
  0
VERTEX
  5
543
  8
1
  6
CONTINUOUS
 62
     0
 10
-361.6761276745243
 20
1066.426127674524
 30
0.0
  0
VERTEX
  5
544
  8
1
  6
CONTINUOUS
 62
     0
 10
-361.7354078102721
 20
1066.485407810272
 30
0.0
  0
VERTEX
  5
545
  8
1
  6
CONTINUOUS
 62
     0
 10
-361.7937433422645
 20
1066.543743342265
 30
0.0
  0
VERTEX
  5
546
  8
1
  6
CONTINUOUS
 62
     0
 10
-361.8225537362151
 20
1066.572553736215
 30
0.0
  0
VERTEX
  5
547
  8
1
  6
CONTINUOUS
 62
     0
 10
-361.851124224947
 20
1066.601124224947
 30
0.0
  0
VERTEX
  5
548
  8
1
  6
CONTINUOUS
 62
     0
 10
-361.9075405771587
 20
1066.657540577159
 30
0.0
  0
VERTEX
  5
549
  8
1
  6
CONTINUOUS
 62
     0
 10
-361.9629826838338
 20
1066.712982683834
 30
0.0
  0
VERTEX
  5
54A
  8
1
  6
CONTINUOUS
 62
     0
 10
-362.0174409976745
 20
1066.767440997675
 30
0.0
  0
VERTEX
  5
54B
  8
1
  6
CONTINUOUS
 62
     0
 10
-362.0709061407949
 20
1066.820906140795
 30
0.0
  0
VERTEX
  5
54C
  8
1
  6
CONTINUOUS
 62
     0
 10
-362.1233689063363
 20
1066.873368906336
 30
0.0
  0
VERTEX
  5
54D
  8
1
  6
CONTINUOUS
 62
     0
 10
-362.1492215675275
 20
1066.899221567528
 30
0.0
  0
VERTEX
  5
54E
  8
1
  6
CONTINUOUS
 62
     0
 10
-362.1748202600524
 20
1066.924820260053
 30
0.0
  0
VERTEX
  5
54F
  8
1
  6
CONTINUOUS
 62
     0
 10
-362.225251341865
 20
1066.975251341865
 30
0.0
  0
VERTEX
  5
550
  8
1
  6
CONTINUOUS
 62
     0
 10
-362.2746534673899
 20
1067.02465346739
 30
0.0
  0
VERTEX
  5
551
  8
1
  6
CONTINUOUS
 62
     0
 10
-362.3230181294321
 20
1067.073018129432
 30
0.0
  0
VERTEX
  5
552
  8
1
  6
CONTINUOUS
 62
     0
 10
-362.3703369994511
 20
1067.120336999451
 30
0.0
  0
VERTEX
  5
553
  8
1
  6
CONTINUOUS
 62
     0
 10
-362.416601928995
 20
1067.166601928995
 30
0.0
  0
VERTEX
  5
554
  8
1
  6
CONTINUOUS
 62
     0
 10
-362.4393366692864
 20
1067.189336669286
 30
0.0
  0
VERTEX
  5
555
  8
1
  6
CONTINUOUS
 62
     0
 10
-362.4618049511033
 20
1067.211804951103
 30
0.0
  0
VERTEX
  5
556
  8
1
  6
CONTINUOUS
 62
     0
 10
-362.5059382816795
 20
1067.25593828168
 30
0.0
  0
VERTEX
  5
557
  8
1
  6
CONTINUOUS
 62
     0
 10
-362.5489943208311
 20
1067.298994320831
 30
0.0
  0
VERTEX
  5
558
  8
1
  6
CONTINUOUS
 62
     0
 10
-362.5909656541783
 20
1067.340965654178
 30
0.0
  0
VERTEX
  5
559
  8
1
  6
CONTINUOUS
 62
     0
 10
-362.6318450541311
 20
1067.381845054131
 30
0.0
  0
VERTEX
  5
55A
  8
1
  6
CONTINUOUS
 62
     0
 10
-362.6716254811337
 20
1067.421625481134
 30
0.0
  0
VERTEX
  5
55B
  8
1
  6
CONTINUOUS
 62
     0
 10
-362.6911014316319
 20
1067.441101431632
 30
0.0
  0
VERTEX
  5
55C
  8
1
  6
CONTINUOUS
 62
     0
 10
-362.7103000848765
 20
1067.460300084877
 30
0.0
  0
VERTEX
  5
55D
  8
1
  6
CONTINUOUS
 62
     0
 10
-362.7478622054763
 20
1067.497862205476
 30
0.0
  0
VERTEX
  5
55E
  8
1
  6
CONTINUOUS
 62
     0
 10
-362.7843053746228
 20
1067.534305374623
 30
0.0
  0
VERTEX
  5
55F
  8
1
  6
CONTINUOUS
 62
     0
 10
-362.802105383712
 20
1067.552105383712
 30
0.0
  0
VERTEX
  5
560
  8
1
  6
CONTINUOUS
 62
     0
 10
-362.8196233166923
 20
1067.569623316692
 30
0.0
  0
VERTEX
  5
561
  8
1
  6
CONTINUOUS
 62
     0
 10
-362.8538099498288
 20
1067.603809949829
 30
0.0
  0
VERTEX
  5
562
  8
1
  6
CONTINUOUS
 62
     0
 10
-362.8868593869912
 20
1067.636859386991
 30
0.0
  0
VERTEX
  5
563
  8
1
  6
CONTINUOUS
 62
     0
 10
-362.9029558709014
 20
1067.652955870902
 30
0.0
  0
VERTEX
  5
564
  8
1
  6
CONTINUOUS
 62
     0
 10
-362.9187659369666
 20
1067.668765936967
 30
0.0
  0
VERTEX
  5
565
  8
1
  6
CONTINUOUS
 62
     0
 10
-362.949524105351
 20
1067.699524105351
 30
0.0
  0
VERTEX
  5
566
  8
1
  6
CONTINUOUS
 62
     0
 10
-362.9791285954952
 20
1067.729128595495
 30
0.0
  0
VERTEX
  5
567
  8
1
  6
CONTINUOUS
 62
     0
 10
-363.0075743094168
 20
1067.757574309417
 30
0.0
  0
VERTEX
  5
568
  8
1
  6
CONTINUOUS
 62
     0
 10
-363.034856348678
 20
1067.784856348678
 30
0.0
  0
VERTEX
  5
569
  8
1
  6
CONTINUOUS
 62
     0
 10
-363.0609700152295
 20
1067.81097001523
 30
0.0
  0
VERTEX
  5
56A
  8
1
  6
CONTINUOUS
 62
     0
 10
-363.0735872955922
 20
1067.823587295592
 30
0.0
  0
VERTEX
  5
56B
  8
1
  6
CONTINUOUS
 62
     0
 10
-363.0859108122193
 20
1067.835910812219
 30
0.0
  0
VERTEX
  5
56C
  8
1
  6
CONTINUOUS
 62
     0
 10
-363.1096744447669
 20
1067.859674444767
 30
0.0
  0
VERTEX
  5
56D
  8
1
  6
CONTINUOUS
 62
     0
 10
-363.1322568207032
 20
1067.882256820703
 30
0.0
  0
VERTEX
  5
56E
  8
1
  6
CONTINUOUS
 62
     0
 10
-363.1536540512749
 20
1067.903654051275
 30
0.0
  0
VERTEX
  5
56F
  8
1
  6
CONTINUOUS
 62
     0
 10
-363.1738624518146
 20
1067.923862451815
 30
0.0
  0
VERTEX
  5
570
  8
1
  6
CONTINUOUS
 62
     0
 10
-363.1928785423747
 20
1067.942878542375
 30
0.0
  0
VERTEX
  5
571
  8
1
  6
CONTINUOUS
 62
     0
 10
-363.2019384400551
 20
1067.951938440055
 30
0.0
  0
VERTEX
  5
572
  8
1
  6
CONTINUOUS
 62
     0
 10
-363.2106990483271
 20
1067.960699048327
 30
0.0
  0
VERTEX
  5
573
  8
1
  6
CONTINUOUS
 62
     0
 10
-363.2273209009271
 20
1067.977320900927
 30
0.0
  0
VERTEX
  5
574
  8
1
  6
CONTINUOUS
 62
     0
 10
-363.2427412378414
 20
1067.992741237841
 30
0.0
  0
VERTEX
  5
575
  8
1
  6
CONTINUOUS
 62
     0
 10
-363.2500000000002
 20
1068.0
 30
0.0
  0
SEQEND
  5
528
  8
1
  6
CONTINUOUS
 62
     0
  0
LINE
  5
89
  8
1
  6
CONTINUOUS
 62
     0
 10
-363.25
 20
1068.0
 30
0.0
 11
363.25
 21
1068.0
 31
0.0
  0
POLYLINE
  5
8A
  8
1
  6
CONTINUOUS
 62
     0
 66
     1
 10
0.0
 20
0.0
 30
0.0
  0
VERTEX
  5
577
  8
1
  6
CONTINUOUS
 62
     0
 10
363.2500000000002
 20
1068.0
 30
0.0
  0
VERTEX
  5
578
  8
1
  6
CONTINUOUS
 62
     0
 10
363.2427412378414
 20
1067.992741237841
 30
0.0
  0
VERTEX
  5
579
  8
1
  6
CONTINUOUS
 62
     0
 10
363.2273209009271
 20
1067.977320900927
 30
0.0
  0
VERTEX
  5
57A
  8
1
  6
CONTINUOUS
 62
     0
 10
363.2106990483271
 20
1067.960699048327
 30
0.0
  0
VERTEX
  5
57B
  8
1
  6
CONTINUOUS
 62
     0
 10
363.2019384400551
 20
1067.951938440055
 30
0.0
  0
VERTEX
  5
57C
  8
1
  6
CONTINUOUS
 62
     0
 10
363.1928785423747
 20
1067.942878542375
 30
0.0
  0
VERTEX
  5
57D
  8
1
  6
CONTINUOUS
 62
     0
 10
363.1738624518146
 20
1067.923862451815
 30
0.0
  0
VERTEX
  5
57E
  8
1
  6
CONTINUOUS
 62
     0
 10
363.1536540512749
 20
1067.903654051275
 30
0.0
  0
VERTEX
  5
57F
  8
1
  6
CONTINUOUS
 62
     0
 10
363.1322568207032
 20
1067.882256820703
 30
0.0
  0
VERTEX
  5
580
  8
1
  6
CONTINUOUS
 62
     0
 10
363.1096744447669
 20
1067.859674444767
 30
0.0
  0
VERTEX
  5
581
  8
1
  6
CONTINUOUS
 62
     0
 10
363.0859108122193
 20
1067.835910812219
 30
0.0
  0
VERTEX
  5
582
  8
1
  6
CONTINUOUS
 62
     0
 10
363.0735872955922
 20
1067.823587295592
 30
0.0
  0
VERTEX
  5
583
  8
1
  6
CONTINUOUS
 62
     0
 10
363.0609700152295
 20
1067.81097001523
 30
0.0
  0
VERTEX
  5
584
  8
1
  6
CONTINUOUS
 62
     0
 10
363.034856348678
 20
1067.784856348678
 30
0.0
  0
VERTEX
  5
585
  8
1
  6
CONTINUOUS
 62
     0
 10
363.0075743094168
 20
1067.757574309417
 30
0.0
  0
VERTEX
  5
586
  8
1
  6
CONTINUOUS
 62
     0
 10
362.9791285954952
 20
1067.729128595495
 30
0.0
  0
VERTEX
  5
587
  8
1
  6
CONTINUOUS
 62
     0
 10
362.949524105351
 20
1067.699524105351
 30
0.0
  0
VERTEX
  5
588
  8
1
  6
CONTINUOUS
 62
     0
 10
362.9187659369666
 20
1067.668765936967
 30
0.0
  0
VERTEX
  5
589
  8
1
  6
CONTINUOUS
 62
     0
 10
362.9029558709014
 20
1067.652955870902
 30
0.0
  0
VERTEX
  5
58A
  8
1
  6
CONTINUOUS
 62
     0
 10
362.8868593869912
 20
1067.636859386991
 30
0.0
  0
VERTEX
  5
58B
  8
1
  6
CONTINUOUS
 62
     0
 10
362.8538099498288
 20
1067.603809949829
 30
0.0
  0
VERTEX
  5
58C
  8
1
  6
CONTINUOUS
 62
     0
 10
362.8196233166923
 20
1067.569623316692
 30
0.0
  0
VERTEX
  5
58D
  8
1
  6
CONTINUOUS
 62
     0
 10
362.802105383712
 20
1067.552105383712
 30
0.0
  0
VERTEX
  5
58E
  8
1
  6
CONTINUOUS
 62
     0
 10
362.7843053746228
 20
1067.534305374623
 30
0.0
  0
VERTEX
  5
58F
  8
1
  6
CONTINUOUS
 62
     0
 10
362.7478622054763
 20
1067.497862205476
 30
0.0
  0
VERTEX
  5
590
  8
1
  6
CONTINUOUS
 62
     0
 10
362.7103000848765
 20
1067.460300084877
 30
0.0
  0
VERTEX
  5
591
  8
1
  6
CONTINUOUS
 62
     0
 10
362.6911014316319
 20
1067.441101431632
 30
0.0
  0
VERTEX
  5
592
  8
1
  6
CONTINUOUS
 62
     0
 10
362.6716254811337
 20
1067.421625481134
 30
0.0
  0
VERTEX
  5
593
  8
1
  6
CONTINUOUS
 62
     0
 10
362.6318450541311
 20
1067.381845054131
 30
0.0
  0
VERTEX
  5
594
  8
1
  6
CONTINUOUS
 62
     0
 10
362.5909656541783
 20
1067.340965654178
 30
0.0
  0
VERTEX
  5
595
  8
1
  6
CONTINUOUS
 62
     0
 10
362.5489943208311
 20
1067.298994320831
 30
0.0
  0
VERTEX
  5
596
  8
1
  6
CONTINUOUS
 62
     0
 10
362.5059382816795
 20
1067.25593828168
 30
0.0
  0
VERTEX
  5
597
  8
1
  6
CONTINUOUS
 62
     0
 10
362.4618049511033
 20
1067.211804951103
 30
0.0
  0
VERTEX
  5
598
  8
1
  6
CONTINUOUS
 62
     0
 10
362.4393366692864
 20
1067.189336669286
 30
0.0
  0
VERTEX
  5
599
  8
1
  6
CONTINUOUS
 62
     0
 10
362.416601928995
 20
1067.166601928995
 30
0.0
  0
VERTEX
  5
59A
  8
1
  6
CONTINUOUS
 62
     0
 10
362.3703369994511
 20
1067.120336999451
 30
0.0
  0
VERTEX
  5
59B
  8
1
  6
CONTINUOUS
 62
     0
 10
362.3230181294321
 20
1067.073018129432
 30
0.0
  0
VERTEX
  5
59C
  8
1
  6
CONTINUOUS
 62
     0
 10
362.2746534673899
 20
1067.02465346739
 30
0.0
  0
VERTEX
  5
59D
  8
1
  6
CONTINUOUS
 62
     0
 10
362.225251341865
 20
1066.975251341865
 30
0.0
  0
VERTEX
  5
59E
  8
1
  6
CONTINUOUS
 62
     0
 10
362.1748202600524
 20
1066.924820260053
 30
0.0
  0
VERTEX
  5
59F
  8
1
  6
CONTINUOUS
 62
     0
 10
362.1492215675275
 20
1066.899221567528
 30
0.0
  0
VERTEX
  5
5A0
  8
1
  6
CONTINUOUS
 62
     0
 10
362.1233689063363
 20
1066.873368906336
 30
0.0
  0
VERTEX
  5
5A1
  8
1
  6
CONTINUOUS
 62
     0
 10
362.0709061407949
 20
1066.820906140795
 30
0.0
  0
VERTEX
  5
5A2
  8
1
  6
CONTINUOUS
 62
     0
 10
362.0174409976745
 20
1066.767440997675
 30
0.0
  0
VERTEX
  5
5A3
  8
1
  6
CONTINUOUS
 62
     0
 10
361.9629826838338
 20
1066.712982683834
 30
0.0
  0
VERTEX
  5
5A4
  8
1
  6
CONTINUOUS
 62
     0
 10
361.9075405771587
 20
1066.657540577159
 30
0.0
  0
VERTEX
  5
5A5
  8
1
  6
CONTINUOUS
 62
     0
 10
361.851124224947
 20
1066.601124224947
 30
0.0
  0
VERTEX
  5
5A6
  8
1
  6
CONTINUOUS
 62
     0
 10
361.8225537362151
 20
1066.572553736215
 30
0.0
  0
VERTEX
  5
5A7
  8
1
  6
CONTINUOUS
 62
     0
 10
361.7937433422645
 20
1066.543743342265
 30
0.0
  0
VERTEX
  5
5A8
  8
1
  6
CONTINUOUS
 62
     0
 10
361.7354078102721
 20
1066.485407810272
 30
0.0
  0
VERTEX
  5
5A9
  8
1
  6
CONTINUOUS
 62
     0
 10
361.6761276745243
 20
1066.426127674524
 30
0.0
  0
VERTEX
  5
5AA
  8
1
  6
CONTINUOUS
 62
     0
 10
361.6159131432391
 20
1066.365913143239
 30
0.0
  0
VERTEX
  5
5AB
  8
1
  6
CONTINUOUS
 62
     0
 10
361.5547745855402
 20
1066.30477458554
 30
0.0
  0
VERTEX
  5
5AC
  8
1
  6
CONTINUOUS
 62
     0
 10
361.4927225296715
 20
1066.242722529672
 30
0.0
  0
VERTEX
  5
5AD
  8
1
  6
CONTINUOUS
 62
     0
 10
361.4613572730635
 20
1066.211357273064
 30
0.0
  0
VERTEX
  5
5AE
  8
1
  6
CONTINUOUS
 62
     0
 10
361.429767661184
 20
1066.179767661184
 30
0.0
  0
VERTEX
  5
5AF
  8
1
  6
CONTINUOUS
 62
     0
 10
361.3659208210958
 20
1066.115920821096
 30
0.0
  0
VERTEX
  5
5B0
  8
1
  6
CONTINUOUS
 62
     0
 10
361.3011930040252
 20
1066.051193004025
 30
0.0
  0
VERTEX
  5
5B1
  8
1
  6
CONTINUOUS
 62
     0
 10
361.2355953562973
 20
1065.985595356297
 30
0.0
  0
VERTEX
  5
5B2
  8
1
  6
CONTINUOUS
 62
     0
 10
361.1691391740247
 20
1065.919139174025
 30
0.0
  0
VERTEX
  5
5B3
  8
1
  6
CONTINUOUS
 62
     0
 10
361.1018359011623
 20
1065.851835901162
 30
0.0
  0
VERTEX
  5
5B4
  8
1
  6
CONTINUOUS
 62
     0
 10
361.067870221937
 20
1065.817870221937
 30
0.0
  0
VERTEX
  5
5B5
  8
1
  6
CONTINUOUS
 62
     0
 10
361.0336971275365
 20
1065.783697127537
 30
0.0
  0
VERTEX
  5
5B6
  8
1
  6
CONTINUOUS
 62
     0
 10
360.9647345868495
 20
1065.71473458685
 30
0.0
  0
VERTEX
  5
5B7
  8
1
  6
CONTINUOUS
 62
     0
 10
360.8949601546585
 20
1065.644960154659
 30
0.0
  0
VERTEX
  5
5B8
  8
1
  6
CONTINUOUS
 62
     0
 10
360.8597722286465
 20
1065.609772228647
 30
0.0
  0
VERTEX
  5
5B9
  8
1
  6
CONTINUOUS
 62
     0
 10
360.6445307054926
 20
1065.394530705493
 30
0.0
  0
VERTEX
  5
5BA
  8
1
  6
CONTINUOUS
 62
     0
 10
360.1939618180959
 20
1064.943961818096
 30
0.0
  0
VERTEX
  5
5BB
  8
1
  6
CONTINUOUS
 62
     0
 10
359.7189553726152
 20
1064.468955372616
 30
0.0
  0
VERTEX
  5
5BC
  8
1
  6
CONTINUOUS
 62
     0
 10
359.222454601804
 20
1063.972454601804
 30
0.0
  0
VERTEX
  5
5BD
  8
1
  6
CONTINUOUS
 62
     0
 10
358.7075359214558
 20
1063.457535921456
 30
0.0
  0
VERTEX
  5
5BE
  8
1
  6
CONTINUOUS
 62
     0
 10
358.1773898683302
 20
1062.927389868331
 30
0.0
  0
VERTEX
  5
5BF
  8
1
  6
CONTINUOUS
 62
     0
 10
357.9076299721303
 20
1062.657629972131
 30
0.0
  0
VERTEX
  5
5C0
  8
1
  6
CONTINUOUS
 62
     0
 10
357.635301330964
 20
1062.385301330964
 30
0.0
  0
VERTEX
  5
5C1
  8
1
  6
CONTINUOUS
 62
     0
 10
357.0846291958602
 20
1061.834629195861
 30
0.0
  0
VERTEX
  5
5C2
  8
1
  6
CONTINUOUS
 62
     0
 10
356.5287855351704
 20
1061.278785535171
 30
0.0
  0
VERTEX
  5
5C3
  8
1
  6
CONTINUOUS
 62
     0
 10
356.2499999999999
 20
1061.0
 30
0.0
  0
SEQEND
  5
576
  8
1
  6
CONTINUOUS
 62
     0
  0
POLYLINE
  5
8B
  8
1
  6
CONTINUOUS
 62
     0
 66
     1
 10
0.0
 20
0.0
 30
0.0
  0
VERTEX
  5
5C5
  8
1
  6
CONTINUOUS
 62
     0
 10
356.25
 20
1061.0
 30
0.0
  0
VERTEX
  5
5C6
  8
1
  6
CONTINUOUS
 62
     0
 10
355.9712144648295
 20
1060.72121446483
 30
0.0
  0
VERTEX
  5
5C7
  8
1
  6
CONTINUOUS
 62
     0
 10
355.4153708041397
 20
1060.16537080414
 30
0.0
  0
VERTEX
  5
5C8
  8
1
  6
CONTINUOUS
 62
     0
 10
354.864698669036
 20
1059.614698669036
 30
0.0
  0
VERTEX
  5
5C9
  8
1
  6
CONTINUOUS
 62
     0
 10
354.5923700278697
 20
1059.34237002787
 30
0.0
  0
VERTEX
  5
5CA
  8
1
  6
CONTINUOUS
 62
     0
 10
354.3226101316699
 20
1059.07261013167
 30
0.0
  0
VERTEX
  5
5CB
  8
1
  6
CONTINUOUS
 62
     0
 10
353.7924640785442
 20
1058.542464078544
 30
0.0
  0
VERTEX
  5
5CC
  8
1
  6
CONTINUOUS
 62
     0
 10
353.277545398196
 20
1058.027545398196
 30
0.0
  0
VERTEX
  5
5CD
  8
1
  6
CONTINUOUS
 62
     0
 10
352.781044627385
 20
1057.531044627385
 30
0.0
  0
VERTEX
  5
5CE
  8
1
  6
CONTINUOUS
 62
     0
 10
352.3060381819043
 20
1057.056038181904
 30
0.0
  0
VERTEX
  5
5CF
  8
1
  6
CONTINUOUS
 62
     0
 10
351.8554692945075
 20
1056.605469294507
 30
0.0
  0
VERTEX
  5
5D0
  8
1
  6
CONTINUOUS
 62
     0
 10
351.6402277713537
 20
1056.390227771354
 30
0.0
  0
VERTEX
  5
5D1
  8
1
  6
CONTINUOUS
 62
     0
 10
351.6050398453417
 20
1056.355039845342
 30
0.0
  0
VERTEX
  5
5D2
  8
1
  6
CONTINUOUS
 62
     0
 10
351.5352654131507
 20
1056.285265413151
 30
0.0
  0
VERTEX
  5
5D3
  8
1
  6
CONTINUOUS
 62
     0
 10
351.4663028724637
 20
1056.216302872464
 30
0.0
  0
VERTEX
  5
5D4
  8
1
  6
CONTINUOUS
 62
     0
 10
351.4321297780633
 20
1056.182129778063
 30
0.0
  0
VERTEX
  5
5D5
  8
1
  6
CONTINUOUS
 62
     0
 10
351.398164098838
 20
1056.148164098838
 30
0.0
  0
VERTEX
  5
5D6
  8
1
  6
CONTINUOUS
 62
     0
 10
351.3308608259756
 20
1056.080860825975
 30
0.0
  0
VERTEX
  5
5D7
  8
1
  6
CONTINUOUS
 62
     0
 10
351.264404643703
 20
1056.014404643703
 30
0.0
  0
VERTEX
  5
5D8
  8
1
  6
CONTINUOUS
 62
     0
 10
351.1988069959751
 20
1055.948806995975
 30
0.0
  0
VERTEX
  5
5D9
  8
1
  6
CONTINUOUS
 62
     0
 10
351.1340791789045
 20
1055.884079178904
 30
0.0
  0
VERTEX
  5
5DA
  8
1
  6
CONTINUOUS
 62
     0
 10
351.0702323388163
 20
1055.820232338816
 30
0.0
  0
VERTEX
  5
5DB
  8
1
  6
CONTINUOUS
 62
     0
 10
351.0386427269368
 20
1055.788642726937
 30
0.0
  0
VERTEX
  5
5DC
  8
1
  6
CONTINUOUS
 62
     0
 10
351.0072774703288
 20
1055.757277470329
 30
0.0
  0
VERTEX
  5
5DD
  8
1
  6
CONTINUOUS
 62
     0
 10
350.9452254144601
 20
1055.69522541446
 30
0.0
  0
VERTEX
  5
5DE
  8
1
  6
CONTINUOUS
 62
     0
 10
350.8840868567612
 20
1055.634086856761
 30
0.0
  0
VERTEX
  5
5DF
  8
1
  6
CONTINUOUS
 62
     0
 10
350.823872325476
 20
1055.573872325476
 30
0.0
  0
VERTEX
  5
5E0
  8
1
  6
CONTINUOUS
 62
     0
 10
350.7645921897282
 20
1055.514592189728
 30
0.0
  0
VERTEX
  5
5E1
  8
1
  6
CONTINUOUS
 62
     0
 10
350.7062566577358
 20
1055.456256657736
 30
0.0
  0
VERTEX
  5
5E2
  8
1
  6
CONTINUOUS
 62
     0
 10
350.6774462637852
 20
1055.427446263785
 30
0.0
  0
VERTEX
  5
5E3
  8
1
  6
CONTINUOUS
 62
     0
 10
350.6488757750533
 20
1055.398875775053
 30
0.0
  0
VERTEX
  5
5E4
  8
1
  6
CONTINUOUS
 62
     0
 10
350.5924594228416
 20
1055.342459422841
 30
0.0
  0
VERTEX
  5
5E5
  8
1
  6
CONTINUOUS
 62
     0
 10
350.5370173161664
 20
1055.287017316166
 30
0.0
  0
VERTEX
  5
5E6
  8
1
  6
CONTINUOUS
 62
     0
 10
350.4825590023258
 20
1055.232559002326
 30
0.0
  0
VERTEX
  5
5E7
  8
1
  6
CONTINUOUS
 62
     0
 10
350.4290938592054
 20
1055.179093859205
 30
0.0
  0
VERTEX
  5
5E8
  8
1
  6
CONTINUOUS
 62
     0
 10
350.376631093664
 20
1055.126631093664
 30
0.0
  0
VERTEX
  5
5E9
  8
1
  6
CONTINUOUS
 62
     0
 10
350.3507784324728
 20
1055.100778432473
 30
0.0
  0
VERTEX
  5
5EA
  8
1
  6
CONTINUOUS
 62
     0
 10
350.3251797399479
 20
1055.075179739948
 30
0.0
  0
VERTEX
  5
5EB
  8
1
  6
CONTINUOUS
 62
     0
 10
350.2747486581353
 20
1055.024748658135
 30
0.0
  0
VERTEX
  5
5EC
  8
1
  6
CONTINUOUS
 62
     0
 10
350.2253465326104
 20
1054.97534653261
 30
0.0
  0
VERTEX
  5
5ED
  8
1
  6
CONTINUOUS
 62
     0
 10
350.1769818705682
 20
1054.926981870568
 30
0.0
  0
VERTEX
  5
5EE
  8
1
  6
CONTINUOUS
 62
     0
 10
350.1296630005492
 20
1054.879663000549
 30
0.0
  0
VERTEX
  5
5EF
  8
1
  6
CONTINUOUS
 62
     0
 10
350.0833980710053
 20
1054.833398071005
 30
0.0
  0
VERTEX
  5
5F0
  8
1
  6
CONTINUOUS
 62
     0
 10
350.060663330714
 20
1054.810663330714
 30
0.0
  0
VERTEX
  5
5F1
  8
1
  6
CONTINUOUS
 62
     0
 10
350.038195048897
 20
1054.788195048897
 30
0.0
  0
VERTEX
  5
5F2
  8
1
  6
CONTINUOUS
 62
     0
 10
349.9940617183208
 20
1054.744061718321
 30
0.0
  0
VERTEX
  5
5F3
  8
1
  6
CONTINUOUS
 62
     0
 10
349.9510056791692
 20
1054.701005679169
 30
0.0
  0
VERTEX
  5
5F4
  8
1
  6
CONTINUOUS
 62
     0
 10
349.909034345822
 20
1054.659034345822
 30
0.0
  0
VERTEX
  5
5F5
  8
1
  6
CONTINUOUS
 62
     0
 10
349.8681549458692
 20
1054.618154945869
 30
0.0
  0
VERTEX
  5
5F6
  8
1
  6
CONTINUOUS
 62
     0
 10
349.8283745188667
 20
1054.578374518866
 30
0.0
  0
VERTEX
  5
5F7
  8
1
  6
CONTINUOUS
 62
     0
 10
349.8088985683684
 20
1054.558898568368
 30
0.0
  0
VERTEX
  5
5F8
  8
1
  6
CONTINUOUS
 62
     0
 10
349.7896999151238
 20
1054.539699915124
 30
0.0
  0
VERTEX
  5
5F9
  8
1
  6
CONTINUOUS
 62
     0
 10
349.752137794524
 20
1054.502137794524
 30
0.0
  0
VERTEX
  5
5FA
  8
1
  6
CONTINUOUS
 62
     0
 10
349.7156946253776
 20
1054.465694625377
 30
0.0
  0
VERTEX
  5
5FB
  8
1
  6
CONTINUOUS
 62
     0
 10
349.6978946162883
 20
1054.447894616288
 30
0.0
  0
VERTEX
  5
5FC
  8
1
  6
CONTINUOUS
 62
     0
 10
349.6803766833081
 20
1054.430376683308
 30
0.0
  0
VERTEX
  5
5FD
  8
1
  6
CONTINUOUS
 62
     0
 10
349.6461900501715
 20
1054.396190050171
 30
0.0
  0
VERTEX
  5
5FE
  8
1
  6
CONTINUOUS
 62
     0
 10
349.6131406130092
 20
1054.363140613009
 30
0.0
  0
VERTEX
  5
5FF
  8
1
  6
CONTINUOUS
 62
     0
 10
349.5970441290989
 20
1054.347044129099
 30
0.0
  0
VERTEX
  5
600
  8
1
  6
CONTINUOUS
 62
     0
 10
349.5812340630338
 20
1054.331234063034
 30
0.0
  0
VERTEX
  5
601
  8
1
  6
CONTINUOUS
 62
     0
 10
349.5504758946493
 20
1054.300475894649
 30
0.0
  0
VERTEX
  5
602
  8
1
  6
CONTINUOUS
 62
     0
 10
349.5208714045051
 20
1054.270871404505
 30
0.0
  0
VERTEX
  5
603
  8
1
  6
CONTINUOUS
 62
     0
 10
349.4924256905836
 20
1054.242425690583
 30
0.0
  0
VERTEX
  5
604
  8
1
  6
CONTINUOUS
 62
     0
 10
349.4651436513223
 20
1054.215143651322
 30
0.0
  0
VERTEX
  5
605
  8
1
  6
CONTINUOUS
 62
     0
 10
349.4390299847708
 20
1054.189029984771
 30
0.0
  0
VERTEX
  5
606
  8
1
  6
CONTINUOUS
 62
     0
 10
349.4264127044081
 20
1054.176412704408
 30
0.0
  0
VERTEX
  5
607
  8
1
  6
CONTINUOUS
 62
     0
 10
349.414089187781
 20
1054.164089187781
 30
0.0
  0
VERTEX
  5
608
  8
1
  6
CONTINUOUS
 62
     0
 10
349.3903255552335
 20
1054.140325555233
 30
0.0
  0
VERTEX
  5
609
  8
1
  6
CONTINUOUS
 62
     0
 10
349.3677431792972
 20
1054.117743179297
 30
0.0
  0
VERTEX
  5
60A
  8
1
  6
CONTINUOUS
 62
     0
 10
349.3463459487255
 20
1054.096345948725
 30
0.0
  0
VERTEX
  5
60B
  8
1
  6
CONTINUOUS
 62
     0
 10
349.3261375481858
 20
1054.076137548186
 30
0.0
  0
VERTEX
  5
60C
  8
1
  6
CONTINUOUS
 62
     0
 10
349.3071214576257
 20
1054.057121457626
 30
0.0
  0
VERTEX
  5
60D
  8
1
  6
CONTINUOUS
 62
     0
 10
349.2980615599452
 20
1054.048061559945
 30
0.0
  0
VERTEX
  5
60E
  8
1
  6
CONTINUOUS
 62
     0
 10
349.2893009516732
 20
1054.039300951673
 30
0.0
  0
VERTEX
  5
60F
  8
1
  6
CONTINUOUS
 62
     0
 10
349.2726790990732
 20
1054.022679099073
 30
0.0
  0
VERTEX
  5
610
  8
1
  6
CONTINUOUS
 62
     0
 10
349.2572587621589
 20
1054.007258762159
 30
0.0
  0
VERTEX
  5
611
  8
1
  6
CONTINUOUS
 62
     0
 10
349.2500000000002
 20
1054.0
 30
0.0
  0
SEQEND
  5
5C4
  8
1
  6
CONTINUOUS
 62
     0
  0
LINE
  5
8C
  8
1
  6
CONTINUOUS
 62
     0
 10
349.25
 20
1054.0
 30
0.0
 11
-349.25
 21
1054.0
 31
0.0
  0
POLYLINE
  5
8D
  8
1
  6
CONTINUOUS
 62
     0
 66
     1
 10
0.0
 20
0.0
 30
0.0
  0
VERTEX
  5
613
  8
1
  6
CONTINUOUS
 62
     0
 10
-349.2500000000002
 20
1054.0
 30
0.0
  0
VERTEX
  5
614
  8
1
  6
CONTINUOUS
 62
     0
 10
-349.2572587621589
 20
1054.007258762159
 30
0.0
  0
VERTEX
  5
615
  8
1
  6
CONTINUOUS
 62
     0
 10
-349.2726790990732
 20
1054.022679099073
 30
0.0
  0
VERTEX
  5
616
  8
1
  6
CONTINUOUS
 62
     0
 10
-349.2893009516732
 20
1054.039300951673
 30
0.0
  0
VERTEX
  5
617
  8
1
  6
CONTINUOUS
 62
     0
 10
-349.2980615599452
 20
1054.048061559945
 30
0.0
  0
VERTEX
  5
618
  8
1
  6
CONTINUOUS
 62
     0
 10
-349.3071214576257
 20
1054.057121457626
 30
0.0
  0
VERTEX
  5
619
  8
1
  6
CONTINUOUS
 62
     0
 10
-349.3261375481858
 20
1054.076137548186
 30
0.0
  0
VERTEX
  5
61A
  8
1
  6
CONTINUOUS
 62
     0
 10
-349.3463459487255
 20
1054.096345948725
 30
0.0
  0
VERTEX
  5
61B
  8
1
  6
CONTINUOUS
 62
     0
 10
-349.3677431792972
 20
1054.117743179297
 30
0.0
  0
VERTEX
  5
61C
  8
1
  6
CONTINUOUS
 62
     0
 10
-349.3903255552335
 20
1054.140325555233
 30
0.0
  0
VERTEX
  5
61D
  8
1
  6
CONTINUOUS
 62
     0
 10
-349.414089187781
 20
1054.164089187781
 30
0.0
  0
VERTEX
  5
61E
  8
1
  6
CONTINUOUS
 62
     0
 10
-349.4264127044081
 20
1054.176412704408
 30
0.0
  0
VERTEX
  5
61F
  8
1
  6
CONTINUOUS
 62
     0
 10
-349.4390299847708
 20
1054.189029984771
 30
0.0
  0
VERTEX
  5
620
  8
1
  6
CONTINUOUS
 62
     0
 10
-349.4651436513223
 20
1054.215143651322
 30
0.0
  0
VERTEX
  5
621
  8
1
  6
CONTINUOUS
 62
     0
 10
-349.4924256905836
 20
1054.242425690583
 30
0.0
  0
VERTEX
  5
622
  8
1
  6
CONTINUOUS
 62
     0
 10
-349.5208714045051
 20
1054.270871404505
 30
0.0
  0
VERTEX
  5
623
  8
1
  6
CONTINUOUS
 62
     0
 10
-349.5504758946493
 20
1054.300475894649
 30
0.0
  0
VERTEX
  5
624
  8
1
  6
CONTINUOUS
 62
     0
 10
-349.5812340630338
 20
1054.331234063034
 30
0.0
  0
VERTEX
  5
625
  8
1
  6
CONTINUOUS
 62
     0
 10
-349.5970441290989
 20
1054.347044129099
 30
0.0
  0
VERTEX
  5
626
  8
1
  6
CONTINUOUS
 62
     0
 10
-349.6131406130092
 20
1054.363140613009
 30
0.0
  0
VERTEX
  5
627
  8
1
  6
CONTINUOUS
 62
     0
 10
-349.6461900501715
 20
1054.396190050171
 30
0.0
  0
VERTEX
  5
628
  8
1
  6
CONTINUOUS
 62
     0
 10
-349.6803766833081
 20
1054.430376683308
 30
0.0
  0
VERTEX
  5
629
  8
1
  6
CONTINUOUS
 62
     0
 10
-349.6978946162883
 20
1054.447894616288
 30
0.0
  0
VERTEX
  5
62A
  8
1
  6
CONTINUOUS
 62
     0
 10
-349.7156946253776
 20
1054.465694625377
 30
0.0
  0
VERTEX
  5
62B
  8
1
  6
CONTINUOUS
 62
     0
 10
-349.752137794524
 20
1054.502137794524
 30
0.0
  0
VERTEX
  5
62C
  8
1
  6
CONTINUOUS
 62
     0
 10
-349.7896999151238
 20
1054.539699915124
 30
0.0
  0
VERTEX
  5
62D
  8
1
  6
CONTINUOUS
 62
     0
 10
-349.8088985683684
 20
1054.558898568368
 30
0.0
  0
VERTEX
  5
62E
  8
1
  6
CONTINUOUS
 62
     0
 10
-349.8283745188667
 20
1054.578374518866
 30
0.0
  0
VERTEX
  5
62F
  8
1
  6
CONTINUOUS
 62
     0
 10
-349.8681549458692
 20
1054.618154945869
 30
0.0
  0
VERTEX
  5
630
  8
1
  6
CONTINUOUS
 62
     0
 10
-349.909034345822
 20
1054.659034345822
 30
0.0
  0
VERTEX
  5
631
  8
1
  6
CONTINUOUS
 62
     0
 10
-349.9510056791692
 20
1054.701005679169
 30
0.0
  0
VERTEX
  5
632
  8
1
  6
CONTINUOUS
 62
     0
 10
-349.9940617183208
 20
1054.744061718321
 30
0.0
  0
VERTEX
  5
633
  8
1
  6
CONTINUOUS
 62
     0
 10
-350.038195048897
 20
1054.788195048897
 30
0.0
  0
VERTEX
  5
634
  8
1
  6
CONTINUOUS
 62
     0
 10
-350.060663330714
 20
1054.810663330714
 30
0.0
  0
VERTEX
  5
635
  8
1
  6
CONTINUOUS
 62
     0
 10
-350.0833980710053
 20
1054.833398071005
 30
0.0
  0
VERTEX
  5
636
  8
1
  6
CONTINUOUS
 62
     0
 10
-350.1296630005492
 20
1054.879663000549
 30
0.0
  0
VERTEX
  5
637
  8
1
  6
CONTINUOUS
 62
     0
 10
-350.1769818705682
 20
1054.926981870568
 30
0.0
  0
VERTEX
  5
638
  8
1
  6
CONTINUOUS
 62
     0
 10
-350.2253465326104
 20
1054.97534653261
 30
0.0
  0
VERTEX
  5
639
  8
1
  6
CONTINUOUS
 62
     0
 10
-350.2747486581353
 20
1055.024748658135
 30
0.0
  0
VERTEX
  5
63A
  8
1
  6
CONTINUOUS
 62
     0
 10
-350.3251797399479
 20
1055.075179739948
 30
0.0
  0
VERTEX
  5
63B
  8
1
  6
CONTINUOUS
 62
     0
 10
-350.3507784324728
 20
1055.100778432473
 30
0.0
  0
VERTEX
  5
63C
  8
1
  6
CONTINUOUS
 62
     0
 10
-350.376631093664
 20
1055.126631093664
 30
0.0
  0
VERTEX
  5
63D
  8
1
  6
CONTINUOUS
 62
     0
 10
-350.4290938592054
 20
1055.179093859205
 30
0.0
  0
VERTEX
  5
63E
  8
1
  6
CONTINUOUS
 62
     0
 10
-350.4825590023258
 20
1055.232559002326
 30
0.0
  0
VERTEX
  5
63F
  8
1
  6
CONTINUOUS
 62
     0
 10
-350.5370173161664
 20
1055.287017316166
 30
0.0
  0
VERTEX
  5
640
  8
1
  6
CONTINUOUS
 62
     0
 10
-350.5924594228416
 20
1055.342459422841
 30
0.0
  0
VERTEX
  5
641
  8
1
  6
CONTINUOUS
 62
     0
 10
-350.6488757750533
 20
1055.398875775053
 30
0.0
  0
VERTEX
  5
642
  8
1
  6
CONTINUOUS
 62
     0
 10
-350.6774462637852
 20
1055.427446263785
 30
0.0
  0
VERTEX
  5
643
  8
1
  6
CONTINUOUS
 62
     0
 10
-350.7062566577358
 20
1055.456256657736
 30
0.0
  0
VERTEX
  5
644
  8
1
  6
CONTINUOUS
 62
     0
 10
-350.7645921897282
 20
1055.514592189728
 30
0.0
  0
VERTEX
  5
645
  8
1
  6
CONTINUOUS
 62
     0
 10
-350.823872325476
 20
1055.573872325476
 30
0.0
  0
VERTEX
  5
646
  8
1
  6
CONTINUOUS
 62
     0
 10
-350.8840868567612
 20
1055.634086856761
 30
0.0
  0
VERTEX
  5
647
  8
1
  6
CONTINUOUS
 62
     0
 10
-350.9452254144601
 20
1055.69522541446
 30
0.0
  0
VERTEX
  5
648
  8
1
  6
CONTINUOUS
 62
     0
 10
-351.0072774703288
 20
1055.757277470329
 30
0.0
  0
VERTEX
  5
649
  8
1
  6
CONTINUOUS
 62
     0
 10
-351.0386427269368
 20
1055.788642726937
 30
0.0
  0
VERTEX
  5
64A
  8
1
  6
CONTINUOUS
 62
     0
 10
-351.0702323388163
 20
1055.820232338816
 30
0.0
  0
VERTEX
  5
64B
  8
1
  6
CONTINUOUS
 62
     0
 10
-351.1340791789045
 20
1055.884079178904
 30
0.0
  0
VERTEX
  5
64C
  8
1
  6
CONTINUOUS
 62
     0
 10
-351.1988069959751
 20
1055.948806995975
 30
0.0
  0
VERTEX
  5
64D
  8
1
  6
CONTINUOUS
 62
     0
 10
-351.264404643703
 20
1056.014404643703
 30
0.0
  0
VERTEX
  5
64E
  8
1
  6
CONTINUOUS
 62
     0
 10
-351.3308608259756
 20
1056.080860825975
 30
0.0
  0
VERTEX
  5
64F
  8
1
  6
CONTINUOUS
 62
     0
 10
-351.3981640988379
 20
1056.148164098838
 30
0.0
  0
VERTEX
  5
650
  8
1
  6
CONTINUOUS
 62
     0
 10
-351.4321297780633
 20
1056.182129778063
 30
0.0
  0
VERTEX
  5
651
  8
1
  6
CONTINUOUS
 62
     0
 10
-351.4663028724637
 20
1056.216302872464
 30
0.0
  0
VERTEX
  5
652
  8
1
  6
CONTINUOUS
 62
     0
 10
-351.5352654131507
 20
1056.285265413151
 30
0.0
  0
VERTEX
  5
653
  8
1
  6
CONTINUOUS
 62
     0
 10
-351.6050398453417
 20
1056.355039845342
 30
0.0
  0
VERTEX
  5
654
  8
1
  6
CONTINUOUS
 62
     0
 10
-351.6402277713536
 20
1056.390227771354
 30
0.0
  0
VERTEX
  5
655
  8
1
  6
CONTINUOUS
 62
     0
 10
-351.8554692945075
 20
1056.605469294507
 30
0.0
  0
VERTEX
  5
656
  8
1
  6
CONTINUOUS
 62
     0
 10
-352.3060381819043
 20
1057.056038181904
 30
0.0
  0
VERTEX
  5
657
  8
1
  6
CONTINUOUS
 62
     0
 10
-352.781044627385
 20
1057.531044627385
 30
0.0
  0
VERTEX
  5
658
  8
1
  6
CONTINUOUS
 62
     0
 10
-353.277545398196
 20
1058.027545398196
 30
0.0
  0
VERTEX
  5
659
  8
1
  6
CONTINUOUS
 62
     0
 10
-353.7924640785442
 20
1058.542464078544
 30
0.0
  0
VERTEX
  5
65A
  8
1
  6
CONTINUOUS
 62
     0
 10
-354.3226101316699
 20
1059.07261013167
 30
0.0
  0
VERTEX
  5
65B
  8
1
  6
CONTINUOUS
 62
     0
 10
-354.5923700278697
 20
1059.34237002787
 30
0.0
  0
VERTEX
  5
65C
  8
1
  6
CONTINUOUS
 62
     0
 10
-354.864698669036
 20
1059.614698669036
 30
0.0
  0
VERTEX
  5
65D
  8
1
  6
CONTINUOUS
 62
     0
 10
-355.4153708041397
 20
1060.16537080414
 30
0.0
  0
VERTEX
  5
65E
  8
1
  6
CONTINUOUS
 62
     0
 10
-355.9712144648295
 20
1060.72121446483
 30
0.0
  0
VERTEX
  5
65F
  8
1
  6
CONTINUOUS
 62
     0
 10
-356.25
 20
1061.0
 30
0.0
  0
SEQEND
  5
612
  8
1
  6
CONTINUOUS
 62
     0
  0
CIRCLE
  5
8E
  8
1
  6
CONTINUOUS
 62
     0
 10
370.25
 20
925.0
 30
0.0
 40
6.600000000000023
  0
CIRCLE
  5
8F
  8
1
  6
CONTINUOUS
 62
     0
 10
-370.25
 20
-925.0
 30
0.0
 40
6.600000000000023
  0
CIRCLE
  5
90
  8
1
  6
CONTINUOUS
 62
     0
 10
370.25
 20
-925.0
 30
0.0
 40
6.600000000000023
  0
CIRCLE
  5
91
  8
1
  6
CONTINUOUS
 62
     0
 10
-370.25
 20
0.0
 30
0.0
 40
6.600000000000023
  0
CIRCLE
  5
92
  8
1
  6
CONTINUOUS
 62
     0
 10
370.25
 20
0.0
 30
0.0
 40
6.600000000000023
  0
CIRCLE
  5
93
  8
1
  6
CONTINUOUS
 62
     0
 10
-370.25
 20
925.0
 30
0.0
 40
6.600000000000023
  0
CIRCLE
  5
94
  8
1
  6
CONTINUOUS
 62
     0
 10
370.25
 20
925.0
 30
0.0
 40
5.600000000000023
  0
CIRCLE
  5
95
  8
2
  6
DASHED
 62
     0
 10
370.25
 20
925.0
 30
0.0
 40
5.900000000000091
  0
CIRCLE
  5
96
  8
1
  6
CONTINUOUS
 62
     0
 10
370.25
 20
925.0
 30
0.0
 40
4.5
  0
CIRCLE
  5
97
  8
1
  6
CONTINUOUS
 62
     0
 10
-370.25
 20
-925.0
 30
0.0
 40
5.600000000000023
  0
CIRCLE
  5
98
  8
2
  6
DASHED
 62
     0
 10
-370.25
 20
-925.0
 30
0.0
 40
5.900000000000091
  0
CIRCLE
  5
99
  8
1
  6
CONTINUOUS
 62
     0
 10
-370.25
 20
-925.0
 30
0.0
 40
4.5
  0
CIRCLE
  5
9A
  8
1
  6
CONTINUOUS
 62
     0
 10
370.25
 20
-925.0
 30
0.0
 40
5.600000000000023
  0
CIRCLE
  5
9B
  8
2
  6
DASHED
 62
     0
 10
370.25
 20
-925.0
 30
0.0
 40
5.900000000000091
  0
CIRCLE
  5
9C
  8
1
  6
CONTINUOUS
 62
     0
 10
370.25
 20
-925.0
 30
0.0
 40
4.5
  0
CIRCLE
  5
9D
  8
1
  6
CONTINUOUS
 62
     0
 10
-370.25
 20
0.0
 30
0.0
 40
5.600000000000023
  0
CIRCLE
  5
9E
  8
2
  6
DASHED
 62
     0
 10
-370.25
 20
0.0
 30
0.0
 40
5.899999999999977
  0
CIRCLE
  5
9F
  8
1
  6
CONTINUOUS
 62
     0
 10
-370.25
 20
0.0
 30
0.0
 40
4.5
  0
CIRCLE
  5
A0
  8
1
  6
CONTINUOUS
 62
     0
 10
370.25
 20
0.0
 30
0.0
 40
5.600000000000023
  0
CIRCLE
  5
A1
  8
2
  6
DASHED
 62
     0
 10
370.25
 20
0.0
 30
0.0
 40
5.899999999999977
  0
CIRCLE
  5
A2
  8
1
  6
CONTINUOUS
 62
     0
 10
370.25
 20
0.0
 30
0.0
 40
4.5
  0
CIRCLE
  5
A3
  8
1
  6
CONTINUOUS
 62
     0
 10
-370.25
 20
925.0
 30
0.0
 40
5.600000000000023
  0
CIRCLE
  5
A4
  8
2
  6
DASHED
 62
     0
 10
-370.25
 20
925.0
 30
0.0
 40
5.900000000000091
  0
CIRCLE
  5
A5
  8
1
  6
CONTINUOUS
 62
     0
 10
-370.25
 20
925.0
 30
0.0
 40
4.5
  0
CIRCLE
  5
A6
  8
1
  6
CONTINUOUS
 62
     0
 10
-312.75
 20
1012.5
 30
0.0
 40
3.600000000000023
  0
CIRCLE
  5
A7
  8
1
  6
CONTINUOUS
 62
     0
 10
-312.75
 20
1012.5
 30
0.0
 40
6.5
  0
CIRCLE
  5
A8
  8
1
  6
CONTINUOUS
 62
     0
 10
-312.75
 20
1012.5
 30
0.0
 40
6.800000000000011
  0
CIRCLE
  5
A9
  8
1
  6
CONTINUOUS
 62
     0
 10
-312.75
 20
1012.5
 30
0.0
 40
7.0
  0
CIRCLE
  5
AA
  8
2
  6
DASHED
 62
     0
 10
-312.75
 20
1012.5
 30
0.0
 40
6.839223227027674
  0
CIRCLE
  5
AB
  8
2
  6
DASHED
 62
     0
 10
-312.75
 20
1012.5
 30
0.0
 40
5.0
  0
CIRCLE
  5
AC
  8
1
  6
CONTINUOUS
 62
     0
 10
312.75
 20
1012.5
 30
0.0
 40
3.600000000000023
  0
CIRCLE
  5
AD
  8
1
  6
CONTINUOUS
 62
     0
 10
312.75
 20
1012.5
 30
0.0
 40
6.5
  0
CIRCLE
  5
AE
  8
1
  6
CONTINUOUS
 62
     0
 10
312.75
 20
1012.5
 30
0.0
 40
6.800000000000011
  0
CIRCLE
  5
AF
  8
1
  6
CONTINUOUS
 62
     0
 10
312.75
 20
1012.5
 30
0.0
 40
7.0
  0
CIRCLE
  5
B0
  8
2
  6
DASHED
 62
     0
 10
312.75
 20
1012.5
 30
0.0
 40
6.839223227027674
  0
CIRCLE
  5
B1
  8
2
  6
DASHED
 62
     0
 10
312.75
 20
1012.5
 30
0.0
 40
5.0
  0
POLYLINE
  5
B2
  8
1
  6
CONTINUOUS
 62
     0
 66
     1
 10
0.0
 20
0.0
 30
0.0
  0
VERTEX
  5
661
  8
1
  6
CONTINUOUS
 62
     0
 10
-313.0659670332158
 20
1018.091079040214
 30
0.0
  0
VERTEX
  5
662
  8
1
  6
CONTINUOUS
 62
     0
 10
-313.2005854405521
 20
1018.013357066501
 30
0.0
  0
VERTEX
  5
663
  8
1
  6
CONTINUOUS
 62
     0
 10
-313.4627389797184
 20
1017.862002650094
 30
0.0
  0
VERTEX
  5
664
  8
1
  6
CONTINUOUS
 62
     0
 10
-313.7166555228698
 20
1017.715403865554
 30
0.0
  0
VERTEX
  5
665
  8
1
  6
CONTINUOUS
 62
     0
 10
-313.8409464730426
 20
1017.643644452014
 30
0.0
  0
VERTEX
  5
666
  8
1
  6
CONTINUOUS
 62
     0
 10
-313.9636696786743
 20
1017.572790176206
 30
0.0
  0
VERTEX
  5
667
  8
1
  6
CONTINUOUS
 62
     0
 10
-314.205008149864
 20
1017.433453344899
 30
0.0
  0
VERTEX
  5
668
  8
1
  6
CONTINUOUS
 62
     0
 10
-314.4418115893839
 20
1017.296734815348
 30
0.0
  0
VERTEX
  5
669
  8
1
  6
CONTINUOUS
 62
     0
 10
-314.6751536321853
 20
1017.162014724123
 30
0.0
  0
VERTEX
  5
66A
  8
1
  6
CONTINUOUS
 62
     0
 10
-314.9060578005065
 20
1017.028702140386
 30
0.0
  0
VERTEX
  5
66B
  8
1
  6
CONTINUOUS
 62
     0
 10
-315.1355128621292
 20
1016.896226198791
 30
0.0
  0
VERTEX
  5
66C
  8
1
  6
CONTINUOUS
 62
     0
 10
-315.2500000000001
 20
1016.830127018922
 30
0.0
  0
VERTEX
  5
66D
  8
1
  6
CONTINUOUS
 62
     0
 10
-315.364487137871
 20
1016.764027839054
 30
0.0
  0
VERTEX
  5
66E
  8
1
  6
CONTINUOUS
 62
     0
 10
-315.5939421994937
 20
1016.631551897459
 30
0.0
  0
VERTEX
  5
66F
  8
1
  6
CONTINUOUS
 62
     0
 10
-315.8248463678149
 20
1016.498239313722
 30
0.0
  0
VERTEX
  5
670
  8
1
  6
CONTINUOUS
 62
     0
 10
-316.0581884106163
 20
1016.363519222497
 30
0.0
  0
VERTEX
  5
671
  8
1
  6
CONTINUOUS
 62
     0
 10
-316.2949918501359
 20
1016.226800692945
 30
0.0
  0
VERTEX
  5
672
  8
1
  6
CONTINUOUS
 62
     0
 10
-316.5363303213258
 20
1016.087463861638
 30
0.0
  0
VERTEX
  5
673
  8
1
  6
CONTINUOUS
 62
     0
 10
-316.6590535269577
 20
1016.016609585831
 30
0.0
  0
VERTEX
  5
674
  8
1
  6
CONTINUOUS
 62
     0
 10
-316.7833444771303
 20
1015.944850172291
 30
0.0
  0
VERTEX
  5
675
  8
1
  6
CONTINUOUS
 62
     0
 10
-317.0372610202817
 20
1015.79825138775
 30
0.0
  0
VERTEX
  5
676
  8
1
  6
CONTINUOUS
 62
     0
 10
-317.2994145594481
 20
1015.646896971344
 30
0.0
  0
VERTEX
  5
677
  8
1
  6
CONTINUOUS
 62
     0
 10
-317.4340329667843
 20
1015.56917499763
 30
0.0
  0
SEQEND
  5
660
  8
1
  6
CONTINUOUS
 62
     0
  0
POLYLINE
  5
B3
  8
1
  6
CONTINUOUS
 62
     0
 66
     1
 10
0.0
 20
0.0
 30
0.0
  0
VERTEX
  5
679
  8
1
  6
CONTINUOUS
 62
     0
 10
-308.0659670332157
 20
1015.56917499763
 30
0.0
  0
VERTEX
  5
67A
  8
1
  6
CONTINUOUS
 62
     0
 10
-308.200585440552
 20
1015.646896971344
 30
0.0
  0
VERTEX
  5
67B
  8
1
  6
CONTINUOUS
 62
     0
 10
-308.4627389797183
 20
1015.798251387751
 30
0.0
  0
VERTEX
  5
67C
  8
1
  6
CONTINUOUS
 62
     0
 10
-308.7166555228697
 20
1015.944850172291
 30
0.0
  0
VERTEX
  5
67D
  8
1
  6
CONTINUOUS
 62
     0
 10
-308.8409464730424
 20
1016.016609585831
 30
0.0
  0
VERTEX
  5
67E
  8
1
  6
CONTINUOUS
 62
     0
 10
-308.9636696786743
 20
1016.087463861638
 30
0.0
  0
VERTEX
  5
67F
  8
1
  6
CONTINUOUS
 62
     0
 10
-309.2050081498639
 20
1016.226800692945
 30
0.0
  0
VERTEX
  5
680
  8
1
  6
CONTINUOUS
 62
     0
 10
-309.4418115893838
 20
1016.363519222497
 30
0.0
  0
VERTEX
  5
681
  8
1
  6
CONTINUOUS
 62
     0
 10
-309.6751536321852
 20
1016.498239313722
 30
0.0
  0
VERTEX
  5
682
  8
1
  6
CONTINUOUS
 62
     0
 10
-309.9060578005064
 20
1016.631551897459
 30
0.0
  0
VERTEX
  5
683
  8
1
  6
CONTINUOUS
 62
     0
 10
-310.1355128621291
 20
1016.764027839054
 30
0.0
  0
VERTEX
  5
684
  8
1
  6
CONTINUOUS
 62
     0
 10
-310.25
 20
1016.830127018922
 30
0.0
  0
VERTEX
  5
685
  8
1
  6
CONTINUOUS
 62
     0
 10
-310.3644871378709
 20
1016.896226198791
 30
0.0
  0
VERTEX
  5
686
  8
1
  6
CONTINUOUS
 62
     0
 10
-310.5939421994935
 20
1017.028702140386
 30
0.0
  0
VERTEX
  5
687
  8
1
  6
CONTINUOUS
 62
     0
 10
-310.8248463678148
 20
1017.162014724123
 30
0.0
  0
VERTEX
  5
688
  8
1
  6
CONTINUOUS
 62
     0
 10
-311.0581884106162
 20
1017.296734815348
 30
0.0
  0
VERTEX
  5
689
  8
1
  6
CONTINUOUS
 62
     0
 10
-311.2949918501359
 20
1017.433453344899
 30
0.0
  0
VERTEX
  5
68A
  8
1
  6
CONTINUOUS
 62
     0
 10
-311.5363303213257
 20
1017.572790176206
 30
0.0
  0
VERTEX
  5
68B
  8
1
  6
CONTINUOUS
 62
     0
 10
-311.6590535269576
 20
1017.643644452014
 30
0.0
  0
VERTEX
  5
68C
  8
1
  6
CONTINUOUS
 62
     0
 10
-311.7833444771302
 20
1017.715403865554
 30
0.0
  0
VERTEX
  5
68D
  8
1
  6
CONTINUOUS
 62
     0
 10
-312.0372610202816
 20
1017.862002650094
 30
0.0
  0
VERTEX
  5
68E
  8
1
  6
CONTINUOUS
 62
     0
 10
-312.2994145594479
 20
1018.013357066501
 30
0.0
  0
VERTEX
  5
68F
  8
1
  6
CONTINUOUS
 62
     0
 10
-312.4340329667842
 20
1018.091079040214
 30
0.0
  0
SEQEND
  5
678
  8
1
  6
CONTINUOUS
 62
     0
  0
POLYLINE
  5
B4
  8
1
  6
CONTINUOUS
 62
     0
 66
     1
 10
0.0
 20
0.0
 30
0.0
  0
VERTEX
  5
691
  8
1
  6
CONTINUOUS
 62
     0
 10
-312.4340329667842
 20
1006.908920959786
 30
0.0
  0
VERTEX
  5
692
  8
1
  6
CONTINUOUS
 62
     0
 10
-312.2994145594479
 20
1006.9866429335
 30
0.0
  0
VERTEX
  5
693
  8
1
  6
CONTINUOUS
 62
     0
 10
-312.0372610202817
 20
1007.137997349906
 30
0.0
  0
VERTEX
  5
694
  8
1
  6
CONTINUOUS
 62
     0
 10
-311.7833444771302
 20
1007.284596134446
 30
0.0
  0
VERTEX
  5
695
  8
1
  6
CONTINUOUS
 62
     0
 10
-311.6590535269576
 20
1007.356355547987
 30
0.0
  0
VERTEX
  5
696
  8
1
  6
CONTINUOUS
 62
     0
 10
-311.5363303213257
 20
1007.427209823794
 30
0.0
  0
VERTEX
  5
697
  8
1
  6
CONTINUOUS
 62
     0
 10
-311.2949918501359
 20
1007.566546655101
 30
0.0
  0
VERTEX
  5
698
  8
1
  6
CONTINUOUS
 62
     0
 10
-311.0581884106162
 20
1007.703265184653
 30
0.0
  0
VERTEX
  5
699
  8
1
  6
CONTINUOUS
 62
     0
 10
-310.8248463678148
 20
1007.837985275878
 30
0.0
  0
VERTEX
  5
69A
  8
1
  6
CONTINUOUS
 62
     0
 10
-310.5939421994935
 20
1007.971297859615
 30
0.0
  0
VERTEX
  5
69B
  8
1
  6
CONTINUOUS
 62
     0
 10
-310.3644871378709
 20
1008.10377380121
 30
0.0
  0
VERTEX
  5
69C
  8
1
  6
CONTINUOUS
 62
     0
 10
-310.25
 20
1008.169872981078
 30
0.0
  0
VERTEX
  5
69D
  8
1
  6
CONTINUOUS
 62
     0
 10
-310.1355128621291
 20
1008.235972160946
 30
0.0
  0
VERTEX
  5
69E
  8
1
  6
CONTINUOUS
 62
     0
 10
-309.9060578005064
 20
1008.368448102541
 30
0.0
  0
VERTEX
  5
69F
  8
1
  6
CONTINUOUS
 62
     0
 10
-309.6751536321852
 20
1008.501760686278
 30
0.0
  0
VERTEX
  5
6A0
  8
1
  6
CONTINUOUS
 62
     0
 10
-309.4418115893838
 20
1008.636480777503
 30
0.0
  0
VERTEX
  5
6A1
  8
1
  6
CONTINUOUS
 62
     0
 10
-309.2050081498639
 20
1008.773199307055
 30
0.0
  0
VERTEX
  5
6A2
  8
1
  6
CONTINUOUS
 62
     0
 10
-308.9636696786743
 20
1008.912536138362
 30
0.0
  0
VERTEX
  5
6A3
  8
1
  6
CONTINUOUS
 62
     0
 10
-308.8409464730424
 20
1008.98339041417
 30
0.0
  0
VERTEX
  5
6A4
  8
1
  6
CONTINUOUS
 62
     0
 10
-308.7166555228696
 20
1009.055149827709
 30
0.0
  0
VERTEX
  5
6A5
  8
1
  6
CONTINUOUS
 62
     0
 10
-308.4627389797182
 20
1009.201748612249
 30
0.0
  0
VERTEX
  5
6A6
  8
1
  6
CONTINUOUS
 62
     0
 10
-308.200585440552
 20
1009.353103028656
 30
0.0
  0
VERTEX
  5
6A7
  8
1
  6
CONTINUOUS
 62
     0
 10
-308.0659670332157
 20
1009.43082500237
 30
0.0
  0
SEQEND
  5
690
  8
1
  6
CONTINUOUS
 62
     0
  0
POLYLINE
  5
B5
  8
1
  6
CONTINUOUS
 62
     0
 66
     1
 10
0.0
 20
0.0
 30
0.0
  0
VERTEX
  5
6A9
  8
1
  6
CONTINUOUS
 62
     0
 10
-317.4340329667843
 20
1009.43082500237
 30
0.0
  0
VERTEX
  5
6AA
  8
1
  6
CONTINUOUS
 62
     0
 10
-317.2994145594481
 20
1009.353103028656
 30
0.0
  0
VERTEX
  5
6AB
  8
1
  6
CONTINUOUS
 62
     0
 10
-317.0372610202817
 20
1009.20174861225
 30
0.0
  0
VERTEX
  5
6AC
  8
1
  6
CONTINUOUS
 62
     0
 10
-316.7833444771303
 20
1009.055149827709
 30
0.0
  0
VERTEX
  5
6AD
  8
1
  6
CONTINUOUS
 62
     0
 10
-316.6590535269577
 20
1008.98339041417
 30
0.0
  0
VERTEX
  5
6AE
  8
1
  6
CONTINUOUS
 62
     0
 10
-316.5363303213258
 20
1008.912536138362
 30
0.0
  0
VERTEX
  5
6AF
  8
1
  6
CONTINUOUS
 62
     0
 10
-316.294991850136
 20
1008.773199307055
 30
0.0
  0
VERTEX
  5
6B0
  8
1
  6
CONTINUOUS
 62
     0
 10
-316.0581884106163
 20
1008.636480777503
 30
0.0
  0
VERTEX
  5
6B1
  8
1
  6
CONTINUOUS
 62
     0
 10
-315.8248463678149
 20
1008.501760686278
 30
0.0
  0
VERTEX
  5
6B2
  8
1
  6
CONTINUOUS
 62
     0
 10
-315.5939421994937
 20
1008.368448102541
 30
0.0
  0
VERTEX
  5
6B3
  8
1
  6
CONTINUOUS
 62
     0
 10
-315.364487137871
 20
1008.235972160946
 30
0.0
  0
VERTEX
  5
6B4
  8
1
  6
CONTINUOUS
 62
     0
 10
-315.2500000000001
 20
1008.169872981078
 30
0.0
  0
VERTEX
  5
6B5
  8
1
  6
CONTINUOUS
 62
     0
 10
-315.1355128621292
 20
1008.10377380121
 30
0.0
  0
VERTEX
  5
6B6
  8
1
  6
CONTINUOUS
 62
     0
 10
-314.9060578005065
 20
1007.971297859615
 30
0.0
  0
VERTEX
  5
6B7
  8
1
  6
CONTINUOUS
 62
     0
 10
-314.6751536321853
 20
1007.837985275878
 30
0.0
  0
VERTEX
  5
6B8
  8
1
  6
CONTINUOUS
 62
     0
 10
-314.4418115893839
 20
1007.703265184653
 30
0.0
  0
VERTEX
  5
6B9
  8
1
  6
CONTINUOUS
 62
     0
 10
-314.2050081498639
 20
1007.566546655101
 30
0.0
  0
VERTEX
  5
6BA
  8
1
  6
CONTINUOUS
 62
     0
 10
-313.9636696786743
 20
1007.427209823794
 30
0.0
  0
VERTEX
  5
6BB
  8
1
  6
CONTINUOUS
 62
     0
 10
-313.8409464730426
 20
1007.356355547987
 30
0.0
  0
VERTEX
  5
6BC
  8
1
  6
CONTINUOUS
 62
     0
 10
-313.7166555228698
 20
1007.284596134446
 30
0.0
  0
VERTEX
  5
6BD
  8
1
  6
CONTINUOUS
 62
     0
 10
-313.4627389797183
 20
1007.137997349906
 30
0.0
  0
VERTEX
  5
6BE
  8
1
  6
CONTINUOUS
 62
     0
 10
-313.2005854405521
 20
1006.9866429335
 30
0.0
  0
VERTEX
  5
6BF
  8
1
  6
CONTINUOUS
 62
     0
 10
-313.0659670332158
 20
1006.908920959786
 30
0.0
  0
SEQEND
  5
6A8
  8
1
  6
CONTINUOUS
 62
     0
  0
POLYLINE
  5
B6
  8
1
  6
CONTINUOUS
 62
     0
 66
     1
 10
0.0
 20
0.0
 30
0.0
  0
VERTEX
  5
6C1
  8
1
  6
CONTINUOUS
 62
     0
 10
-317.75
 20
1015.021904042584
 30
0.0
  0
VERTEX
  5
6C2
  8
1
  6
CONTINUOUS
 62
     0
 10
-317.7499999999999
 20
1014.866460095157
 30
0.0
  0
VERTEX
  5
6C3
  8
1
  6
CONTINUOUS
 62
     0
 10
-317.7499999999999
 20
1014.563751262343
 30
0.0
  0
VERTEX
  5
6C4
  8
1
  6
CONTINUOUS
 62
     0
 10
-317.7499999999999
 20
1014.270553693263
 30
0.0
  0
VERTEX
  5
6C5
  8
1
  6
CONTINUOUS
 62
     0
 10
-317.75
 20
1014.127034866183
 30
0.0
  0
VERTEX
  5
6C6
  8
1
  6
CONTINUOUS
 62
     0
 10
-317.75
 20
1013.985326314568
 30
0.0
  0
VERTEX
  5
6C7
  8
1
  6
CONTINUOUS
 62
     0
 10
-317.7500000000001
 20
1013.706652651954
 30
0.0
  0
VERTEX
  5
6C8
  8
1
  6
CONTINUOUS
 62
     0
 10
-317.7499999999999
 20
1013.43321559285
 30
0.0
  0
VERTEX
  5
6C9
  8
1
  6
CONTINUOUS
 62
     0
 10
-317.75
 20
1013.163775410401
 30
0.0
  0
VERTEX
  5
6CA
  8
1
  6
CONTINUOUS
 62
     0
 10
-317.7499999999999
 20
1012.897150242926
 30
0.0
  0
VERTEX
  5
6CB
  8
1
  6
CONTINUOUS
 62
     0
 10
-317.75
 20
1012.632198359737
 30
0.0
  0
VERTEX
  5
6CC
  8
1
  6
CONTINUOUS
 62
     0
 10
-317.75
 20
1012.5
 30
0.0
  0
VERTEX
  5
6CD
  8
1
  6
CONTINUOUS
 62
     0
 10
-317.75
 20
1012.367801640263
 30
0.0
  0
VERTEX
  5
6CE
  8
1
  6
CONTINUOUS
 62
     0
 10
-317.7499999999999
 20
1012.102849757073
 30
0.0
  0
VERTEX
  5
6CF
  8
1
  6
CONTINUOUS
 62
     0
 10
-317.75
 20
1011.836224589599
 30
0.0
  0
VERTEX
  5
6D0
  8
1
  6
CONTINUOUS
 62
     0
 10
-317.7499999999999
 20
1011.566784407149
 30
0.0
  0
VERTEX
  5
6D1
  8
1
  6
CONTINUOUS
 62
     0
 10
-317.7500000000001
 20
1011.293347348046
 30
0.0
  0
VERTEX
  5
6D2
  8
1
  6
CONTINUOUS
 62
     0
 10
-317.75
 20
1011.014673685432
 30
0.0
  0
VERTEX
  5
6D3
  8
1
  6
CONTINUOUS
 62
     0
 10
-317.7500000000001
 20
1010.872965133817
 30
0.0
  0
VERTEX
  5
6D4
  8
1
  6
CONTINUOUS
 62
     0
 10
-317.7499999999999
 20
1010.729446306737
 30
0.0
  0
VERTEX
  5
6D5
  8
1
  6
CONTINUOUS
 62
     0
 10
-317.7499999999999
 20
1010.436248737657
 30
0.0
  0
VERTEX
  5
6D6
  8
1
  6
CONTINUOUS
 62
     0
 10
-317.7499999999999
 20
1010.133539904843
 30
0.0
  0
VERTEX
  5
6D7
  8
1
  6
CONTINUOUS
 62
     0
 10
-317.75
 20
1009.978095957416
 30
0.0
  0
SEQEND
  5
6C0
  8
1
  6
CONTINUOUS
 62
     0
  0
LINE
  5
B7
  8
2
  6
DASHED
 62
     0
 10
-317.75
 20
1015.021904042584
 30
0.0
 11
-317.75
 21
1009.978095957416
 31
0.0
  0
LINE
  5
B8
  8
2
  6
DASHED
 62
     0
 10
-317.4340329667842
 20
1009.43082500237
 30
0.0
 11
-313.0659670332158
 21
1006.908920959786
 31
0.0
  0
LINE
  5
B9
  8
2
  6
DASHED
 62
     0
 10
-312.4340329667842
 20
1006.908920959786
 30
0.0
 11
-308.0659670332158
 21
1009.43082500237
 31
0.0
  0
LINE
  5
BA
  8
2
  6
DASHED
 62
     0
 10
-308.0659670332158
 20
1015.56917499763
 30
0.0
 11
-312.4340329667842
 21
1018.091079040214
 31
0.0
  0
LINE
  5
BB
  8
2
  6
DASHED
 62
     0
 10
-313.0659670332158
 20
1018.091079040214
 30
0.0
 11
-317.4340329667842
 21
1015.56917499763
 31
0.0
  0
POLYLINE
  5
BC
  8
1
  6
CONTINUOUS
 62
     0
 66
     1
 10
0.0
 20
0.0
 30
0.0
  0
VERTEX
  5
6D9
  8
1
  6
CONTINUOUS
 62
     0
 10
-307.75
 20
1009.978095957416
 30
0.0
  0
VERTEX
  5
6DA
  8
1
  6
CONTINUOUS
 62
     0
 10
-307.75
 20
1010.133539904843
 30
0.0
  0
VERTEX
  5
6DB
  8
1
  6
CONTINUOUS
 62
     0
 10
-307.75
 20
1010.436248737657
 30
0.0
  0
VERTEX
  5
6DC
  8
1
  6
CONTINUOUS
 62
     0
 10
-307.7499999999999
 20
1010.729446306737
 30
0.0
  0
VERTEX
  5
6DD
  8
1
  6
CONTINUOUS
 62
     0
 10
-307.7499999999999
 20
1010.872965133817
 30
0.0
  0
VERTEX
  5
6DE
  8
1
  6
CONTINUOUS
 62
     0
 10
-307.75
 20
1011.014673685432
 30
0.0
  0
VERTEX
  5
6DF
  8
1
  6
CONTINUOUS
 62
     0
 10
-307.7500000000001
 20
1011.293347348046
 30
0.0
  0
VERTEX
  5
6E0
  8
1
  6
CONTINUOUS
 62
     0
 10
-307.7499999999999
 20
1011.566784407149
 30
0.0
  0
VERTEX
  5
6E1
  8
1
  6
CONTINUOUS
 62
     0
 10
-307.75
 20
1011.836224589599
 30
0.0
  0
VERTEX
  5
6E2
  8
1
  6
CONTINUOUS
 62
     0
 10
-307.75
 20
1012.102849757073
 30
0.0
  0
VERTEX
  5
6E3
  8
1
  6
CONTINUOUS
 62
     0
 10
-307.7499999999999
 20
1012.367801640263
 30
0.0
  0
VERTEX
  5
6E4
  8
1
  6
CONTINUOUS
 62
     0
 10
-307.7500000000001
 20
1012.5
 30
0.0
  0
VERTEX
  5
6E5
  8
1
  6
CONTINUOUS
 62
     0
 10
-307.7499999999999
 20
1012.632198359737
 30
0.0
  0
VERTEX
  5
6E6
  8
1
  6
CONTINUOUS
 62
     0
 10
-307.75
 20
1012.897150242926
 30
0.0
  0
VERTEX
  5
6E7
  8
1
  6
CONTINUOUS
 62
     0
 10
-307.75
 20
1013.163775410401
 30
0.0
  0
VERTEX
  5
6E8
  8
1
  6
CONTINUOUS
 62
     0
 10
-307.7499999999999
 20
1013.43321559285
 30
0.0
  0
VERTEX
  5
6E9
  8
1
  6
CONTINUOUS
 62
     0
 10
-307.7500000000001
 20
1013.706652651954
 30
0.0
  0
VERTEX
  5
6EA
  8
1
  6
CONTINUOUS
 62
     0
 10
-307.75
 20
1013.985326314568
 30
0.0
  0
VERTEX
  5
6EB
  8
1
  6
CONTINUOUS
 62
     0
 10
-307.75
 20
1014.127034866183
 30
0.0
  0
VERTEX
  5
6EC
  8
1
  6
CONTINUOUS
 62
     0
 10
-307.7499999999999
 20
1014.270553693263
 30
0.0
  0
VERTEX
  5
6ED
  8
1
  6
CONTINUOUS
 62
     0
 10
-307.7499999999999
 20
1014.563751262343
 30
0.0
  0
VERTEX
  5
6EE
  8
1
  6
CONTINUOUS
 62
     0
 10
-307.75
 20
1014.866460095157
 30
0.0
  0
VERTEX
  5
6EF
  8
1
  6
CONTINUOUS
 62
     0
 10
-307.75
 20
1015.021904042584
 30
0.0
  0
SEQEND
  5
6D8
  8
1
  6
CONTINUOUS
 62
     0
  0
LINE
  5
BD
  8
2
  6
DASHED
 62
     0
 10
-307.75
 20
1009.978095957416
 30
0.0
 11
-307.75
 21
1015.021904042584
 31
0.0
  0
POLYLINE
  5
BE
  8
1
  6
CONTINUOUS
 62
     0
 66
     1
 10
0.0
 20
0.0
 30
0.0
  0
VERTEX
  5
6F1
  8
1
  6
CONTINUOUS
 62
     0
 10
312.4340329667842
 20
1018.091079040214
 30
0.0
  0
VERTEX
  5
6F2
  8
1
  6
CONTINUOUS
 62
     0
 10
312.2994145594479
 20
1018.013357066501
 30
0.0
  0
VERTEX
  5
6F3
  8
1
  6
CONTINUOUS
 62
     0
 10
312.0372610202817
 20
1017.862002650094
 30
0.0
  0
VERTEX
  5
6F4
  8
1
  6
CONTINUOUS
 62
     0
 10
311.7833444771302
 20
1017.715403865554
 30
0.0
  0
VERTEX
  5
6F5
  8
1
  6
CONTINUOUS
 62
     0
 10
311.6590535269576
 20
1017.643644452014
 30
0.0
  0
VERTEX
  5
6F6
  8
1
  6
CONTINUOUS
 62
     0
 10
311.5363303213257
 20
1017.572790176206
 30
0.0
  0
VERTEX
  5
6F7
  8
1
  6
CONTINUOUS
 62
     0
 10
311.2949918501359
 20
1017.433453344899
 30
0.0
  0
VERTEX
  5
6F8
  8
1
  6
CONTINUOUS
 62
     0
 10
311.0581884106162
 20
1017.296734815348
 30
0.0
  0
VERTEX
  5
6F9
  8
1
  6
CONTINUOUS
 62
     0
 10
310.8248463678148
 20
1017.162014724123
 30
0.0
  0
VERTEX
  5
6FA
  8
1
  6
CONTINUOUS
 62
     0
 10
310.5939421994935
 20
1017.028702140386
 30
0.0
  0
VERTEX
  5
6FB
  8
1
  6
CONTINUOUS
 62
     0
 10
310.3644871378709
 20
1016.896226198791
 30
0.0
  0
VERTEX
  5
6FC
  8
1
  6
CONTINUOUS
 62
     0
 10
310.25
 20
1016.830127018922
 30
0.0
  0
VERTEX
  5
6FD
  8
1
  6
CONTINUOUS
 62
     0
 10
310.1355128621291
 20
1016.764027839054
 30
0.0
  0
VERTEX
  5
6FE
  8
1
  6
CONTINUOUS
 62
     0
 10
309.9060578005064
 20
1016.631551897459
 30
0.0
  0
VERTEX
  5
6FF
  8
1
  6
CONTINUOUS
 62
     0
 10
309.6751536321852
 20
1016.498239313722
 30
0.0
  0
VERTEX
  5
700
  8
1
  6
CONTINUOUS
 62
     0
 10
309.4418115893838
 20
1016.363519222497
 30
0.0
  0
VERTEX
  5
701
  8
1
  6
CONTINUOUS
 62
     0
 10
309.2050081498639
 20
1016.226800692945
 30
0.0
  0
VERTEX
  5
702
  8
1
  6
CONTINUOUS
 62
     0
 10
308.9636696786743
 20
1016.087463861638
 30
0.0
  0
VERTEX
  5
703
  8
1
  6
CONTINUOUS
 62
     0
 10
308.8409464730424
 20
1016.016609585831
 30
0.0
  0
VERTEX
  5
704
  8
1
  6
CONTINUOUS
 62
     0
 10
308.7166555228696
 20
1015.944850172291
 30
0.0
  0
VERTEX
  5
705
  8
1
  6
CONTINUOUS
 62
     0
 10
308.4627389797182
 20
1015.79825138775
 30
0.0
  0
VERTEX
  5
706
  8
1
  6
CONTINUOUS
 62
     0
 10
308.200585440552
 20
1015.646896971344
 30
0.0
  0
VERTEX
  5
707
  8
1
  6
CONTINUOUS
 62
     0
 10
308.0659670332157
 20
1015.56917499763
 30
0.0
  0
SEQEND
  5
6F0
  8
1
  6
CONTINUOUS
 62
     0
  0
POLYLINE
  5
BF
  8
1
  6
CONTINUOUS
 62
     0
 66
     1
 10
0.0
 20
0.0
 30
0.0
  0
VERTEX
  5
709
  8
1
  6
CONTINUOUS
 62
     0
 10
317.4340329667843
 20
1015.56917499763
 30
0.0
  0
VERTEX
  5
70A
  8
1
  6
CONTINUOUS
 62
     0
 10
317.2994145594481
 20
1015.646896971344
 30
0.0
  0
VERTEX
  5
70B
  8
1
  6
CONTINUOUS
 62
     0
 10
317.0372610202817
 20
1015.798251387751
 30
0.0
  0
VERTEX
  5
70C
  8
1
  6
CONTINUOUS
 62
     0
 10
316.7833444771303
 20
1015.944850172291
 30
0.0
  0
VERTEX
  5
70D
  8
1
  6
CONTINUOUS
 62
     0
 10
316.6590535269577
 20
1016.016609585831
 30
0.0
  0
VERTEX
  5
70E
  8
1
  6
CONTINUOUS
 62
     0
 10
316.5363303213258
 20
1016.087463861638
 30
0.0
  0
VERTEX
  5
70F
  8
1
  6
CONTINUOUS
 62
     0
 10
316.294991850136
 20
1016.226800692945
 30
0.0
  0
VERTEX
  5
710
  8
1
  6
CONTINUOUS
 62
     0
 10
316.0581884106163
 20
1016.363519222497
 30
0.0
  0
VERTEX
  5
711
  8
1
  6
CONTINUOUS
 62
     0
 10
315.8248463678149
 20
1016.498239313722
 30
0.0
  0
VERTEX
  5
712
  8
1
  6
CONTINUOUS
 62
     0
 10
315.5939421994937
 20
1016.631551897459
 30
0.0
  0
VERTEX
  5
713
  8
1
  6
CONTINUOUS
 62
     0
 10
315.364487137871
 20
1016.764027839054
 30
0.0
  0
VERTEX
  5
714
  8
1
  6
CONTINUOUS
 62
     0
 10
315.2500000000001
 20
1016.830127018922
 30
0.0
  0
VERTEX
  5
715
  8
1
  6
CONTINUOUS
 62
     0
 10
315.1355128621292
 20
1016.896226198791
 30
0.0
  0
VERTEX
  5
716
  8
1
  6
CONTINUOUS
 62
     0
 10
314.9060578005065
 20
1017.028702140386
 30
0.0
  0
VERTEX
  5
717
  8
1
  6
CONTINUOUS
 62
     0
 10
314.6751536321853
 20
1017.162014724123
 30
0.0
  0
VERTEX
  5
718
  8
1
  6
CONTINUOUS
 62
     0
 10
314.4418115893839
 20
1017.296734815348
 30
0.0
  0
VERTEX
  5
719
  8
1
  6
CONTINUOUS
 62
     0
 10
314.2050081498639
 20
1017.433453344899
 30
0.0
  0
VERTEX
  5
71A
  8
1
  6
CONTINUOUS
 62
     0
 10
313.9636696786743
 20
1017.572790176206
 30
0.0
  0
VERTEX
  5
71B
  8
1
  6
CONTINUOUS
 62
     0
 10
313.8409464730426
 20
1017.643644452014
 30
0.0
  0
VERTEX
  5
71C
  8
1
  6
CONTINUOUS
 62
     0
 10
313.7166555228698
 20
1017.715403865554
 30
0.0
  0
VERTEX
  5
71D
  8
1
  6
CONTINUOUS
 62
     0
 10
313.4627389797183
 20
1017.862002650094
 30
0.0
  0
VERTEX
  5
71E
  8
1
  6
CONTINUOUS
 62
     0
 10
313.2005854405521
 20
1018.013357066501
 30
0.0
  0
VERTEX
  5
71F
  8
1
  6
CONTINUOUS
 62
     0
 10
313.0659670332158
 20
1018.091079040214
 30
0.0
  0
SEQEND
  5
708
  8
1
  6
CONTINUOUS
 62
     0
  0
POLYLINE
  5
C0
  8
1
  6
CONTINUOUS
 62
     0
 66
     1
 10
0.0
 20
0.0
 30
0.0
  0
VERTEX
  5
721
  8
1
  6
CONTINUOUS
 62
     0
 10
313.0659670332158
 20
1006.908920959786
 30
0.0
  0
VERTEX
  5
722
  8
1
  6
CONTINUOUS
 62
     0
 10
313.2005854405521
 20
1006.9866429335
 30
0.0
  0
VERTEX
  5
723
  8
1
  6
CONTINUOUS
 62
     0
 10
313.4627389797184
 20
1007.137997349906
 30
0.0
  0
VERTEX
  5
724
  8
1
  6
CONTINUOUS
 62
     0
 10
313.7166555228698
 20
1007.284596134446
 30
0.0
  0
VERTEX
  5
725
  8
1
  6
CONTINUOUS
 62
     0
 10
313.8409464730426
 20
1007.356355547987
 30
0.0
  0
VERTEX
  5
726
  8
1
  6
CONTINUOUS
 62
     0
 10
313.9636696786743
 20
1007.427209823794
 30
0.0
  0
VERTEX
  5
727
  8
1
  6
CONTINUOUS
 62
     0
 10
314.205008149864
 20
1007.566546655101
 30
0.0
  0
VERTEX
  5
728
  8
1
  6
CONTINUOUS
 62
     0
 10
314.4418115893839
 20
1007.703265184653
 30
0.0
  0
VERTEX
  5
729
  8
1
  6
CONTINUOUS
 62
     0
 10
314.6751536321853
 20
1007.837985275878
 30
0.0
  0
VERTEX
  5
72A
  8
1
  6
CONTINUOUS
 62
     0
 10
314.9060578005065
 20
1007.971297859615
 30
0.0
  0
VERTEX
  5
72B
  8
1
  6
CONTINUOUS
 62
     0
 10
315.1355128621292
 20
1008.10377380121
 30
0.0
  0
VERTEX
  5
72C
  8
1
  6
CONTINUOUS
 62
     0
 10
315.2500000000001
 20
1008.169872981078
 30
0.0
  0
VERTEX
  5
72D
  8
1
  6
CONTINUOUS
 62
     0
 10
315.364487137871
 20
1008.235972160946
 30
0.0
  0
VERTEX
  5
72E
  8
1
  6
CONTINUOUS
 62
     0
 10
315.5939421994937
 20
1008.368448102541
 30
0.0
  0
VERTEX
  5
72F
  8
1
  6
CONTINUOUS
 62
     0
 10
315.8248463678149
 20
1008.501760686278
 30
0.0
  0
VERTEX
  5
730
  8
1
  6
CONTINUOUS
 62
     0
 10
316.0581884106163
 20
1008.636480777503
 30
0.0
  0
VERTEX
  5
731
  8
1
  6
CONTINUOUS
 62
     0
 10
316.2949918501359
 20
1008.773199307055
 30
0.0
  0
VERTEX
  5
732
  8
1
  6
CONTINUOUS
 62
     0
 10
316.5363303213258
 20
1008.912536138362
 30
0.0
  0
VERTEX
  5
733
  8
1
  6
CONTINUOUS
 62
     0
 10
316.6590535269577
 20
1008.98339041417
 30
0.0
  0
VERTEX
  5
734
  8
1
  6
CONTINUOUS
 62
     0
 10
316.7833444771303
 20
1009.055149827709
 30
0.0
  0
VERTEX
  5
735
  8
1
  6
CONTINUOUS
 62
     0
 10
317.0372610202817
 20
1009.201748612249
 30
0.0
  0
VERTEX
  5
736
  8
1
  6
CONTINUOUS
 62
     0
 10
317.2994145594481
 20
1009.353103028656
 30
0.0
  0
VERTEX
  5
737
  8
1
  6
CONTINUOUS
 62
     0
 10
317.4340329667843
 20
1009.43082500237
 30
0.0
  0
SEQEND
  5
720
  8
1
  6
CONTINUOUS
 62
     0
  0
POLYLINE
  5
C1
  8
1
  6
CONTINUOUS
 62
     0
 66
     1
 10
0.0
 20
0.0
 30
0.0
  0
VERTEX
  5
739
  8
1
  6
CONTINUOUS
 62
     0
 10
308.0659670332157
 20
1009.43082500237
 30
0.0
  0
VERTEX
  5
73A
  8
1
  6
CONTINUOUS
 62
     0
 10
308.200585440552
 20
1009.353103028656
 30
0.0
  0
VERTEX
  5
73B
  8
1
  6
CONTINUOUS
 62
     0
 10
308.4627389797183
 20
1009.20174861225
 30
0.0
  0
VERTEX
  5
73C
  8
1
  6
CONTINUOUS
 62
     0
 10
308.7166555228697
 20
1009.055149827709
 30
0.0
  0
VERTEX
  5
73D
  8
1
  6
CONTINUOUS
 62
     0
 10
308.8409464730424
 20
1008.98339041417
 30
0.0
  0
VERTEX
  5
73E
  8
1
  6
CONTINUOUS
 62
     0
 10
308.9636696786743
 20
1008.912536138362
 30
0.0
  0
VERTEX
  5
73F
  8
1
  6
CONTINUOUS
 62
     0
 10
309.2050081498639
 20
1008.773199307055
 30
0.0
  0
VERTEX
  5
740
  8
1
  6
CONTINUOUS
 62
     0
 10
309.4418115893838
 20
1008.636480777503
 30
0.0
  0
VERTEX
  5
741
  8
1
  6
CONTINUOUS
 62
     0
 10
309.6751536321852
 20
1008.501760686278
 30
0.0
  0
VERTEX
  5
742
  8
1
  6
CONTINUOUS
 62
     0
 10
309.9060578005064
 20
1008.368448102541
 30
0.0
  0
VERTEX
  5
743
  8
1
  6
CONTINUOUS
 62
     0
 10
310.1355128621291
 20
1008.235972160946
 30
0.0
  0
VERTEX
  5
744
  8
1
  6
CONTINUOUS
 62
     0
 10
310.25
 20
1008.169872981078
 30
0.0
  0
VERTEX
  5
745
  8
1
  6
CONTINUOUS
 62
     0
 10
310.3644871378709
 20
1008.10377380121
 30
0.0
  0
VERTEX
  5
746
  8
1
  6
CONTINUOUS
 62
     0
 10
310.5939421994935
 20
1007.971297859615
 30
0.0
  0
VERTEX
  5
747
  8
1
  6
CONTINUOUS
 62
     0
 10
310.8248463678148
 20
1007.837985275878
 30
0.0
  0
VERTEX
  5
748
  8
1
  6
CONTINUOUS
 62
     0
 10
311.0581884106162
 20
1007.703265184653
 30
0.0
  0
VERTEX
  5
749
  8
1
  6
CONTINUOUS
 62
     0
 10
311.2949918501359
 20
1007.566546655101
 30
0.0
  0
VERTEX
  5
74A
  8
1
  6
CONTINUOUS
 62
     0
 10
311.5363303213257
 20
1007.427209823794
 30
0.0
  0
VERTEX
  5
74B
  8
1
  6
CONTINUOUS
 62
     0
 10
311.6590535269576
 20
1007.356355547987
 30
0.0
  0
VERTEX
  5
74C
  8
1
  6
CONTINUOUS
 62
     0
 10
311.7833444771302
 20
1007.284596134446
 30
0.0
  0
VERTEX
  5
74D
  8
1
  6
CONTINUOUS
 62
     0
 10
312.0372610202816
 20
1007.137997349906
 30
0.0
  0
VERTEX
  5
74E
  8
1
  6
CONTINUOUS
 62
     0
 10
312.2994145594479
 20
1006.9866429335
 30
0.0
  0
VERTEX
  5
74F
  8
1
  6
CONTINUOUS
 62
     0
 10
312.4340329667842
 20
1006.908920959786
 30
0.0
  0
SEQEND
  5
738
  8
1
  6
CONTINUOUS
 62
     0
  0
POLYLINE
  5
C2
  8
1
  6
CONTINUOUS
 62
     0
 66
     1
 10
0.0
 20
0.0
 30
0.0
  0
VERTEX
  5
751
  8
1
  6
CONTINUOUS
 62
     0
 10
307.75
 20
1015.021904042584
 30
0.0
  0
VERTEX
  5
752
  8
1
  6
CONTINUOUS
 62
     0
 10
307.75
 20
1014.866460095157
 30
0.0
  0
VERTEX
  5
753
  8
1
  6
CONTINUOUS
 62
     0
 10
307.75
 20
1014.563751262343
 30
0.0
  0
VERTEX
  5
754
  8
1
  6
CONTINUOUS
 62
     0
 10
307.7499999999999
 20
1014.270553693263
 30
0.0
  0
VERTEX
  5
755
  8
1
  6
CONTINUOUS
 62
     0
 10
307.7499999999999
 20
1014.127034866183
 30
0.0
  0
VERTEX
  5
756
  8
1
  6
CONTINUOUS
 62
     0
 10
307.75
 20
1013.985326314568
 30
0.0
  0
VERTEX
  5
757
  8
1
  6
CONTINUOUS
 62
     0
 10
307.7500000000001
 20
1013.706652651954
 30
0.0
  0
VERTEX
  5
758
  8
1
  6
CONTINUOUS
 62
     0
 10
307.7499999999999
 20
1013.43321559285
 30
0.0
  0
VERTEX
  5
759
  8
1
  6
CONTINUOUS
 62
     0
 10
307.75
 20
1013.163775410401
 30
0.0
  0
VERTEX
  5
75A
  8
1
  6
CONTINUOUS
 62
     0
 10
307.75
 20
1012.897150242926
 30
0.0
  0
VERTEX
  5
75B
  8
1
  6
CONTINUOUS
 62
     0
 10
307.7499999999999
 20
1012.632198359737
 30
0.0
  0
VERTEX
  5
75C
  8
1
  6
CONTINUOUS
 62
     0
 10
307.7500000000001
 20
1012.5
 30
0.0
  0
VERTEX
  5
75D
  8
1
  6
CONTINUOUS
 62
     0
 10
307.7499999999999
 20
1012.367801640263
 30
0.0
  0
VERTEX
  5
75E
  8
1
  6
CONTINUOUS
 62
     0
 10
307.75
 20
1012.102849757073
 30
0.0
  0
VERTEX
  5
75F
  8
1
  6
CONTINUOUS
 62
     0
 10
307.75
 20
1011.836224589599
 30
0.0
  0
VERTEX
  5
760
  8
1
  6
CONTINUOUS
 62
     0
 10
307.7499999999999
 20
1011.566784407149
 30
0.0
  0
VERTEX
  5
761
  8
1
  6
CONTINUOUS
 62
     0
 10
307.7500000000001
 20
1011.293347348046
 30
0.0
  0
VERTEX
  5
762
  8
1
  6
CONTINUOUS
 62
     0
 10
307.75
 20
1011.014673685432
 30
0.0
  0
VERTEX
  5
763
  8
1
  6
CONTINUOUS
 62
     0
 10
307.75
 20
1010.872965133817
 30
0.0
  0
VERTEX
  5
764
  8
1
  6
CONTINUOUS
 62
     0
 10
307.7499999999999
 20
1010.729446306737
 30
0.0
  0
VERTEX
  5
765
  8
1
  6
CONTINUOUS
 62
     0
 10
307.7499999999999
 20
1010.436248737657
 30
0.0
  0
VERTEX
  5
766
  8
1
  6
CONTINUOUS
 62
     0
 10
307.75
 20
1010.133539904843
 30
0.0
  0
VERTEX
  5
767
  8
1
  6
CONTINUOUS
 62
     0
 10
307.75
 20
1009.978095957416
 30
0.0
  0
SEQEND
  5
750
  8
1
  6
CONTINUOUS
 62
     0
  0
LINE
  5
C3
  8
2
  6
DASHED
 62
     0
 10
307.75
 20
1015.021904042584
 30
0.0
 11
307.75
 21
1009.978095957416
 31
0.0
  0
LINE
  5
C4
  8
2
  6
DASHED
 62
     0
 10
308.0659670332158
 20
1009.43082500237
 30
0.0
 11
312.4340329667842
 21
1006.908920959786
 31
0.0
  0
LINE
  5
C5
  8
2
  6
DASHED
 62
     0
 10
313.0659670332158
 20
1006.908920959786
 30
0.0
 11
317.4340329667842
 21
1009.43082500237
 31
0.0
  0
LINE
  5
C6
  8
2
  6
DASHED
 62
     0
 10
317.4340329667842
 20
1015.56917499763
 30
0.0
 11
313.0659670332158
 21
1018.091079040214
 31
0.0
  0
LINE
  5
C7
  8
2
  6
DASHED
 62
     0
 10
312.4340329667842
 20
1018.091079040214
 30
0.0
 11
308.0659670332158
 21
1015.56917499763
 31
0.0
  0
POLYLINE
  5
C8
  8
1
  6
CONTINUOUS
 62
     0
 66
     1
 10
0.0
 20
0.0
 30
0.0
  0
VERTEX
  5
769
  8
1
  6
CONTINUOUS
 62
     0
 10
317.75
 20
1009.978095957416
 30
0.0
  0
VERTEX
  5
76A
  8
1
  6
CONTINUOUS
 62
     0
 10
317.7499999999999
 20
1010.133539904843
 30
0.0
  0
VERTEX
  5
76B
  8
1
  6
CONTINUOUS
 62
     0
 10
317.7499999999999
 20
1010.436248737657
 30
0.0
  0
VERTEX
  5
76C
  8
1
  6
CONTINUOUS
 62
     0
 10
317.7499999999999
 20
1010.729446306737
 30
0.0
  0
VERTEX
  5
76D
  8
1
  6
CONTINUOUS
 62
     0
 10
317.75
 20
1010.872965133817
 30
0.0
  0
VERTEX
  5
76E
  8
1
  6
CONTINUOUS
 62
     0
 10
317.75
 20
1011.014673685432
 30
0.0
  0
VERTEX
  5
76F
  8
1
  6
CONTINUOUS
 62
     0
 10
317.7500000000001
 20
1011.293347348046
 30
0.0
  0
VERTEX
  5
770
  8
1
  6
CONTINUOUS
 62
     0
 10
317.7499999999999
 20
1011.566784407149
 30
0.0
  0
VERTEX
  5
771
  8
1
  6
CONTINUOUS
 62
     0
 10
317.75
 20
1011.836224589599
 30
0.0
  0
VERTEX
  5
772
  8
1
  6
CONTINUOUS
 62
     0
 10
317.7499999999999
 20
1012.102849757073
 30
0.0
  0
VERTEX
  5
773
  8
1
  6
CONTINUOUS
 62
     0
 10
317.75
 20
1012.367801640263
 30
0.0
  0
VERTEX
  5
774
  8
1
  6
CONTINUOUS
 62
     0
 10
317.75
 20
1012.5
 30
0.0
  0
VERTEX
  5
775
  8
1
  6
CONTINUOUS
 62
     0
 10
317.75
 20
1012.632198359737
 30
0.0
  0
VERTEX
  5
776
  8
1
  6
CONTINUOUS
 62
     0
 10
317.7499999999999
 20
1012.897150242926
 30
0.0
  0
VERTEX
  5
777
  8
1
  6
CONTINUOUS
 62
     0
 10
317.75
 20
1013.163775410401
 30
0.0
  0
VERTEX
  5
778
  8
1
  6
CONTINUOUS
 62
     0
 10
317.7499999999999
 20
1013.43321559285
 30
0.0
  0
VERTEX
  5
779
  8
1
  6
CONTINUOUS
 62
     0
 10
317.7500000000001
 20
1013.706652651954
 30
0.0
  0
VERTEX
  5
77A
  8
1
  6
CONTINUOUS
 62
     0
 10
317.75
 20
1013.985326314568
 30
0.0
  0
VERTEX
  5
77B
  8
1
  6
CONTINUOUS
 62
     0
 10
317.7500000000001
 20
1014.127034866183
 30
0.0
  0
VERTEX
  5
77C
  8
1
  6
CONTINUOUS
 62
     0
 10
317.7499999999999
 20
1014.270553693263
 30
0.0
  0
VERTEX
  5
77D
  8
1
  6
CONTINUOUS
 62
     0
 10
317.7499999999999
 20
1014.563751262343
 30
0.0
  0
VERTEX
  5
77E
  8
1
  6
CONTINUOUS
 62
     0
 10
317.7499999999999
 20
1014.866460095157
 30
0.0
  0
VERTEX
  5
77F
  8
1
  6
CONTINUOUS
 62
     0
 10
317.75
 20
1015.021904042584
 30
0.0
  0
SEQEND
  5
768
  8
1
  6
CONTINUOUS
 62
     0
  0
LINE
  5
C9
  8
2
  6
DASHED
 62
     0
 10
317.75
 20
1009.978095957416
 30
0.0
 11
317.75
 21
1015.021904042584
 31
0.0
  0
LINE
  5
CA
  8
3
  6
CENTER
 62
     0
 10
340.3944302370335
 20
925.0
 30
0.0
 11
400.1055697629665
 21
925.0
 31
0.0
  0
LINE
  5
CB
  8
3
  6
CENTER
 62
     0
 10
370.25
 20
895.1444302370335
 30
0.0
 11
370.25
 21
954.8555697629665
 31
0.0
  0
LINE
  5
CC
  8
3
  6
CENTER
 62
     0
 10
-400.1055697629665
 20
-925.0
 30
0.0
 11
-340.3944302370335
 21
-925.0
 31
0.0
  0
LINE
  5
CD
  8
3
  6
CENTER
 62
     0
 10
-370.25
 20
-954.8555697629665
 30
0.0
 11
-370.25
 21
-895.1444302370335
 31
0.0
  0
LINE
  5
CE
  8
3
  6
CENTER
 62
     0
 10
340.3944302370335
 20
-925.0
 30
0.0
 11
400.1055697629665
 21
-925.0
 31
0.0
  0
LINE
  5
CF
  8
3
  6
CENTER
 62
     0
 10
370.25
 20
-954.8555697629665
 30
0.0
 11
370.25
 21
-895.1444302370335
 31
0.0
  0
LINE
  5
D0
  8
3
  6
CENTER
 62
     0
 10
-400.1055697629665
 20
0.0
 30
0.0
 11
-340.3944302370335
 21
0.0
 31
0.0
  0
LINE
  5
D1
  8
3
  6
CENTER
 62
     0
 10
-370.25
 20
-29.8555697629665
 30
0.0
 11
-370.25
 21
29.8555697629665
 31
0.0
  0
LINE
  5
D2
  8
3
  6
CENTER
 62
     0
 10
340.3944302370335
 20
0.0
 30
0.0
 11
400.1055697629665
 21
0.0
 31
0.0
  0
LINE
  5
D3
  8
3
  6
CENTER
 62
     0
 10
370.25
 20
-29.8555697629665
 30
0.0
 11
370.25
 21
29.8555697629665
 31
0.0
  0
LINE
  5
D4
  8
3
  6
CENTER
 62
     0
 10
-400.1055697629665
 20
925.0
 30
0.0
 11
-340.3944302370335
 21
925.0
 31
0.0
  0
LINE
  5
D5
  8
3
  6
CENTER
 62
     0
 10
-370.25
 20
895.1444302370335
 30
0.0
 11
-370.25
 21
954.8555697629665
 31
0.0
  0
LINE
  5
D6
  8
3
  6
CENTER
 62
     0
 10
-343.0055697629665
 20
1012.5
 30
0.0
 11
-282.4944302370335
 21
1012.5
 31
0.0
  0
LINE
  5
D7
  8
3
  6
CENTER
 62
     0
 10
-312.75
 20
982.2444302370335
 30
0.0
 11
-312.75
 21
1042.755569762966
 31
0.0
  0
LINE
  5
D8
  8
3
  6
CENTER
 62
     0
 10
282.4944302370335
 20
1012.5
 30
0.0
 11
343.0055697629665
 21
1012.5
 31
0.0
  0
LINE
  5
D9
  8
3
  6
CENTER
 62
     0
 10
312.75
 20
982.2444302370335
 30
0.0
 11
312.75
 21
1042.755569762966
 31
0.0
  0
CIRCLE
  5
DA
  8
1
  6
CONTINUOUS
 62
     0
 10
-312.7499999999817
 20
1012.49999999999
 30
0.0
 40
5.600000000021035
  0
CIRCLE
  5
DB
  8
1
  6
CONTINUOUS
 62
     0
 10
312.7500000000183
 20
1012.49999999999
 30
0.0
 40
5.600000000021035
  0
POINT
  5
DC
  8
1
 62
     0
 10
0.0
 20
-1077.05
 30
0.0
  0
ATTDEF
  5
DD
  8
ATTRIB
 10
0.0
 20
0.0
 30
0.0
 40
1.0
  1
Rittal USA
  3

  2
Company
 70
     9
  0
ATTDEF
  5
DE
  8
ATTRIB
 10
0.0
 20
0.0
 30
0.0
 40
1.0
  1
8128.235
  3

  2
NB
 70
     9
  0
ATTDEF
  5
DF
  8
ATTRIB
 10
0.0
 20
0.0
 30
0.0
 40
1.0
  1
Side panel
  3

  2
NN
 70
     9
  0
ATTDEF
  5
E0
  8
ATTRIB
 10
0.0
 20
0.0
 30
0.0
 40
1.0
  1
Side panel, screw-fastened, for TS
  3

  2
NT
 70
     9
  0
ATTDEF
  5
E1
  8
ATTRIB
 10
0.0
 20
0.0
 30
0.0
 40
1.0
  1
8128.235
  3

  2
LINA
 70
     9
  0
ATTDEF
  5
E2
  8
ATTRIB
 10
0.0
 20
0.0
 30
0.0
 40
1.0
  1
8128.235
  3

  2
BEST
 70
     9
  0
ATTDEF
  5
E3
  8
ATTRIB
 10
0.0
 20
0.0
 30
0.0
 40
1.0
  1
2
  3

  2
VV
 70
     9
  0
ATTDEF
  5
E4
  8
ATTRIB
 10
0.0
 20
0.0
 30
0.0
 40
1.0
  1
PDF Katalog
  3

  2
INFO
 70
     9
  0
ATTDEF
  5
E5
  8
ATTRIB
 10
0.0
 20
0.0
 30
0.0
 40
1.0
  1
Seitenwõnde Paar
  3

  2
BEZ1
 70
     9
  0
ATTDEF
  5
E6
  8
ATTRIB
 10
0.0
 20
0.0
 30
0.0
 40
1.0
  1
f³r  Schrõnke (HxT): 2200 X 800 mm
  3

  2
BEZ2
 70
     9
  0
ATTDEF
  5
E7
  8
ATTRIB
 10
0.0
 20
0.0
 30
0.0
 40
1.0
  1
RAL 7035
  3

  2
BEZ3
 70
     9
  0
ATTDEF
  5
E8
  8
ATTRIB
 10
0.0
 20
0.0
 30
0.0
 40
1.0
  1
2200
  3

  2
H
 70
     9
  0
ATTDEF
  5
E9
  8
ATTRIB
 10
0.0
 20
0.0
 30
0.0
 40
1.0
  1
800
  3

  2
T
 70
     9
  0
ATTDEF
  5
EA
  8
ATTRIB
 10
0.0
 20
0.0
 30
0.0
 40
1.0
  1
2200
  3

  2
SH
 70
     9
  0
ATTDEF
  5
EB
  8
ATTRIB
 10
0.0
 20
0.0
 30
0.0
 40
1.0
  1
800
  3

  2
ST
 70
     9
  0
ATTDEF
  5
EC
  8
ATTRIB
 10
0.0
 20
0.0
 30
0.0
 40
1.0
  1
2197
  3

  2
AH
 70
     9
  0
ATTDEF
  5
ED
  8
ATTRIB
 10
0.0
 20
0.0
 30
0.0
 40
1.0
  1
762
  3

  2
AT
 70
     9
  0
ATTDEF
  5
EE
  8
ATTRIB
 10
0.0
 20
0.0
 30
0.0
 40
1.0
  1
18
  3

  2
VERS
 70
     9
  0
ATTDEF
  5
EF
  8
ATTRIB
 10
0.0
 20
0.0
 30
0.0
 40
1.0
  1
762.5
  3

  2
A
 70
     9
  0
ATTDEF
  5
F0
  8
ATTRIB
 10
0.0
 20
0.0
 30
0.0
 40
1.0
  1
2197
  3

  2
B
 70
     9
  0
ATTDEF
  5
F1
  8
ATTRIB
 10
0.0
 20
0.0
 30
0.0
 40
1.0
  1
925
  3

  2
L1
 70
     9
  0
ATTDEF
  5
F2
  8
ATTRIB
 10
0.0
 20
0.0
 30
0.0
 40
1.0
  1
740.5
  3

  2
L2
 70
     9
  0
ATTDEF
  5
F3
  8
ATTRIB
 10
0.0
 20
0.0
 30
0.0
 40
1.0
  1
hb32_s917
  3

  2
INFOPAGE
 70
     9
  0
ATTDEF
  5
F4
  8
ATTRIB
 10
0.0
 20
0.0
 30
0.0
 40
1.0
  1
hb32_s917_en.pdf
  3

  2
INFOPATH
 70
     9
  0
ATTDEF
  5
F5
  8
ATTRIB
 10
0.0
 20
0.0
 30
0.0
 40
1.0
  1
DUMMY
  3

  2
KT
 70
     9
  0
ENDSEC
  0
EOF
