  0
SECTION
  2
HEADER
  9
$ACADVER
  1
AC1009
  9
$DWGCODEPAGE
  3
dos850
  9
$INSBASE
 10
0.0
 20
0.0
 30
0.0
  9
$EXTMIN
 10
0.0
 20
0.0
 30
0.0
  9
$EXTMAX
 10
1000.0
 20
1000.0
 30
1000.0
  9
$LIMMIN
 10
0.0
 20
0.0
  9
$LIMMAX
 10
420.0
 20
297.0
  9
$ORTHOMODE
 70
     0
  9
$REGENMODE
 70
     1
  9
$FILLMODE
 70
     1
  9
$QTEXTMODE
 70
     0
  9
$MIRRTEXT
 70
     1
  9
$DRAGMODE
 70
     2
  9
$LTSCALE
 40
1.0
  9
$OSMODE
 70
    37
  9
$ATTMODE
 70
     1
  9
$TEXTSIZE
 40
2.5
  9
$TRACEWID
 40
1.0
  9
$TEXTSTYLE
  7
STANDARD
  9
$CLAYER
  8
0
  9
$CELTYPE
  6
BYLAYER
  9
$CECOLOR
 62
   256
  9
$DIMSCALE
 40
1.0
  9
$DIMASZ
 40
2.5
  9
$DIMEXO
 40
0.625
  9
$DIMDLI
 40
3.75
  9
$DIMRND
 40
0.0
  9
$DIMDLE
 40
0.0
  9
$DIMEXE
 40
1.25
  9
$DIMTP
 40
0.0
  9
$DIMTM
 40
0.0
  9
$DIMTXT
 40
2.5
  9
$DIMCEN
 40
2.5
  9
$DIMTSZ
 40
0.0
  9
$DIMTOL
 70
     0
  9
$DIMLIM
 70
     0
  9
$DIMTIH
 70
     0
  9
$DIMTOH
 70
     0
  9
$DIMSE1
 70
     0
  9
$DIMSE2
 70
     0
  9
$DIMTAD
 70
     1
  9
$DIMZIN
 70
     8
  9
$DIMBLK
  1

  9
$DIMASO
 70
     1
  9
$DIMSHO
 70
     1
  9
$DIMPOST
  1

  9
$DIMAPOST
  1

  9
$DIMALT
 70
     0
  9
$DIMALTD
 70
     3
  9
$DIMALTF
 40
0.03937007874016
  9
$DIMLFAC
 40
1.0
  9
$DIMTOFL
 70
     1
  9
$DIMTVP
 40
0.0
  9
$DIMTIX
 70
     0
  9
$DIMSOXD
 70
     0
  9
$DIMSAH
 70
     0
  9
$DIMBLK1
  1

  9
$DIMBLK2
  1

  9
$DIMSTYLE
  2
ISO-25
  9
$DIMCLRD
 70
     0
  9
$DIMCLRE
 70
     0
  9
$DIMCLRT
 70
     0
  9
$DIMTFAC
 40
1.0
  9
$DIMGAP
 40
0.625
  9
$LUNITS
 70
     2
  9
$LUPREC
 70
     4
  9
$SKETCHINC
 40
1.0
  9
$FILLETRAD
 40
10.0
  9
$AUNITS
 70
     0
  9
$AUPREC
 70
     0
  9
$MENU
  1
.
  9
$ELEVATION
 40
0.0
  9
$PELEVATION
 40
0.0
  9
$THICKNESS
 40
0.0
  9
$LIMCHECK
 70
     0
  9
$CHAMFERA
 40
10.0
  9
$CHAMFERB
 40
10.0
  9
$SKPOLY
 70
     0
  9
$TDCREATE
 40
2455702.665
  9
$TDUPDATE
 40
2455702.665
  9
$TDINDWG
 40
0.0000000116
  9
$TDUSRTIMER
 40
0.0000000116
  9
$USRTIMER
 70
     1
  9
$ANGBASE
 50
0.0
  9
$ANGDIR
 70
     0
  9
$PDMODE
 70
     0
  9
$PDSIZE
 40
0.0
  9
$PLINEWID
 40
0.0
  9
$COORDS
 70
     1
  9
$SPLFRAME
 70
     0
  9
$SPLINETYPE
 70
     6
  9
$SPLINESEGS
 70
     8
  9
$ATTDIA
 70
     0
  9
$ATTREQ
 70
     1
  9
$HANDLING
 70
     1
  9
$HANDSEED
  5
6C2
  9
$SURFTAB1
 70
     6
  9
$SURFTAB2
 70
     6
  9
$SURFTYPE
 70
     6
  9
$SURFU
 70
     6
  9
$SURFV
 70
     6
  9
$UCSNAME
  2

  9
$UCSORG
 10
0.0
 20
0.0
 30
0.0
  9
$UCSXDIR
 10
1.0
 20
0.0
 30
0.0
  9
$UCSYDIR
 10
0.0
 20
1.0
 30
0.0
  9
$PUCSNAME
  2

  9
$PUCSORG
 10
0.0
 20
0.0
 30
0.0
  9
$PUCSXDIR
 10
1.0
 20
0.0
 30
0.0
  9
$PUCSYDIR
 10
0.0
 20
1.0
 30
0.0
  9
$USERI1
 70
     0
  9
$USERI2
 70
     0
  9
$USERI3
 70
     0
  9
$USERI4
 70
     0
  9
$USERI5
 70
     0
  9
$USERR1
 40
0.0
  9
$USERR2
 40
0.0
  9
$USERR3
 40
0.0
  9
$USERR4
 40
0.0
  9
$USERR5
 40
0.0
  9
$WORLDVIEW
 70
     1
  9
$SHADEDGE
 70
     3
  9
$SHADEDIF
 70
    70
  9
$TILEMODE
 70
     1
  9
$MAXACTVP
 70
    64
  9
$PLIMCHECK
 70
     0
  9
$PEXTMIN
 10
0.0
 20
0.0
 30
0.0
  9
$PEXTMAX
 10
1000.0
 20
1000.0
 30
0.0
  9
$PLIMMIN
 10
0.0
 20
0.0
  9
$PLIMMAX
 10
100.0
 20
100.0
  9
$UNITMODE
 70
     0
  9
$VISRETAIN
 70
     1
  9
$PLINEGEN
 70
     0
  9
$PSLTSCALE
 70
     1
  0
ENDSEC
  0
SECTION
  2
TABLES
  0
TABLE
  2
VPORT
 70
     1
  0
VPORT
  2
*ACTIVE
 70
     0
 10
0.0
 20
0.0
 11
1.0
 21
1.0
 12
0.0
 22
12.5
 13
0.0
 23
0.0
 14
10.0
 24
10.0
 15
10.0
 25
10.0
 16
0.0
 26
0.0
 36
1.0
 17
0.0
 27
0.0
 37
0.0
 40
57.34105123181924
 41
1.972972972850329
 42
50.0
 43
0.0
 44
0.0
 50
0.0
 51
0.0
 71
     0
 72
   100
 73
     1
 74
     3
 75
     0
 76
     0
 77
     0
 78
     0
  0
ENDTAB
  0
TABLE
  2
LTYPE
 70
     3
  0
LTYPE
  2
CONTINUOUS
 70
     0
  3
Solid line
 72
    65
 73
     0
 40
0.0
  0
LTYPE
  2
DASHED
 70
     0
  3

 72
    65
 73
     2
 40
2.0
 49
1.0
 49
-1.0
  0
LTYPE
  2
CENTER
 70
     0
  3

 72
    65
 73
     4
 40
2.0
 49
0.45
 49
-0.5
 49
0.05
 49
-0.5
  0
ENDTAB
  0
TABLE
  2
LAYER
 70
     7
  0
LAYER
  2
0
 70
     0
 62
     7
  6
CONTINUOUS
  0
LAYER
  2
ATTRIB
 70
     0
 62
    -7
  6
CONTINUOUS
  0
LAYER
  2
1
 70
     0
 62
     7
  6
CONTINUOUS
  0
LAYER
  2
2
 70
     0
 62
     7
  6
DASHED
  0
LAYER
  2
3
 70
     0
 62
     7
  6
CENTER
  0
LAYER
  2
4
 70
     0
 62
     7
  6
CENTER
  0
LAYER
  2
7
 70
     0
 62
     7
  6
CONTINUOUS
  0
ENDTAB
  0
TABLE
  2
STYLE
 70
     1
  0
STYLE
  2
STANDARD
 70
     0
 40
0.0
 41
1.0
 50
0.0
 71
     0
 42
2.5
  3
txt
  4

  0
ENDTAB
  0
TABLE
  2
VIEW
 70
     0
  0
ENDTAB
  0
TABLE
  2
UCS
 70
     0
  0
ENDTAB
  0
TABLE
  2
APPID
 70
     1
  0
APPID
  2
ACAD
 70
     0
  0
ENDTAB
  0
TABLE
  2
DIMSTYLE
 70
     1
  0
DIMSTYLE
  2
ISO-25
 70
     0
  3

  4

  5

  6

  7

 40
1.0
 41
2.5
 42
0.625
 43
3.75
 44
1.25
 45
0.0
 46
0.0
 47
0.0
 48
0.0
140
2.5
141
2.5
142
0.0
143
0.03937007874016
144
1.0
145
0.0
146
1.0
147
0.625
 71
     0
 72
     0
 73
     0
 74
     0
 75
     0
 76
     0
 77
     1
 78
     8
170
     0
171
     3
172
     1
173
     0
174
     0
175
     0
176
     0
177
     0
178
     0
  0
ENDTAB
  0
ENDSEC
  0
SECTION
  2
BLOCKS
  0
BLOCK
  8
0
  2
$MODEL_SPACE
 70
     0
 10
0.0
 20
0.0
 30
0.0
  3
$MODEL_SPACE
  1

  0
ENDBLK
  5
21
  8
0
  0
BLOCK
 67
     1
  8
0
  2
$PAPER_SPACE
 70
     0
 10
0.0
 20
0.0
 30
0.0
  3
$PAPER_SPACE
  1

  0
ENDBLK
  5
1D
 67
     1
  8
0
  0
ENDSEC
  0
SECTION
  2
ENTITIES
  0
LINE
  5
32
  8
2
  6
DASHED
 62
     0
 10
-2.300000000000001
 20
-4.607873696185692
 30
0.0
 11
-2.300000000000001
 21
-7.662245101796209
 31
0.0
  0
LINE
  5
33
  8
2
  6
DASHED
 62
     0
 10
2.300000000000001
 20
-7.662245101796209
 30
0.0
 11
2.300000000000001
 21
-4.607873696185692
 31
0.0
  0
LINE
  5
34
  8
2
  6
DASHED
 62
     0
 10
-2.300000000000001
 20
7.662245101796209
 30
0.0
 11
-2.300000000000001
 21
4.607873696185692
 31
0.0
  0
LINE
  5
35
  8
2
  6
DASHED
 62
     0
 10
2.300000000000001
 20
4.607873696185692
 30
0.0
 11
2.300000000000001
 21
7.662245101796209
 31
0.0
  0
ARC
  5
36
  8
2
  6
DASHED
 62
     0
 10
0.0000000000000007
 20
37.5
 30
0.0
 40
2.5
 50
0.0
 51
179.9999991462264
  0
POLYLINE
  5
37
  8
1
  6
CONTINUOUS
 62
     0
 66
     1
 10
0.0
 20
0.0
 30
0.0
  0
VERTEX
  5
87
  8
1
  6
CONTINUOUS
 62
     0
 10
-2.291287847477921
 20
38.5
 30
0.0
  0
VERTEX
  5
88
  8
1
  6
CONTINUOUS
 62
     0
 10
-2.285389019881862
 20
38.51340861837831
 30
0.0
  0
VERTEX
  5
89
  8
1
  6
CONTINUOUS
 62
     0
 10
-2.273324222629312
 20
38.54019083768645
 30
0.0
  0
VERTEX
  5
8A
  8
1
  6
CONTINUOUS
 62
     0
 10
-2.260904890529928
 20
38.56691568363103
 30
0.0
  0
VERTEX
  5
8B
  8
1
  6
CONTINUOUS
 62
     0
 10
-2.254563008519488
 20
38.58025258186017
 30
0.0
  0
VERTEX
  5
8C
  8
1
  6
CONTINUOUS
 62
     0
 10
-2.248133433599947
 20
38.59357032911931
 30
0.0
  0
VERTEX
  5
8D
  8
1
  6
CONTINUOUS
 62
     0
 10
-2.235012729894685
 20
38.62014199868084
 30
0.0
  0
VERTEX
  5
8E
  8
1
  6
CONTINUOUS
 62
     0
 10
-2.2215461038594
 20
38.64661803074394
 30
0.0
  0
VERTEX
  5
8F
  8
1
  6
CONTINUOUS
 62
     0
 10
-2.207737302119016
 20
38.6729859354793
 30
0.0
  0
VERTEX
  5
90
  8
1
  6
CONTINUOUS
 62
     0
 10
-2.193590466991425
 20
38.69923344813441
 30
0.0
  0
VERTEX
  5
91
  8
1
  6
CONTINUOUS
 62
     0
 10
-2.179110107994069
 20
38.72534857784962
 30
0.0
  0
VERTEX
  5
92
  8
1
  6
CONTINUOUS
 62
     0
 10
-2.171746359262853
 20
38.73835283785703
 30
0.0
  0
VERTEX
  5
93
  8
1
  6
CONTINUOUS
 62
     0
 10
-2.164301071595799
 20
38.75131965200315
 30
0.0
  0
VERTEX
  5
94
  8
1
  6
CONTINUOUS
 62
     0
 10
-2.149168509446473
 20
38.77713535617946
 30
0.0
  0
VERTEX
  5
95
  8
1
  6
CONTINUOUS
 62
     0
 10
-2.133717845295801
 20
38.80278476989342
 30
0.0
  0
VERTEX
  5
96
  8
1
  6
CONTINUOUS
 62
     0
 10
-2.117954741474821
 20
38.82825739714271
 30
0.0
  0
VERTEX
  5
97
  8
1
  6
CONTINUOUS
 62
     0
 10
-2.10188511827849
 20
38.85354310960509
 30
0.0
  0
VERTEX
  5
98
  8
1
  6
CONTINUOUS
 62
     0
 10
-2.085515277869485
 20
38.87863193992196
 30
0.0
  0
VERTEX
  5
99
  8
1
  6
CONTINUOUS
 62
     0
 10
-2.077219856201972
 20
38.89109944612176
 30
0.0
  0
VERTEX
  5
9A
  8
1
  6
CONTINUOUS
 62
     0
 10
-2.068851924468563
 20
38.9035140592893
 30
0.0
  0
VERTEX
  5
9B
  8
1
  6
CONTINUOUS
 62
     0
 10
-2.051902141132175
 20
38.92817982173716
 30
0.0
  0
VERTEX
  5
9C
  8
1
  6
CONTINUOUS
 62
     0
 10
-2.034673365673009
 20
38.95261980401648
 30
0.0
  0
VERTEX
  5
9D
  8
1
  6
CONTINUOUS
 62
     0
 10
-2.025956771162149
 20
38.96475225256091
 30
0.0
  0
VERTEX
  5
9E
  8
1
  6
CONTINUOUS
 62
     0
 10
-2.017173366018843
 20
38.97682484114542
 30
0.0
  0
VERTEX
  5
9F
  8
1
  6
CONTINUOUS
 62
     0
 10
-1.999410215179897
 20
39.00078605784912
 30
0.0
  0
VERTEX
  5
A0
  8
1
  6
CONTINUOUS
 62
     0
 10
-1.981392265961488
 20
39.0244948961502
 30
0.0
  0
VERTEX
  5
A1
  8
1
  6
CONTINUOUS
 62
     0
 10
-1.972290422460224
 20
39.0362520917713
 30
0.0
  0
VERTEX
  5
A2
  8
1
  6
CONTINUOUS
 62
     0
 10
-1.963128125528087
 20
39.04794313938226
 30
0.0
  0
VERTEX
  5
A3
  8
1
  6
CONTINUOUS
 62
     0
 10
-1.944626629895346
 20
39.0711229329056
 30
0.0
  0
VERTEX
  5
A4
  8
1
  6
CONTINUOUS
 62
     0
 10
-1.925896818400801
 20
39.09402680180531
 30
0.0
  0
VERTEX
  5
A5
  8
1
  6
CONTINUOUS
 62
     0
 10
-1.906947785700537
 20
39.11664781031981
 30
0.0
  0
VERTEX
  5
A6
  8
1
  6
CONTINUOUS
 62
     0
 10
-1.887786937955605
 20
39.13898153646836
 30
0.0
  0
VERTEX
  5
A7
  8
1
  6
CONTINUOUS
 62
     0
 10
-1.868422672574326
 20
39.16102279232111
 30
0.0
  0
VERTEX
  5
A8
  8
1
  6
CONTINUOUS
 62
     0
 10
-1.858667146836282
 20
39.17193194755991
 30
0.0
  0
VERTEX
  5
A9
  8
1
  6
CONTINUOUS
 62
     0
 10
-1.848864278852623
 20
39.18276584181601
 30
0.0
  0
VERTEX
  5
AA
  8
1
  6
CONTINUOUS
 62
     0
 10
-1.829121407011675
 20
39.20420505761825
 30
0.0
  0
VERTEX
  5
AB
  8
1
  6
CONTINUOUS
 62
     0
 10
-1.809204047738255
 20
39.22533495694243
 30
0.0
  0
VERTEX
  5
AC
  8
1
  6
CONTINUOUS
 62
     0
 10
-1.789122511874296
 20
39.24615023337186
 30
0.0
  0
VERTEX
  5
AD
  8
1
  6
CONTINUOUS
 62
     0
 10
-1.768887410394973
 20
39.26664578491167
 30
0.0
  0
VERTEX
  5
AE
  8
1
  6
CONTINUOUS
 62
     0
 10
-1.748509634782308
 20
39.28681673852509
 30
0.0
  0
VERTEX
  5
AF
  8
1
  6
CONTINUOUS
 62
     0
 10
-1.738270719741315
 20
39.29677903618948
 30
0.0
  0
VERTEX
  5
B0
  8
1
  6
CONTINUOUS
 62
     0
 10
-1.728000337872987
 20
39.30665847140815
 30
0.0
  0
VERTEX
  5
B1
  8
1
  6
CONTINUOUS
 62
     0
 10
-1.707370915233522
 20
39.32616662925776
 30
0.0
  0
VERTEX
  5
B2
  8
1
  6
CONTINUOUS
 62
     0
 10
-1.686632987093848
 20
39.34533714178382
 30
0.0
  0
VERTEX
  5
B3
  8
1
  6
CONTINUOUS
 62
     0
 10
-1.665798380850945
 20
39.36416623570817
 30
0.0
  0
VERTEX
  5
B4
  8
1
  6
CONTINUOUS
 62
     0
 10
-1.644879114137097
 20
39.38265044548253
 30
0.0
  0
VERTEX
  5
B5
  8
1
  6
CONTINUOUS
 62
     0
 10
-1.623887378432522
 20
39.40078662194565
 30
0.0
  0
VERTEX
  5
B6
  8
1
  6
CONTINUOUS
 62
     0
 10
-1.613368188165988
 20
39.40972330179374
 30
0.0
  0
VERTEX
  5
B7
  8
1
  6
CONTINUOUS
 62
     0
 10
-1.602835523189155
 20
39.41857193912632
 30
0.0
  0
VERTEX
  5
B8
  8
1
  6
CONTINUOUS
 62
     0
 10
-1.581736040421017
 20
39.43600389938482
 30
0.0
  0
VERTEX
  5
B9
  8
1
  6
CONTINUOUS
 62
     0
 10
-1.560601549705979
 20
39.45308033707149
 30
0.0
  0
VERTEX
  5
BA
  8
1
  6
CONTINUOUS
 62
     0
 10
-1.486539820717931
 20
39.51002471661916
 30
0.0
  0
VERTEX
  5
BB
  8
1
  6
CONTINUOUS
 62
     0
 10
-1.359613204771049
 20
39.59796375884146
 30
0.0
  0
VERTEX
  5
BC
  8
1
  6
CONTINUOUS
 62
     0
 10
-1.294339938671872
 20
39.63885112225206
 30
0.0
  0
VERTEX
  5
BD
  8
1
  6
CONTINUOUS
 62
     0
 10
-1.227548249776943
 20
39.67787173508211
 30
0.0
  0
VERTEX
  5
BE
  8
1
  6
CONTINUOUS
 62
     0
 10
-1.089944295904145
 20
39.74989364900344
 30
0.0
  0
VERTEX
  5
BF
  8
1
  6
CONTINUOUS
 62
     0
 10
-0.9479230766232656
 20
39.81331836131673
 30
0.0
  0
VERTEX
  5
C0
  8
1
  6
CONTINUOUS
 62
     0
 10
-0.8026577338600782
 20
39.86764451771684
 30
0.0
  0
VERTEX
  5
C1
  8
1
  6
CONTINUOUS
 62
     0
 10
-0.6553310521878921
 20
39.91257978355915
 30
0.0
  0
VERTEX
  5
C2
  8
1
  6
CONTINUOUS
 62
     0
 10
-0.5071288434956575
 20
39.94802376134194
 30
0.0
  0
VERTEX
  5
C3
  8
1
  6
CONTINUOUS
 62
     0
 10
-0.4330871637056595
 20
39.96220135420185
 30
0.0
  0
VERTEX
  5
C4
  8
1
  6
CONTINUOUS
 62
     0
 10
-0.3593004239685821
 20
39.97404591819473
 30
0.0
  0
VERTEX
  5
C5
  8
1
  6
CONTINUOUS
 62
     0
 10
-0.213153151263241
 20
39.99089657234229
 30
0.0
  0
VERTEX
  5
C6
  8
1
  6
CONTINUOUS
 62
     0
 10
-0.0700200707236263
 20
39.99901924556332
 30
0.0
  0
VERTEX
  5
C7
  8
1
  6
CONTINUOUS
 62
     0
 10
0.0
 20
40.0
 30
0.0
  0
SEQEND
  5
86
  8
1
  6
CONTINUOUS
 62
     0
  0
POLYLINE
  5
38
  8
1
  6
CONTINUOUS
 62
     0
 66
     1
 10
0.0
 20
0.0
 30
0.0
  0
VERTEX
  5
C9
  8
1
  6
CONTINUOUS
 62
     0
 10
0.0
 20
40.0
 30
0.0
  0
VERTEX
  5
CA
  8
1
  6
CONTINUOUS
 62
     0
 10
0.070020070723627
 20
39.99901924556332
 30
0.0
  0
VERTEX
  5
CB
  8
1
  6
CONTINUOUS
 62
     0
 10
0.2131531512632404
 20
39.99089657234229
 30
0.0
  0
VERTEX
  5
CC
  8
1
  6
CONTINUOUS
 62
     0
 10
0.3593004239685828
 20
39.97404591819473
 30
0.0
  0
VERTEX
  5
CD
  8
1
  6
CONTINUOUS
 62
     0
 10
0.4330871637056599
 20
39.96220135420185
 30
0.0
  0
VERTEX
  5
CE
  8
1
  6
CONTINUOUS
 62
     0
 10
0.5071288434956566
 20
39.94802376134194
 30
0.0
  0
VERTEX
  5
CF
  8
1
  6
CONTINUOUS
 62
     0
 10
0.6553310521878952
 20
39.91257978355915
 30
0.0
  0
VERTEX
  5
D0
  8
1
  6
CONTINUOUS
 62
     0
 10
0.8026577338600757
 20
39.86764451771684
 30
0.0
  0
VERTEX
  5
D1
  8
1
  6
CONTINUOUS
 62
     0
 10
0.9479230766232654
 20
39.81331836131673
 30
0.0
  0
VERTEX
  5
D2
  8
1
  6
CONTINUOUS
 62
     0
 10
1.089944295904145
 20
39.74989364900344
 30
0.0
  0
VERTEX
  5
D3
  8
1
  6
CONTINUOUS
 62
     0
 10
1.22754824977694
 20
39.67787173508211
 30
0.0
  0
VERTEX
  5
D4
  8
1
  6
CONTINUOUS
 62
     0
 10
1.294339938671876
 20
39.63885112225206
 30
0.0
  0
VERTEX
  5
D5
  8
1
  6
CONTINUOUS
 62
     0
 10
1.35961320477105
 20
39.59796375884147
 30
0.0
  0
VERTEX
  5
D6
  8
1
  6
CONTINUOUS
 62
     0
 10
1.486539820717929
 20
39.51002471661916
 30
0.0
  0
VERTEX
  5
D7
  8
1
  6
CONTINUOUS
 62
     0
 10
1.560601549705979
 20
39.45308033707149
 30
0.0
  0
VERTEX
  5
D8
  8
1
  6
CONTINUOUS
 62
     0
 10
1.581736040421018
 20
39.43600389938483
 30
0.0
  0
VERTEX
  5
D9
  8
1
  6
CONTINUOUS
 62
     0
 10
1.602835523189158
 20
39.41857193912632
 30
0.0
  0
VERTEX
  5
DA
  8
1
  6
CONTINUOUS
 62
     0
 10
1.613368188165988
 20
39.40972330179374
 30
0.0
  0
VERTEX
  5
DB
  8
1
  6
CONTINUOUS
 62
     0
 10
1.623887378432523
 20
39.40078662194565
 30
0.0
  0
VERTEX
  5
DC
  8
1
  6
CONTINUOUS
 62
     0
 10
1.644879114137102
 20
39.38265044548253
 30
0.0
  0
VERTEX
  5
DD
  8
1
  6
CONTINUOUS
 62
     0
 10
1.665798380850944
 20
39.36416623570817
 30
0.0
  0
VERTEX
  5
DE
  8
1
  6
CONTINUOUS
 62
     0
 10
1.686632987093845
 20
39.34533714178382
 30
0.0
  0
VERTEX
  5
DF
  8
1
  6
CONTINUOUS
 62
     0
 10
1.707370915233523
 20
39.32616662925776
 30
0.0
  0
VERTEX
  5
E0
  8
1
  6
CONTINUOUS
 62
     0
 10
1.728000337872987
 20
39.30665847140816
 30
0.0
  0
VERTEX
  5
E1
  8
1
  6
CONTINUOUS
 62
     0
 10
1.738270719741315
 20
39.29677903618948
 30
0.0
  0
VERTEX
  5
E2
  8
1
  6
CONTINUOUS
 62
     0
 10
1.748509634782314
 20
39.28681673852509
 30
0.0
  0
VERTEX
  5
E3
  8
1
  6
CONTINUOUS
 62
     0
 10
1.768887410394977
 20
39.26664578491167
 30
0.0
  0
VERTEX
  5
E4
  8
1
  6
CONTINUOUS
 62
     0
 10
1.789122511874305
 20
39.24615023337186
 30
0.0
  0
VERTEX
  5
E5
  8
1
  6
CONTINUOUS
 62
     0
 10
1.809204047738254
 20
39.22533495694243
 30
0.0
  0
VERTEX
  5
E6
  8
1
  6
CONTINUOUS
 62
     0
 10
1.829121407011672
 20
39.20420505761826
 30
0.0
  0
VERTEX
  5
E7
  8
1
  6
CONTINUOUS
 62
     0
 10
1.84886427885262
 20
39.18276584181602
 30
0.0
  0
VERTEX
  5
E8
  8
1
  6
CONTINUOUS
 62
     0
 10
1.858667146836284
 20
39.17193194755991
 30
0.0
  0
VERTEX
  5
E9
  8
1
  6
CONTINUOUS
 62
     0
 10
1.868422672574322
 20
39.16102279232111
 30
0.0
  0
VERTEX
  5
EA
  8
1
  6
CONTINUOUS
 62
     0
 10
1.887786937955605
 20
39.13898153646836
 30
0.0
  0
VERTEX
  5
EB
  8
1
  6
CONTINUOUS
 62
     0
 10
1.906947785700542
 20
39.11664781031981
 30
0.0
  0
VERTEX
  5
EC
  8
1
  6
CONTINUOUS
 62
     0
 10
1.925896818400798
 20
39.09402680180531
 30
0.0
  0
VERTEX
  5
ED
  8
1
  6
CONTINUOUS
 62
     0
 10
1.944626629895349
 20
39.07112293290559
 30
0.0
  0
VERTEX
  5
EE
  8
1
  6
CONTINUOUS
 62
     0
 10
1.963128125528087
 20
39.04794313938226
 30
0.0
  0
VERTEX
  5
EF
  8
1
  6
CONTINUOUS
 62
     0
 10
1.972290422460229
 20
39.03625209177129
 30
0.0
  0
VERTEX
  5
F0
  8
1
  6
CONTINUOUS
 62
     0
 10
1.981392265961488
 20
39.0244948961502
 30
0.0
  0
VERTEX
  5
F1
  8
1
  6
CONTINUOUS
 62
     0
 10
1.999410215179887
 20
39.00078605784913
 30
0.0
  0
VERTEX
  5
F2
  8
1
  6
CONTINUOUS
 62
     0
 10
2.017173366018846
 20
38.97682484114543
 30
0.0
  0
VERTEX
  5
F3
  8
1
  6
CONTINUOUS
 62
     0
 10
2.025956771162149
 20
38.96475225256091
 30
0.0
  0
VERTEX
  5
F4
  8
1
  6
CONTINUOUS
 62
     0
 10
2.034673365673006
 20
38.95261980401649
 30
0.0
  0
VERTEX
  5
F5
  8
1
  6
CONTINUOUS
 62
     0
 10
2.051902141132175
 20
38.92817982173716
 30
0.0
  0
VERTEX
  5
F6
  8
1
  6
CONTINUOUS
 62
     0
 10
2.06885192446856
 20
38.90351405928931
 30
0.0
  0
VERTEX
  5
F7
  8
1
  6
CONTINUOUS
 62
     0
 10
2.077219856201972
 20
38.89109944612176
 30
0.0
  0
VERTEX
  5
F8
  8
1
  6
CONTINUOUS
 62
     0
 10
2.085515277869487
 20
38.87863193992195
 30
0.0
  0
VERTEX
  5
F9
  8
1
  6
CONTINUOUS
 62
     0
 10
2.101885118278496
 20
38.85354310960508
 30
0.0
  0
VERTEX
  5
FA
  8
1
  6
CONTINUOUS
 62
     0
 10
2.117954741474827
 20
38.8282573971427
 30
0.0
  0
VERTEX
  5
FB
  8
1
  6
CONTINUOUS
 62
     0
 10
2.133717845295801
 20
38.80278476989342
 30
0.0
  0
VERTEX
  5
FC
  8
1
  6
CONTINUOUS
 62
     0
 10
2.149168509446473
 20
38.77713535617946
 30
0.0
  0
VERTEX
  5
FD
  8
1
  6
CONTINUOUS
 62
     0
 10
2.164301071595799
 20
38.75131965200315
 30
0.0
  0
VERTEX
  5
FE
  8
1
  6
CONTINUOUS
 62
     0
 10
2.17174635926285
 20
38.73835283785703
 30
0.0
  0
VERTEX
  5
FF
  8
1
  6
CONTINUOUS
 62
     0
 10
2.179110107994069
 20
38.72534857784962
 30
0.0
  0
VERTEX
  5
100
  8
1
  6
CONTINUOUS
 62
     0
 10
2.193590466991425
 20
38.69923344813441
 30
0.0
  0
VERTEX
  5
101
  8
1
  6
CONTINUOUS
 62
     0
 10
2.207737302119016
 20
38.6729859354793
 30
0.0
  0
VERTEX
  5
102
  8
1
  6
CONTINUOUS
 62
     0
 10
2.2215461038594
 20
38.64661803074394
 30
0.0
  0
VERTEX
  5
103
  8
1
  6
CONTINUOUS
 62
     0
 10
2.235012729894685
 20
38.62014199868084
 30
0.0
  0
VERTEX
  5
104
  8
1
  6
CONTINUOUS
 62
     0
 10
2.248133433599947
 20
38.59357032911931
 30
0.0
  0
VERTEX
  5
105
  8
1
  6
CONTINUOUS
 62
     0
 10
2.254563008519488
 20
38.58025258186017
 30
0.0
  0
VERTEX
  5
106
  8
1
  6
CONTINUOUS
 62
     0
 10
2.260904890529928
 20
38.56691568363103
 30
0.0
  0
VERTEX
  5
107
  8
1
  6
CONTINUOUS
 62
     0
 10
2.273324222629312
 20
38.54019083768645
 30
0.0
  0
VERTEX
  5
108
  8
1
  6
CONTINUOUS
 62
     0
 10
2.285389019881862
 20
38.51340861837831
 30
0.0
  0
VERTEX
  5
109
  8
1
  6
CONTINUOUS
 62
     0
 10
2.291287847477921
 20
38.5
 30
0.0
  0
SEQEND
  5
C8
  8
1
  6
CONTINUOUS
 62
     0
  0
POLYLINE
  5
39
  8
1
  6
CONTINUOUS
 62
     0
 66
     1
 10
0.0
 20
0.0
 30
0.0
  0
VERTEX
  5
10B
  8
1
  6
CONTINUOUS
 62
     0
 10
0.0
 20
-13.0
 30
0.0
  0
VERTEX
  5
10C
  8
1
  6
CONTINUOUS
 62
     0
 10
-0.1639648142111439
 20
-12.99896594117011
 30
0.0
  0
VERTEX
  5
10D
  8
1
  6
CONTINUOUS
 62
     0
 10
-0.4962764076741524
 20
-12.9905238434478
 30
0.0
  0
VERTEX
  5
10E
  8
1
  6
CONTINUOUS
 62
     0
 10
-0.8336391535551568
 20
-12.97324345573071
 30
0.0
  0
VERTEX
  5
10F
  8
1
  6
CONTINUOUS
 62
     0
 10
-1.003920343752352
 20
-12.96117833931005
 30
0.0
  0
VERTEX
  5
110
  8
1
  6
CONTINUOUS
 62
     0
 10
-1.175112972625054
 20
-12.94677988928398
 30
0.0
  0
VERTEX
  5
111
  8
1
  6
CONTINUOUS
 62
     0
 10
-1.519774888576413
 20
-12.9108591614986
 30
0.0
  0
VERTEX
  5
112
  8
1
  6
CONTINUOUS
 62
     0
 10
-1.866724562231478
 20
-12.86527649950678
 30
0.0
  0
VERTEX
  5
113
  8
1
  6
CONTINUOUS
 62
     0
 10
-2.21507840523111
 20
-12.80989569273219
 30
0.0
  0
VERTEX
  5
114
  8
1
  6
CONTINUOUS
 62
     0
 10
-2.563964277882813
 20
-12.74464935499367
 30
0.0
  0
VERTEX
  5
115
  8
1
  6
CONTINUOUS
 62
     0
 10
-2.912527601339672
 20
-12.66953759895895
 30
0.0
  0
VERTEX
  5
116
  8
1
  6
CONTINUOUS
 62
     0
 10
-3.08642777620709
 20
-12.62830010659618
 30
0.0
  0
VERTEX
  5
117
  8
1
  6
CONTINUOUS
 62
     0
 10
-3.25994218563604
 20
-12.58462462476773
 30
0.0
  0
VERTEX
  5
118
  8
1
  6
CONTINUOUS
 62
     0
 10
-3.605432335357221
 20
-12.4900303312346
 30
0.0
  0
VERTEX
  5
119
  8
1
  6
CONTINUOUS
 62
     0
 10
-3.948229898931132
 20
-12.38593882857436
 30
0.0
  0
VERTEX
  5
11A
  8
1
  6
CONTINUOUS
 62
     0
 10
-4.287586828028595
 20
-12.27259545459376
 30
0.0
  0
VERTEX
  5
11B
  8
1
  6
CONTINUOUS
 62
     0
 10
-4.622784658254505
 20
-12.15030295932602
 30
0.0
  0
VERTEX
  5
11C
  8
1
  6
CONTINUOUS
 62
     0
 10
-4.953136484548924
 20
-12.01941924409953
 30
0.0
  0
VERTEX
  5
11D
  8
1
  6
CONTINUOUS
 62
     0
 10
-5.11628872514848
 20
-11.95088238085031
 30
0.0
  0
VERTEX
  5
11E
  8
1
  6
CONTINUOUS
 62
     0
 10
-5.277987510111456
 20
-11.88035554363199
 30
0.0
  0
VERTEX
  5
11F
  8
1
  6
CONTINUOUS
 62
     0
 10
-5.59673115820855
 20
-11.73356724712214
 30
0.0
  0
VERTEX
  5
120
  8
1
  6
CONTINUOUS
 62
     0
 10
-5.908807488070432
 20
-11.5795506851053
 30
0.0
  0
VERTEX
  5
121
  8
1
  6
CONTINUOUS
 62
     0
 10
-6.062177826491054
 20
-11.5
 30
0.0
  0
SEQEND
  5
10A
  8
1
  6
CONTINUOUS
 62
     0
  0
POLYLINE
  5
3A
  8
1
  6
CONTINUOUS
 62
     0
 66
     1
 10
0.0
 20
0.0
 30
0.0
  0
VERTEX
  5
123
  8
1
  6
CONTINUOUS
 62
     0
 10
6.062177826491058
 20
-11.5
 30
0.0
  0
VERTEX
  5
124
  8
1
  6
CONTINUOUS
 62
     0
 10
5.908807488070435
 20
-11.5795506851053
 30
0.0
  0
VERTEX
  5
125
  8
1
  6
CONTINUOUS
 62
     0
 10
5.596731158208553
 20
-11.73356724712214
 30
0.0
  0
VERTEX
  5
126
  8
1
  6
CONTINUOUS
 62
     0
 10
5.277987510111458
 20
-11.88035554363199
 30
0.0
  0
VERTEX
  5
127
  8
1
  6
CONTINUOUS
 62
     0
 10
5.116288725148483
 20
-11.95088238085031
 30
0.0
  0
VERTEX
  5
128
  8
1
  6
CONTINUOUS
 62
     0
 10
4.953136484548928
 20
-12.01941924409953
 30
0.0
  0
VERTEX
  5
129
  8
1
  6
CONTINUOUS
 62
     0
 10
4.622784658254508
 20
-12.15030295932602
 30
0.0
  0
VERTEX
  5
12A
  8
1
  6
CONTINUOUS
 62
     0
 10
4.287586828028597
 20
-12.27259545459376
 30
0.0
  0
VERTEX
  5
12B
  8
1
  6
CONTINUOUS
 62
     0
 10
3.948229898931135
 20
-12.38593882857436
 30
0.0
  0
VERTEX
  5
12C
  8
1
  6
CONTINUOUS
 62
     0
 10
3.605432335357223
 20
-12.4900303312346
 30
0.0
  0
VERTEX
  5
12D
  8
1
  6
CONTINUOUS
 62
     0
 10
3.25994218563604
 20
-12.58462462476773
 30
0.0
  0
VERTEX
  5
12E
  8
1
  6
CONTINUOUS
 62
     0
 10
3.086427776207089
 20
-12.62830010659618
 30
0.0
  0
VERTEX
  5
12F
  8
1
  6
CONTINUOUS
 62
     0
 10
2.912527601339669
 20
-12.66953759895895
 30
0.0
  0
VERTEX
  5
130
  8
1
  6
CONTINUOUS
 62
     0
 10
2.563964277882815
 20
-12.74464935499367
 30
0.0
  0
VERTEX
  5
131
  8
1
  6
CONTINUOUS
 62
     0
 10
2.215078405231109
 20
-12.80989569273219
 30
0.0
  0
VERTEX
  5
132
  8
1
  6
CONTINUOUS
 62
     0
 10
1.866724562231482
 20
-12.86527649950678
 30
0.0
  0
VERTEX
  5
133
  8
1
  6
CONTINUOUS
 62
     0
 10
1.519774888576413
 20
-12.9108591614986
 30
0.0
  0
VERTEX
  5
134
  8
1
  6
CONTINUOUS
 62
     0
 10
1.175112972625057
 20
-12.94677988928398
 30
0.0
  0
VERTEX
  5
135
  8
1
  6
CONTINUOUS
 62
     0
 10
1.003920343752354
 20
-12.96117833931005
 30
0.0
  0
VERTEX
  5
136
  8
1
  6
CONTINUOUS
 62
     0
 10
0.8336391535551561
 20
-12.97324345573071
 30
0.0
  0
VERTEX
  5
137
  8
1
  6
CONTINUOUS
 62
     0
 10
0.4962764076741595
 20
-12.9905238434478
 30
0.0
  0
VERTEX
  5
138
  8
1
  6
CONTINUOUS
 62
     0
 10
0.1639648142111423
 20
-12.99896594117011
 30
0.0
  0
VERTEX
  5
139
  8
1
  6
CONTINUOUS
 62
     0
 10
0.0
 20
-13.0
 30
0.0
  0
SEQEND
  5
122
  8
1
  6
CONTINUOUS
 62
     0
  0
LINE
  5
3B
  8
2
  6
DASHED
 62
     0
 10
4.656996269284452
 20
12.25
 30
0.0
 11
4.199999999999998
 21
12.25
 31
0.0
  0
LINE
  5
3C
  8
2
  6
DASHED
 62
     0
 10
-4.199999999999999
 20
12.25
 30
0.0
 11
-4.656996269284457
 21
12.25
 31
0.0
  0
ARC
  5
3D
  8
2
  6
DASHED
 62
     0
 10
0.0000000000000018
 20
0.0000000000000038
 30
0.0
 40
13.0
 50
114.6243183521641
 51
65.37568164783596
  0
CIRCLE
  5
3E
  8
2
  6
DASHED
 62
     0
 10
-0.0000000000000007
 20
0.0
 30
0.0
 40
11.85
  0
CIRCLE
  5
3F
  8
2
  6
DASHED
 62
     0
 10
-0.0000000000000006
 20
0.0
 30
0.0
 40
9.0
  0
CIRCLE
  5
40
  8
2
  6
DASHED
 62
     0
 10
-0.0000000000000005
 20
0.0
 30
0.0
 40
8.0
  0
CIRCLE
  5
41
  8
2
  6
DASHED
 62
     0
 10
-0.0000000000000004
 20
0.0
 30
0.0
 40
6.0
  0
CIRCLE
  5
42
  8
2
  6
DASHED
 62
     0
 10
-0.0000000000000003
 20
0.0
 30
0.0
 40
5.0
  0
LINE
  5
43
  8
2
  6
DASHED
 62
     0
 10
3.5
 20
3.5
 30
0.0
 11
3.5
 21
-3.5
 31
0.0
  0
POLYLINE
  5
44
  8
2
  6
DASHED
 62
     0
 66
     1
 10
0.0
 20
0.0
 30
0.0
  0
VERTEX
  5
13B
  8
2
  6
DASHED
 62
     0
 10
3.5
 20
-3.5
 30
0.0
  0
VERTEX
  5
13C
  8
2
  6
DASHED
 62
     0
 10
3.5
 20
-3.23321987155399
 30
0.0
  0
VERTEX
  5
13D
  8
2
  6
DASHED
 62
     0
 10
3.5
 20
-2.743077513915747
 30
0.0
  0
VERTEX
  5
13E
  8
2
  6
DASHED
 62
     0
 10
3.5
 20
-2.299905736176504
 30
0.0
  0
VERTEX
  5
13F
  8
2
  6
DASHED
 62
     0
 10
3.5
 20
-2.092564301692212
 30
0.0
  0
VERTEX
  5
140
  8
2
  6
DASHED
 62
     0
 10
3.499999999999999
 20
-1.893221868204723
 30
0.0
  0
VERTEX
  5
141
  8
2
  6
DASHED
 62
     0
 10
3.5
 20
-1.514718625758762
 30
0.0
  0
VERTEX
  5
142
  8
2
  6
DASHED
 62
     0
 10
3.5
 20
-1.304195138934595
 30
0.0
  0
VERTEX
  5
143
  8
2
  6
DASHED
 62
     0
 10
3.5
 20
-1.245214027581852
 30
0.0
  0
VERTEX
  5
144
  8
2
  6
DASHED
 62
     0
 10
3.5
 20
-1.186704610348908
 30
0.0
  0
VERTEX
  5
145
  8
2
  6
DASHED
 62
     0
 10
3.5
 20
-1.15761897150082
 30
0.0
  0
VERTEX
  5
146
  8
2
  6
DASHED
 62
     0
 10
3.5
 20
-1.128641951545364
 30
0.0
  0
VERTEX
  5
147
  8
2
  6
DASHED
 62
     0
 10
3.5
 20
-1.071001696268204
 30
0.0
  0
VERTEX
  5
148
  8
2
  6
DASHED
 62
     0
 10
3.5
 20
-1.013760033828971
 30
0.0
  0
VERTEX
  5
149
  8
2
  6
DASHED
 62
     0
 10
3.499999999999999
 20
-0.9568936626982698
 30
0.0
  0
VERTEX
  5
14A
  8
2
  6
DASHED
 62
     0
 10
3.5
 20
-0.9003797568541655
 30
0.0
  0
VERTEX
  5
14B
  8
2
  6
DASHED
 62
     0
 10
3.5
 20
-0.8441959334278063
 30
0.0
  0
VERTEX
  5
14C
  8
2
  6
DASHED
 62
     0
 10
3.5
 20
-0.8162209214587564
 30
0.0
  0
VERTEX
  5
14D
  8
2
  6
DASHED
 62
     0
 10
3.5
 20
-0.7883202215458712
 30
0.0
  0
VERTEX
  5
14E
  8
2
  6
DASHED
 62
     0
 10
3.5
 20
-0.7327310322750558
 30
0.0
  0
VERTEX
  5
14F
  8
2
  6
DASHED
 62
     0
 10
3.5
 20
-0.6774071295789627
 30
0.0
  0
VERTEX
  5
150
  8
2
  6
DASHED
 62
     0
 10
3.5
 20
-0.6223276022024792
 30
0.0
  0
VERTEX
  5
151
  8
2
  6
DASHED
 62
     0
 10
3.5
 20
-0.5674718364029263
 30
0.0
  0
VERTEX
  5
152
  8
2
  6
DASHED
 62
     0
 10
3.5
 20
-0.512819489451113
 30
0.0
  0
VERTEX
  5
153
  8
2
  6
DASHED
 62
     0
 10
3.5
 20
-0.4855633086825271
 30
0.0
  0
VERTEX
  5
154
  8
2
  6
DASHED
 62
     0
 10
3.499999999999999
 20
-0.4583504638289024
 30
0.0
  0
VERTEX
  5
155
  8
2
  6
DASHED
 62
     0
 10
3.499999999999999
 20
-0.4040448820529763
 30
0.0
  0
VERTEX
  5
156
  8
2
  6
DASHED
 62
     0
 10
3.5
 20
-0.3498830620572476
 30
0.0
  0
VERTEX
  5
157
  8
2
  6
DASHED
 62
     0
 10
3.5
 20
-0.2958454930688422
 30
0.0
  0
VERTEX
  5
158
  8
2
  6
DASHED
 62
     0
 10
3.499999999999999
 20
-0.2419128119146989
 30
0.0
  0
VERTEX
  5
159
  8
2
  6
DASHED
 62
     0
 10
3.500000000000001
 20
-0.188065779697712
 30
0.0
  0
VERTEX
  5
15A
  8
2
  6
DASHED
 62
     0
 10
3.499999999999999
 20
-0.1611683980980393
 30
0.0
  0
VERTEX
  5
15B
  8
2
  6
DASHED
 62
     0
 10
3.5
 20
-0.134285258782919
 30
0.0
  0
VERTEX
  5
15C
  8
2
  6
DASHED
 62
     0
 10
3.499999999999999
 20
-0.0805521900356015
 30
0.0
  0
VERTEX
  5
15D
  8
2
  6
DASHED
 62
     0
 10
3.499999999999999
 20
-0.0268475702541912
 30
0.0
  0
VERTEX
  5
15E
  8
2
  6
DASHED
 62
     0
 10
3.5
 20
0.0000000000020304
 30
0.0
  0
VERTEX
  5
15F
  8
2
  6
DASHED
 62
     0
 10
3.5
 20
0.0268475702582518
 30
0.0
  0
VERTEX
  5
160
  8
2
  6
DASHED
 62
     0
 10
3.5
 20
0.0805521900396598
 30
0.0
  0
VERTEX
  5
161
  8
2
  6
DASHED
 62
     0
 10
3.5
 20
0.1342852587869706
 30
0.0
  0
VERTEX
  5
162
  8
2
  6
DASHED
 62
     0
 10
3.499999999999999
 20
0.1611683981020867
 30
0.0
  0
VERTEX
  5
163
  8
2
  6
DASHED
 62
     0
 10
3.5
 20
0.1880657797017546
 30
0.0
  0
VERTEX
  5
164
  8
2
  6
DASHED
 62
     0
 10
3.5
 20
0.2419128119187298
 30
0.0
  0
VERTEX
  5
165
  8
2
  6
DASHED
 62
     0
 10
3.499999999999999
 20
0.2958454930728579
 30
0.0
  0
VERTEX
  5
166
  8
2
  6
DASHED
 62
     0
 10
3.5
 20
0.3498830620612449
 30
0.0
  0
VERTEX
  5
167
  8
2
  6
DASHED
 62
     0
 10
3.5
 20
0.4040448820569528
 30
0.0
  0
VERTEX
  5
168
  8
2
  6
DASHED
 62
     0
 10
3.5
 20
0.4583504638328557
 30
0.0
  0
VERTEX
  5
169
  8
2
  6
DASHED
 62
     0
 10
3.499999999999999
 20
0.4855633086864665
 30
0.0
  0
VERTEX
  5
16A
  8
2
  6
DASHED
 62
     0
 10
3.5
 20
0.5128194894550386
 30
0.0
  0
VERTEX
  5
16B
  8
2
  6
DASHED
 62
     0
 10
3.499999999999999
 20
0.5674718364068222
 30
0.0
  0
VERTEX
  5
16C
  8
2
  6
DASHED
 62
     0
 10
3.5
 20
0.6223276022063429
 30
0.0
  0
VERTEX
  5
16D
  8
2
  6
DASHED
 62
     0
 10
3.499999999999999
 20
0.6774071295827907
 30
0.0
  0
VERTEX
  5
16E
  8
2
  6
DASHED
 62
     0
 10
3.5
 20
0.7327310322788453
 30
0.0
  0
VERTEX
  5
16F
  8
2
  6
DASHED
 62
     0
 10
3.5
 20
0.7883202215496199
 30
0.0
  0
VERTEX
  5
170
  8
2
  6
DASHED
 62
     0
 10
3.5
 20
0.8162209214624826
 30
0.0
  0
VERTEX
  5
171
  8
2
  6
DASHED
 62
     0
 10
3.5
 20
0.8441959334315096
 30
0.0
  0
VERTEX
  5
172
  8
2
  6
DASHED
 62
     0
 10
3.5
 20
0.900379756857821
 30
0.0
  0
VERTEX
  5
173
  8
2
  6
DASHED
 62
     0
 10
3.5
 20
0.9568936627018755
 30
0.0
  0
VERTEX
  5
174
  8
2
  6
DASHED
 62
     0
 10
3.5
 20
1.013760033832522
 30
0.0
  0
VERTEX
  5
175
  8
2
  6
DASHED
 62
     0
 10
3.5
 20
1.0710016962717
 30
0.0
  0
VERTEX
  5
176
  8
2
  6
DASHED
 62
     0
 10
3.5
 20
1.128641951548801
 30
0.0
  0
VERTEX
  5
177
  8
2
  6
DASHED
 62
     0
 10
3.499999999999999
 20
1.157618971504225
 30
0.0
  0
VERTEX
  5
178
  8
2
  6
DASHED
 62
     0
 10
3.5
 20
1.186704610352281
 30
0.0
  0
VERTEX
  5
179
  8
2
  6
DASHED
 62
     0
 10
3.5
 20
1.245214027585161
 30
0.0
  0
VERTEX
  5
17A
  8
2
  6
DASHED
 62
     0
 10
3.5
 20
1.304195138937836
 30
0.0
  0
VERTEX
  5
17B
  8
2
  6
DASHED
 62
     0
 10
3.5
 20
1.36367349909913
 30
0.0
  0
VERTEX
  5
17C
  8
2
  6
DASHED
 62
     0
 10
3.5
 20
1.423675321734614
 30
0.0
  0
VERTEX
  5
17D
  8
2
  6
DASHED
 62
     0
 10
3.5
 20
1.484227521370188
 30
0.0
  0
VERTEX
  5
17E
  8
2
  6
DASHED
 62
     0
 10
3.499999999999999
 20
1.514718625761742
 30
0.0
  0
VERTEX
  5
17F
  8
2
  6
DASHED
 62
     0
 10
3.5
 20
1.545357757328654
 30
0.0
  0
VERTEX
  5
180
  8
2
  6
DASHED
 62
     0
 10
3.5
 20
1.607094479877733
 30
0.0
  0
VERTEX
  5
181
  8
2
  6
DASHED
 62
     0
 10
3.499999999999999
 20
1.669466978759606
 30
0.0
  0
VERTEX
  5
182
  8
2
  6
DASHED
 62
     0
 10
3.5
 20
1.893221868207179
 30
0.0
  0
VERTEX
  5
183
  8
2
  6
DASHED
 62
     0
 10
3.499999999999999
 20
2.092564301694369
 30
0.0
  0
VERTEX
  5
184
  8
2
  6
DASHED
 62
     0
 10
3.5
 20
2.299905736178342
 30
0.0
  0
VERTEX
  5
185
  8
2
  6
DASHED
 62
     0
 10
3.5
 20
2.743077513916887
 30
0.0
  0
VERTEX
  5
186
  8
2
  6
DASHED
 62
     0
 10
3.5
 20
3.233219871554378
 30
0.0
  0
VERTEX
  5
187
  8
2
  6
DASHED
 62
     0
 10
3.5
 20
3.5
 30
0.0
  0
SEQEND
  5
13A
  8
2
  6
DASHED
 62
     0
  0
LINE
  5
45
  8
2
  6
DASHED
 62
     0
 10
-3.5
 20
3.5
 30
0.0
 11
3.5
 21
3.5
 31
0.0
  0
POLYLINE
  5
46
  8
2
  6
DASHED
 62
     0
 66
     1
 10
0.0
 20
0.0
 30
0.0
  0
VERTEX
  5
189
  8
2
  6
DASHED
 62
     0
 10
3.5
 20
3.5
 30
0.0
  0
VERTEX
  5
18A
  8
2
  6
DASHED
 62
     0
 10
3.23321987155399
 20
3.5
 30
0.0
  0
VERTEX
  5
18B
  8
2
  6
DASHED
 62
     0
 10
2.743077513915747
 20
3.5
 30
0.0
  0
VERTEX
  5
18C
  8
2
  6
DASHED
 62
     0
 10
2.299905736176504
 20
3.5
 30
0.0
  0
VERTEX
  5
18D
  8
2
  6
DASHED
 62
     0
 10
2.092564301692212
 20
3.5
 30
0.0
  0
VERTEX
  5
18E
  8
2
  6
DASHED
 62
     0
 10
1.893221868204723
 20
3.499999999999999
 30
0.0
  0
VERTEX
  5
18F
  8
2
  6
DASHED
 62
     0
 10
1.514718625758762
 20
3.5
 30
0.0
  0
VERTEX
  5
190
  8
2
  6
DASHED
 62
     0
 10
1.304195138934595
 20
3.5
 30
0.0
  0
VERTEX
  5
191
  8
2
  6
DASHED
 62
     0
 10
1.245214027581852
 20
3.5
 30
0.0
  0
VERTEX
  5
192
  8
2
  6
DASHED
 62
     0
 10
1.186704610348908
 20
3.5
 30
0.0
  0
VERTEX
  5
193
  8
2
  6
DASHED
 62
     0
 10
1.15761897150082
 20
3.5
 30
0.0
  0
VERTEX
  5
194
  8
2
  6
DASHED
 62
     0
 10
1.128641951545364
 20
3.5
 30
0.0
  0
VERTEX
  5
195
  8
2
  6
DASHED
 62
     0
 10
1.071001696268204
 20
3.5
 30
0.0
  0
VERTEX
  5
196
  8
2
  6
DASHED
 62
     0
 10
1.013760033828971
 20
3.5
 30
0.0
  0
VERTEX
  5
197
  8
2
  6
DASHED
 62
     0
 10
0.9568936626982698
 20
3.499999999999999
 30
0.0
  0
VERTEX
  5
198
  8
2
  6
DASHED
 62
     0
 10
0.9003797568541655
 20
3.5
 30
0.0
  0
VERTEX
  5
199
  8
2
  6
DASHED
 62
     0
 10
0.8441959334278063
 20
3.5
 30
0.0
  0
VERTEX
  5
19A
  8
2
  6
DASHED
 62
     0
 10
0.8162209214587564
 20
3.5
 30
0.0
  0
VERTEX
  5
19B
  8
2
  6
DASHED
 62
     0
 10
0.7883202215458712
 20
3.5
 30
0.0
  0
VERTEX
  5
19C
  8
2
  6
DASHED
 62
     0
 10
0.7327310322750558
 20
3.5
 30
0.0
  0
VERTEX
  5
19D
  8
2
  6
DASHED
 62
     0
 10
0.6774071295789627
 20
3.5
 30
0.0
  0
VERTEX
  5
19E
  8
2
  6
DASHED
 62
     0
 10
0.6223276022024792
 20
3.5
 30
0.0
  0
VERTEX
  5
19F
  8
2
  6
DASHED
 62
     0
 10
0.5674718364029263
 20
3.5
 30
0.0
  0
VERTEX
  5
1A0
  8
2
  6
DASHED
 62
     0
 10
0.512819489451113
 20
3.5
 30
0.0
  0
VERTEX
  5
1A1
  8
2
  6
DASHED
 62
     0
 10
0.4855633086825271
 20
3.5
 30
0.0
  0
VERTEX
  5
1A2
  8
2
  6
DASHED
 62
     0
 10
0.4583504638289024
 20
3.499999999999999
 30
0.0
  0
VERTEX
  5
1A3
  8
2
  6
DASHED
 62
     0
 10
0.4040448820529763
 20
3.499999999999999
 30
0.0
  0
VERTEX
  5
1A4
  8
2
  6
DASHED
 62
     0
 10
0.3498830620572476
 20
3.5
 30
0.0
  0
VERTEX
  5
1A5
  8
2
  6
DASHED
 62
     0
 10
0.2958454930688422
 20
3.5
 30
0.0
  0
VERTEX
  5
1A6
  8
2
  6
DASHED
 62
     0
 10
0.2419128119146989
 20
3.499999999999999
 30
0.0
  0
VERTEX
  5
1A7
  8
2
  6
DASHED
 62
     0
 10
0.188065779697712
 20
3.500000000000001
 30
0.0
  0
VERTEX
  5
1A8
  8
2
  6
DASHED
 62
     0
 10
0.1611683980980393
 20
3.499999999999999
 30
0.0
  0
VERTEX
  5
1A9
  8
2
  6
DASHED
 62
     0
 10
0.134285258782919
 20
3.5
 30
0.0
  0
VERTEX
  5
1AA
  8
2
  6
DASHED
 62
     0
 10
0.0805521900356015
 20
3.499999999999999
 30
0.0
  0
VERTEX
  5
1AB
  8
2
  6
DASHED
 62
     0
 10
0.0268475702541912
 20
3.499999999999999
 30
0.0
  0
VERTEX
  5
1AC
  8
2
  6
DASHED
 62
     0
 10
-0.0000000000020304
 20
3.5
 30
0.0
  0
VERTEX
  5
1AD
  8
2
  6
DASHED
 62
     0
 10
-0.0268475702582518
 20
3.5
 30
0.0
  0
VERTEX
  5
1AE
  8
2
  6
DASHED
 62
     0
 10
-0.0805521900396598
 20
3.5
 30
0.0
  0
VERTEX
  5
1AF
  8
2
  6
DASHED
 62
     0
 10
-0.1342852587869706
 20
3.5
 30
0.0
  0
VERTEX
  5
1B0
  8
2
  6
DASHED
 62
     0
 10
-0.1611683981020867
 20
3.499999999999999
 30
0.0
  0
VERTEX
  5
1B1
  8
2
  6
DASHED
 62
     0
 10
-0.1880657797017546
 20
3.5
 30
0.0
  0
VERTEX
  5
1B2
  8
2
  6
DASHED
 62
     0
 10
-0.2419128119187298
 20
3.5
 30
0.0
  0
VERTEX
  5
1B3
  8
2
  6
DASHED
 62
     0
 10
-0.2958454930728579
 20
3.499999999999999
 30
0.0
  0
VERTEX
  5
1B4
  8
2
  6
DASHED
 62
     0
 10
-0.3498830620612449
 20
3.5
 30
0.0
  0
VERTEX
  5
1B5
  8
2
  6
DASHED
 62
     0
 10
-0.4040448820569528
 20
3.5
 30
0.0
  0
VERTEX
  5
1B6
  8
2
  6
DASHED
 62
     0
 10
-0.4583504638328557
 20
3.5
 30
0.0
  0
VERTEX
  5
1B7
  8
2
  6
DASHED
 62
     0
 10
-0.4855633086864665
 20
3.499999999999999
 30
0.0
  0
VERTEX
  5
1B8
  8
2
  6
DASHED
 62
     0
 10
-0.5128194894550386
 20
3.5
 30
0.0
  0
VERTEX
  5
1B9
  8
2
  6
DASHED
 62
     0
 10
-0.5674718364068222
 20
3.499999999999999
 30
0.0
  0
VERTEX
  5
1BA
  8
2
  6
DASHED
 62
     0
 10
-0.6223276022063429
 20
3.5
 30
0.0
  0
VERTEX
  5
1BB
  8
2
  6
DASHED
 62
     0
 10
-0.6774071295827907
 20
3.499999999999999
 30
0.0
  0
VERTEX
  5
1BC
  8
2
  6
DASHED
 62
     0
 10
-0.7327310322788453
 20
3.5
 30
0.0
  0
VERTEX
  5
1BD
  8
2
  6
DASHED
 62
     0
 10
-0.7883202215496199
 20
3.5
 30
0.0
  0
VERTEX
  5
1BE
  8
2
  6
DASHED
 62
     0
 10
-0.8162209214624826
 20
3.5
 30
0.0
  0
VERTEX
  5
1BF
  8
2
  6
DASHED
 62
     0
 10
-0.8441959334315096
 20
3.5
 30
0.0
  0
VERTEX
  5
1C0
  8
2
  6
DASHED
 62
     0
 10
-0.900379756857821
 20
3.5
 30
0.0
  0
VERTEX
  5
1C1
  8
2
  6
DASHED
 62
     0
 10
-0.9568936627018755
 20
3.5
 30
0.0
  0
VERTEX
  5
1C2
  8
2
  6
DASHED
 62
     0
 10
-1.013760033832522
 20
3.5
 30
0.0
  0
VERTEX
  5
1C3
  8
2
  6
DASHED
 62
     0
 10
-1.0710016962717
 20
3.5
 30
0.0
  0
VERTEX
  5
1C4
  8
2
  6
DASHED
 62
     0
 10
-1.128641951548801
 20
3.5
 30
0.0
  0
VERTEX
  5
1C5
  8
2
  6
DASHED
 62
     0
 10
-1.157618971504225
 20
3.499999999999999
 30
0.0
  0
VERTEX
  5
1C6
  8
2
  6
DASHED
 62
     0
 10
-1.186704610352281
 20
3.5
 30
0.0
  0
VERTEX
  5
1C7
  8
2
  6
DASHED
 62
     0
 10
-1.245214027585161
 20
3.5
 30
0.0
  0
VERTEX
  5
1C8
  8
2
  6
DASHED
 62
     0
 10
-1.304195138937836
 20
3.5
 30
0.0
  0
VERTEX
  5
1C9
  8
2
  6
DASHED
 62
     0
 10
-1.36367349909913
 20
3.5
 30
0.0
  0
VERTEX
  5
1CA
  8
2
  6
DASHED
 62
     0
 10
-1.423675321734614
 20
3.5
 30
0.0
  0
VERTEX
  5
1CB
  8
2
  6
DASHED
 62
     0
 10
-1.484227521370188
 20
3.5
 30
0.0
  0
VERTEX
  5
1CC
  8
2
  6
DASHED
 62
     0
 10
-1.514718625761742
 20
3.499999999999999
 30
0.0
  0
VERTEX
  5
1CD
  8
2
  6
DASHED
 62
     0
 10
-1.545357757328654
 20
3.5
 30
0.0
  0
VERTEX
  5
1CE
  8
2
  6
DASHED
 62
     0
 10
-1.607094479877733
 20
3.5
 30
0.0
  0
VERTEX
  5
1CF
  8
2
  6
DASHED
 62
     0
 10
-1.669466978759606
 20
3.499999999999999
 30
0.0
  0
VERTEX
  5
1D0
  8
2
  6
DASHED
 62
     0
 10
-1.893221868207179
 20
3.5
 30
0.0
  0
VERTEX
  5
1D1
  8
2
  6
DASHED
 62
     0
 10
-2.092564301694369
 20
3.499999999999999
 30
0.0
  0
VERTEX
  5
1D2
  8
2
  6
DASHED
 62
     0
 10
-2.299905736178342
 20
3.5
 30
0.0
  0
VERTEX
  5
1D3
  8
2
  6
DASHED
 62
     0
 10
-2.743077513916887
 20
3.5
 30
0.0
  0
VERTEX
  5
1D4
  8
2
  6
DASHED
 62
     0
 10
-3.233219871554378
 20
3.5
 30
0.0
  0
VERTEX
  5
1D5
  8
2
  6
DASHED
 62
     0
 10
-3.5
 20
3.5
 30
0.0
  0
SEQEND
  5
188
  8
2
  6
DASHED
 62
     0
  0
LINE
  5
47
  8
2
  6
DASHED
 62
     0
 10
-3.5
 20
-3.5
 30
0.0
 11
-3.5
 21
3.5
 31
0.0
  0
POLYLINE
  5
48
  8
2
  6
DASHED
 62
     0
 66
     1
 10
0.0
 20
0.0
 30
0.0
  0
VERTEX
  5
1D7
  8
2
  6
DASHED
 62
     0
 10
-3.5
 20
3.5
 30
0.0
  0
VERTEX
  5
1D8
  8
2
  6
DASHED
 62
     0
 10
-3.5
 20
3.23321987155399
 30
0.0
  0
VERTEX
  5
1D9
  8
2
  6
DASHED
 62
     0
 10
-3.5
 20
2.743077513915747
 30
0.0
  0
VERTEX
  5
1DA
  8
2
  6
DASHED
 62
     0
 10
-3.5
 20
2.299905736176504
 30
0.0
  0
VERTEX
  5
1DB
  8
2
  6
DASHED
 62
     0
 10
-3.5
 20
2.092564301692212
 30
0.0
  0
VERTEX
  5
1DC
  8
2
  6
DASHED
 62
     0
 10
-3.499999999999999
 20
1.893221868204723
 30
0.0
  0
VERTEX
  5
1DD
  8
2
  6
DASHED
 62
     0
 10
-3.5
 20
1.514718625758762
 30
0.0
  0
VERTEX
  5
1DE
  8
2
  6
DASHED
 62
     0
 10
-3.5
 20
1.304195138934595
 30
0.0
  0
VERTEX
  5
1DF
  8
2
  6
DASHED
 62
     0
 10
-3.5
 20
1.245214027581852
 30
0.0
  0
VERTEX
  5
1E0
  8
2
  6
DASHED
 62
     0
 10
-3.5
 20
1.186704610348908
 30
0.0
  0
VERTEX
  5
1E1
  8
2
  6
DASHED
 62
     0
 10
-3.5
 20
1.15761897150082
 30
0.0
  0
VERTEX
  5
1E2
  8
2
  6
DASHED
 62
     0
 10
-3.5
 20
1.128641951545364
 30
0.0
  0
VERTEX
  5
1E3
  8
2
  6
DASHED
 62
     0
 10
-3.5
 20
1.071001696268204
 30
0.0
  0
VERTEX
  5
1E4
  8
2
  6
DASHED
 62
     0
 10
-3.5
 20
1.013760033828971
 30
0.0
  0
VERTEX
  5
1E5
  8
2
  6
DASHED
 62
     0
 10
-3.499999999999999
 20
0.9568936626982698
 30
0.0
  0
VERTEX
  5
1E6
  8
2
  6
DASHED
 62
     0
 10
-3.5
 20
0.9003797568541655
 30
0.0
  0
VERTEX
  5
1E7
  8
2
  6
DASHED
 62
     0
 10
-3.5
 20
0.8441959334278063
 30
0.0
  0
VERTEX
  5
1E8
  8
2
  6
DASHED
 62
     0
 10
-3.5
 20
0.8162209214587564
 30
0.0
  0
VERTEX
  5
1E9
  8
2
  6
DASHED
 62
     0
 10
-3.5
 20
0.7883202215458712
 30
0.0
  0
VERTEX
  5
1EA
  8
2
  6
DASHED
 62
     0
 10
-3.5
 20
0.7327310322750558
 30
0.0
  0
VERTEX
  5
1EB
  8
2
  6
DASHED
 62
     0
 10
-3.5
 20
0.6774071295789627
 30
0.0
  0
VERTEX
  5
1EC
  8
2
  6
DASHED
 62
     0
 10
-3.5
 20
0.6223276022024792
 30
0.0
  0
VERTEX
  5
1ED
  8
2
  6
DASHED
 62
     0
 10
-3.5
 20
0.5674718364029263
 30
0.0
  0
VERTEX
  5
1EE
  8
2
  6
DASHED
 62
     0
 10
-3.5
 20
0.512819489451113
 30
0.0
  0
VERTEX
  5
1EF
  8
2
  6
DASHED
 62
     0
 10
-3.5
 20
0.4855633086825271
 30
0.0
  0
VERTEX
  5
1F0
  8
2
  6
DASHED
 62
     0
 10
-3.499999999999999
 20
0.4583504638289024
 30
0.0
  0
VERTEX
  5
1F1
  8
2
  6
DASHED
 62
     0
 10
-3.499999999999999
 20
0.4040448820529763
 30
0.0
  0
VERTEX
  5
1F2
  8
2
  6
DASHED
 62
     0
 10
-3.5
 20
0.3498830620572476
 30
0.0
  0
VERTEX
  5
1F3
  8
2
  6
DASHED
 62
     0
 10
-3.5
 20
0.2958454930688422
 30
0.0
  0
VERTEX
  5
1F4
  8
2
  6
DASHED
 62
     0
 10
-3.499999999999999
 20
0.2419128119146989
 30
0.0
  0
VERTEX
  5
1F5
  8
2
  6
DASHED
 62
     0
 10
-3.500000000000001
 20
0.188065779697712
 30
0.0
  0
VERTEX
  5
1F6
  8
2
  6
DASHED
 62
     0
 10
-3.499999999999999
 20
0.1611683980980393
 30
0.0
  0
VERTEX
  5
1F7
  8
2
  6
DASHED
 62
     0
 10
-3.5
 20
0.134285258782919
 30
0.0
  0
VERTEX
  5
1F8
  8
2
  6
DASHED
 62
     0
 10
-3.499999999999999
 20
0.0805521900356015
 30
0.0
  0
VERTEX
  5
1F9
  8
2
  6
DASHED
 62
     0
 10
-3.499999999999999
 20
0.0268475702541912
 30
0.0
  0
VERTEX
  5
1FA
  8
2
  6
DASHED
 62
     0
 10
-3.5
 20
-0.0000000000020304
 30
0.0
  0
VERTEX
  5
1FB
  8
2
  6
DASHED
 62
     0
 10
-3.5
 20
-0.0268475702582518
 30
0.0
  0
VERTEX
  5
1FC
  8
2
  6
DASHED
 62
     0
 10
-3.5
 20
-0.0805521900396598
 30
0.0
  0
VERTEX
  5
1FD
  8
2
  6
DASHED
 62
     0
 10
-3.5
 20
-0.1342852587869706
 30
0.0
  0
VERTEX
  5
1FE
  8
2
  6
DASHED
 62
     0
 10
-3.499999999999999
 20
-0.1611683981020867
 30
0.0
  0
VERTEX
  5
1FF
  8
2
  6
DASHED
 62
     0
 10
-3.5
 20
-0.1880657797017546
 30
0.0
  0
VERTEX
  5
200
  8
2
  6
DASHED
 62
     0
 10
-3.5
 20
-0.2419128119187298
 30
0.0
  0
VERTEX
  5
201
  8
2
  6
DASHED
 62
     0
 10
-3.499999999999999
 20
-0.2958454930728579
 30
0.0
  0
VERTEX
  5
202
  8
2
  6
DASHED
 62
     0
 10
-3.5
 20
-0.3498830620612449
 30
0.0
  0
VERTEX
  5
203
  8
2
  6
DASHED
 62
     0
 10
-3.5
 20
-0.4040448820569528
 30
0.0
  0
VERTEX
  5
204
  8
2
  6
DASHED
 62
     0
 10
-3.5
 20
-0.4583504638328557
 30
0.0
  0
VERTEX
  5
205
  8
2
  6
DASHED
 62
     0
 10
-3.499999999999999
 20
-0.4855633086864665
 30
0.0
  0
VERTEX
  5
206
  8
2
  6
DASHED
 62
     0
 10
-3.5
 20
-0.5128194894550386
 30
0.0
  0
VERTEX
  5
207
  8
2
  6
DASHED
 62
     0
 10
-3.499999999999999
 20
-0.5674718364068222
 30
0.0
  0
VERTEX
  5
208
  8
2
  6
DASHED
 62
     0
 10
-3.5
 20
-0.6223276022063429
 30
0.0
  0
VERTEX
  5
209
  8
2
  6
DASHED
 62
     0
 10
-3.499999999999999
 20
-0.6774071295827907
 30
0.0
  0
VERTEX
  5
20A
  8
2
  6
DASHED
 62
     0
 10
-3.5
 20
-0.7327310322788453
 30
0.0
  0
VERTEX
  5
20B
  8
2
  6
DASHED
 62
     0
 10
-3.5
 20
-0.7883202215496199
 30
0.0
  0
VERTEX
  5
20C
  8
2
  6
DASHED
 62
     0
 10
-3.5
 20
-0.8162209214624826
 30
0.0
  0
VERTEX
  5
20D
  8
2
  6
DASHED
 62
     0
 10
-3.5
 20
-0.8441959334315096
 30
0.0
  0
VERTEX
  5
20E
  8
2
  6
DASHED
 62
     0
 10
-3.5
 20
-0.900379756857821
 30
0.0
  0
VERTEX
  5
20F
  8
2
  6
DASHED
 62
     0
 10
-3.5
 20
-0.9568936627018755
 30
0.0
  0
VERTEX
  5
210
  8
2
  6
DASHED
 62
     0
 10
-3.5
 20
-1.013760033832522
 30
0.0
  0
VERTEX
  5
211
  8
2
  6
DASHED
 62
     0
 10
-3.5
 20
-1.0710016962717
 30
0.0
  0
VERTEX
  5
212
  8
2
  6
DASHED
 62
     0
 10
-3.5
 20
-1.128641951548801
 30
0.0
  0
VERTEX
  5
213
  8
2
  6
DASHED
 62
     0
 10
-3.499999999999999
 20
-1.157618971504225
 30
0.0
  0
VERTEX
  5
214
  8
2
  6
DASHED
 62
     0
 10
-3.5
 20
-1.186704610352281
 30
0.0
  0
VERTEX
  5
215
  8
2
  6
DASHED
 62
     0
 10
-3.5
 20
-1.245214027585161
 30
0.0
  0
VERTEX
  5
216
  8
2
  6
DASHED
 62
     0
 10
-3.5
 20
-1.304195138937836
 30
0.0
  0
VERTEX
  5
217
  8
2
  6
DASHED
 62
     0
 10
-3.5
 20
-1.36367349909913
 30
0.0
  0
VERTEX
  5
218
  8
2
  6
DASHED
 62
     0
 10
-3.5
 20
-1.423675321734614
 30
0.0
  0
VERTEX
  5
219
  8
2
  6
DASHED
 62
     0
 10
-3.5
 20
-1.484227521370188
 30
0.0
  0
VERTEX
  5
21A
  8
2
  6
DASHED
 62
     0
 10
-3.499999999999999
 20
-1.514718625761742
 30
0.0
  0
VERTEX
  5
21B
  8
2
  6
DASHED
 62
     0
 10
-3.5
 20
-1.545357757328654
 30
0.0
  0
VERTEX
  5
21C
  8
2
  6
DASHED
 62
     0
 10
-3.5
 20
-1.607094479877733
 30
0.0
  0
VERTEX
  5
21D
  8
2
  6
DASHED
 62
     0
 10
-3.499999999999999
 20
-1.669466978759606
 30
0.0
  0
VERTEX
  5
21E
  8
2
  6
DASHED
 62
     0
 10
-3.5
 20
-1.893221868207179
 30
0.0
  0
VERTEX
  5
21F
  8
2
  6
DASHED
 62
     0
 10
-3.499999999999999
 20
-2.092564301694369
 30
0.0
  0
VERTEX
  5
220
  8
2
  6
DASHED
 62
     0
 10
-3.5
 20
-2.299905736178342
 30
0.0
  0
VERTEX
  5
221
  8
2
  6
DASHED
 62
     0
 10
-3.5
 20
-2.743077513916887
 30
0.0
  0
VERTEX
  5
222
  8
2
  6
DASHED
 62
     0
 10
-3.5
 20
-3.233219871554378
 30
0.0
  0
VERTEX
  5
223
  8
2
  6
DASHED
 62
     0
 10
-3.5
 20
-3.5
 30
0.0
  0
SEQEND
  5
1D6
  8
2
  6
DASHED
 62
     0
  0
LINE
  5
49
  8
2
  6
DASHED
 62
     0
 10
3.5
 20
-3.5
 30
0.0
 11
-3.5
 21
-3.5
 31
0.0
  0
POLYLINE
  5
4A
  8
2
  6
DASHED
 62
     0
 66
     1
 10
0.0
 20
0.0
 30
0.0
  0
VERTEX
  5
225
  8
2
  6
DASHED
 62
     0
 10
-3.5
 20
-3.5
 30
0.0
  0
VERTEX
  5
226
  8
2
  6
DASHED
 62
     0
 10
-3.23321987155399
 20
-3.5
 30
0.0
  0
VERTEX
  5
227
  8
2
  6
DASHED
 62
     0
 10
-2.743077513915747
 20
-3.5
 30
0.0
  0
VERTEX
  5
228
  8
2
  6
DASHED
 62
     0
 10
-2.299905736176504
 20
-3.5
 30
0.0
  0
VERTEX
  5
229
  8
2
  6
DASHED
 62
     0
 10
-2.092564301692212
 20
-3.5
 30
0.0
  0
VERTEX
  5
22A
  8
2
  6
DASHED
 62
     0
 10
-1.893221868204723
 20
-3.499999999999999
 30
0.0
  0
VERTEX
  5
22B
  8
2
  6
DASHED
 62
     0
 10
-1.514718625758762
 20
-3.5
 30
0.0
  0
VERTEX
  5
22C
  8
2
  6
DASHED
 62
     0
 10
-1.304195138934595
 20
-3.5
 30
0.0
  0
VERTEX
  5
22D
  8
2
  6
DASHED
 62
     0
 10
-1.245214027581852
 20
-3.5
 30
0.0
  0
VERTEX
  5
22E
  8
2
  6
DASHED
 62
     0
 10
-1.186704610348908
 20
-3.5
 30
0.0
  0
VERTEX
  5
22F
  8
2
  6
DASHED
 62
     0
 10
-1.15761897150082
 20
-3.5
 30
0.0
  0
VERTEX
  5
230
  8
2
  6
DASHED
 62
     0
 10
-1.128641951545364
 20
-3.5
 30
0.0
  0
VERTEX
  5
231
  8
2
  6
DASHED
 62
     0
 10
-1.071001696268204
 20
-3.5
 30
0.0
  0
VERTEX
  5
232
  8
2
  6
DASHED
 62
     0
 10
-1.013760033828971
 20
-3.5
 30
0.0
  0
VERTEX
  5
233
  8
2
  6
DASHED
 62
     0
 10
-0.9568936626982698
 20
-3.499999999999999
 30
0.0
  0
VERTEX
  5
234
  8
2
  6
DASHED
 62
     0
 10
-0.9003797568541655
 20
-3.5
 30
0.0
  0
VERTEX
  5
235
  8
2
  6
DASHED
 62
     0
 10
-0.8441959334278063
 20
-3.5
 30
0.0
  0
VERTEX
  5
236
  8
2
  6
DASHED
 62
     0
 10
-0.8162209214587564
 20
-3.5
 30
0.0
  0
VERTEX
  5
237
  8
2
  6
DASHED
 62
     0
 10
-0.7883202215458712
 20
-3.5
 30
0.0
  0
VERTEX
  5
238
  8
2
  6
DASHED
 62
     0
 10
-0.7327310322750558
 20
-3.5
 30
0.0
  0
VERTEX
  5
239
  8
2
  6
DASHED
 62
     0
 10
-0.6774071295789627
 20
-3.5
 30
0.0
  0
VERTEX
  5
23A
  8
2
  6
DASHED
 62
     0
 10
-0.6223276022024792
 20
-3.5
 30
0.0
  0
VERTEX
  5
23B
  8
2
  6
DASHED
 62
     0
 10
-0.5674718364029263
 20
-3.5
 30
0.0
  0
VERTEX
  5
23C
  8
2
  6
DASHED
 62
     0
 10
-0.512819489451113
 20
-3.5
 30
0.0
  0
VERTEX
  5
23D
  8
2
  6
DASHED
 62
     0
 10
-0.4855633086825271
 20
-3.5
 30
0.0
  0
VERTEX
  5
23E
  8
2
  6
DASHED
 62
     0
 10
-0.4583504638289024
 20
-3.499999999999999
 30
0.0
  0
VERTEX
  5
23F
  8
2
  6
DASHED
 62
     0
 10
-0.4040448820529763
 20
-3.499999999999999
 30
0.0
  0
VERTEX
  5
240
  8
2
  6
DASHED
 62
     0
 10
-0.3498830620572476
 20
-3.5
 30
0.0
  0
VERTEX
  5
241
  8
2
  6
DASHED
 62
     0
 10
-0.2958454930688422
 20
-3.5
 30
0.0
  0
VERTEX
  5
242
  8
2
  6
DASHED
 62
     0
 10
-0.2419128119146989
 20
-3.499999999999999
 30
0.0
  0
VERTEX
  5
243
  8
2
  6
DASHED
 62
     0
 10
-0.188065779697712
 20
-3.500000000000001
 30
0.0
  0
VERTEX
  5
244
  8
2
  6
DASHED
 62
     0
 10
-0.1611683980980393
 20
-3.499999999999999
 30
0.0
  0
VERTEX
  5
245
  8
2
  6
DASHED
 62
     0
 10
-0.134285258782919
 20
-3.5
 30
0.0
  0
VERTEX
  5
246
  8
2
  6
DASHED
 62
     0
 10
-0.0805521900356015
 20
-3.499999999999999
 30
0.0
  0
VERTEX
  5
247
  8
2
  6
DASHED
 62
     0
 10
-0.0268475702541912
 20
-3.499999999999999
 30
0.0
  0
VERTEX
  5
248
  8
2
  6
DASHED
 62
     0
 10
0.0000000000020304
 20
-3.5
 30
0.0
  0
VERTEX
  5
249
  8
2
  6
DASHED
 62
     0
 10
0.0268475702582518
 20
-3.5
 30
0.0
  0
VERTEX
  5
24A
  8
2
  6
DASHED
 62
     0
 10
0.0805521900396598
 20
-3.5
 30
0.0
  0
VERTEX
  5
24B
  8
2
  6
DASHED
 62
     0
 10
0.1342852587869706
 20
-3.5
 30
0.0
  0
VERTEX
  5
24C
  8
2
  6
DASHED
 62
     0
 10
0.1611683981020867
 20
-3.499999999999999
 30
0.0
  0
VERTEX
  5
24D
  8
2
  6
DASHED
 62
     0
 10
0.1880657797017546
 20
-3.5
 30
0.0
  0
VERTEX
  5
24E
  8
2
  6
DASHED
 62
     0
 10
0.2419128119187298
 20
-3.5
 30
0.0
  0
VERTEX
  5
24F
  8
2
  6
DASHED
 62
     0
 10
0.2958454930728579
 20
-3.499999999999999
 30
0.0
  0
VERTEX
  5
250
  8
2
  6
DASHED
 62
     0
 10
0.3498830620612449
 20
-3.5
 30
0.0
  0
VERTEX
  5
251
  8
2
  6
DASHED
 62
     0
 10
0.4040448820569528
 20
-3.5
 30
0.0
  0
VERTEX
  5
252
  8
2
  6
DASHED
 62
     0
 10
0.4583504638328557
 20
-3.5
 30
0.0
  0
VERTEX
  5
253
  8
2
  6
DASHED
 62
     0
 10
0.4855633086864665
 20
-3.499999999999999
 30
0.0
  0
VERTEX
  5
254
  8
2
  6
DASHED
 62
     0
 10
0.5128194894550386
 20
-3.5
 30
0.0
  0
VERTEX
  5
255
  8
2
  6
DASHED
 62
     0
 10
0.5674718364068222
 20
-3.499999999999999
 30
0.0
  0
VERTEX
  5
256
  8
2
  6
DASHED
 62
     0
 10
0.6223276022063429
 20
-3.5
 30
0.0
  0
VERTEX
  5
257
  8
2
  6
DASHED
 62
     0
 10
0.6774071295827907
 20
-3.499999999999999
 30
0.0
  0
VERTEX
  5
258
  8
2
  6
DASHED
 62
     0
 10
0.7327310322788453
 20
-3.5
 30
0.0
  0
VERTEX
  5
259
  8
2
  6
DASHED
 62
     0
 10
0.7883202215496199
 20
-3.5
 30
0.0
  0
VERTEX
  5
25A
  8
2
  6
DASHED
 62
     0
 10
0.8162209214624826
 20
-3.5
 30
0.0
  0
VERTEX
  5
25B
  8
2
  6
DASHED
 62
     0
 10
0.8441959334315096
 20
-3.5
 30
0.0
  0
VERTEX
  5
25C
  8
2
  6
DASHED
 62
     0
 10
0.900379756857821
 20
-3.5
 30
0.0
  0
VERTEX
  5
25D
  8
2
  6
DASHED
 62
     0
 10
0.9568936627018755
 20
-3.5
 30
0.0
  0
VERTEX
  5
25E
  8
2
  6
DASHED
 62
     0
 10
1.013760033832522
 20
-3.5
 30
0.0
  0
VERTEX
  5
25F
  8
2
  6
DASHED
 62
     0
 10
1.0710016962717
 20
-3.5
 30
0.0
  0
VERTEX
  5
260
  8
2
  6
DASHED
 62
     0
 10
1.128641951548801
 20
-3.5
 30
0.0
  0
VERTEX
  5
261
  8
2
  6
DASHED
 62
     0
 10
1.157618971504225
 20
-3.499999999999999
 30
0.0
  0
VERTEX
  5
262
  8
2
  6
DASHED
 62
     0
 10
1.186704610352281
 20
-3.5
 30
0.0
  0
VERTEX
  5
263
  8
2
  6
DASHED
 62
     0
 10
1.245214027585161
 20
-3.5
 30
0.0
  0
VERTEX
  5
264
  8
2
  6
DASHED
 62
     0
 10
1.304195138937836
 20
-3.5
 30
0.0
  0
VERTEX
  5
265
  8
2
  6
DASHED
 62
     0
 10
1.36367349909913
 20
-3.5
 30
0.0
  0
VERTEX
  5
266
  8
2
  6
DASHED
 62
     0
 10
1.423675321734614
 20
-3.5
 30
0.0
  0
VERTEX
  5
267
  8
2
  6
DASHED
 62
     0
 10
1.484227521370188
 20
-3.5
 30
0.0
  0
VERTEX
  5
268
  8
2
  6
DASHED
 62
     0
 10
1.514718625761742
 20
-3.499999999999999
 30
0.0
  0
VERTEX
  5
269
  8
2
  6
DASHED
 62
     0
 10
1.545357757328654
 20
-3.5
 30
0.0
  0
VERTEX
  5
26A
  8
2
  6
DASHED
 62
     0
 10
1.607094479877733
 20
-3.5
 30
0.0
  0
VERTEX
  5
26B
  8
2
  6
DASHED
 62
     0
 10
1.669466978759606
 20
-3.499999999999999
 30
0.0
  0
VERTEX
  5
26C
  8
2
  6
DASHED
 62
     0
 10
1.893221868207179
 20
-3.5
 30
0.0
  0
VERTEX
  5
26D
  8
2
  6
DASHED
 62
     0
 10
2.092564301694369
 20
-3.499999999999999
 30
0.0
  0
VERTEX
  5
26E
  8
2
  6
DASHED
 62
     0
 10
2.299905736178342
 20
-3.5
 30
0.0
  0
VERTEX
  5
26F
  8
2
  6
DASHED
 62
     0
 10
2.743077513916887
 20
-3.5
 30
0.0
  0
VERTEX
  5
270
  8
2
  6
DASHED
 62
     0
 10
3.233219871554378
 20
-3.5
 30
0.0
  0
VERTEX
  5
271
  8
2
  6
DASHED
 62
     0
 10
3.5
 20
-3.5
 30
0.0
  0
SEQEND
  5
224
  8
2
  6
DASHED
 62
     0
  0
CIRCLE
  5
4B
  8
2
  6
DASHED
 62
     0
 10
-0.0000000000000001
 20
0.0
 30
0.0
 40
2.067
  0
POLYLINE
  5
4C
  8
2
  6
DASHED
 62
     0
 66
     1
 10
0.0
 20
0.0
 30
0.0
  0
VERTEX
  5
273
  8
2
  6
DASHED
 62
     0
 10
2.300000000000001
 20
-7.662245101796209
 30
0.0
  0
VERTEX
  5
274
  8
2
  6
DASHED
 62
     0
 10
2.29977233812456
 20
-7.662313436084242
 30
0.0
  0
VERTEX
  5
275
  8
2
  6
DASHED
 62
     0
 10
2.297933009848286
 20
-7.66286525277912
 30
0.0
  0
VERTEX
  5
276
  8
2
  6
DASHED
 62
     0
 10
2.294212309536757
 20
-7.663980028599371
 30
0.0
  0
VERTEX
  5
277
  8
2
  6
DASHED
 62
     0
 10
2.291634771250976
 20
-7.664751142417704
 30
0.0
  0
VERTEX
  5
278
  8
2
  6
DASHED
 62
     0
 10
2.288573865559204
 20
-7.665665637234604
 30
0.0
  0
VERTEX
  5
279
  8
2
  6
DASHED
 62
     0
 10
2.28098914916126
 20
-7.66792595826333
 30
0.0
  0
VERTEX
  5
27A
  8
2
  6
DASHED
 62
     0
 10
2.27143730453903
 20
-7.670760886088711
 30
0.0
  0
VERTEX
  5
27B
  8
2
  6
DASHED
 62
     0
 10
2.259904799516848
 20
-7.674166423600723
 30
0.0
  0
VERTEX
  5
27C
  8
2
  6
DASHED
 62
     0
 10
2.246384916868465
 20
-7.678134851984944
 30
0.0
  0
VERTEX
  5
27D
  8
2
  6
DASHED
 62
     0
 10
2.23087761748169
 20
-7.682654818213509
 30
0.0
  0
VERTEX
  5
27E
  8
2
  6
DASHED
 62
     0
 10
2.22238062450411
 20
-7.685117068713314
 30
0.0
  0
VERTEX
  5
27F
  8
2
  6
DASHED
 62
     0
 10
2.213390003125618
 20
-7.687711278011394
 30
0.0
  0
VERTEX
  5
280
  8
2
  6
DASHED
 62
     0
 10
2.193936324565033
 20
-7.693285605237472
 30
0.0
  0
VERTEX
  5
281
  8
2
  6
DASHED
 62
     0
 10
2.172537746354212
 20
-7.699355800368377
 30
0.0
  0
VERTEX
  5
282
  8
2
  6
DASHED
 62
     0
 10
2.149221970989167
 20
-7.705896762831531
 30
0.0
  0
VERTEX
  5
283
  8
2
  6
DASHED
 62
     0
 10
2.124022727828902
 20
-7.712880619565318
 30
0.0
  0
VERTEX
  5
284
  8
2
  6
DASHED
 62
     0
 10
2.096972327607498
 20
-7.72027894944531
 30
0.0
  0
VERTEX
  5
285
  8
2
  6
DASHED
 62
     0
 10
2.082763628161217
 20
-7.724124265520897
 30
0.0
  0
VERTEX
  5
286
  8
2
  6
DASHED
 62
     0
 10
2.068106982156174
 20
-7.728061432879328
 30
0.0
  0
VERTEX
  5
287
  8
2
  6
DASHED
 62
     0
 10
2.037475485107555
 20
-7.736193744186202
 30
0.0
  0
VERTEX
  5
288
  8
2
  6
DASHED
 62
     0
 10
2.005133085631535
 20
-7.744639520914176
 30
0.0
  0
VERTEX
  5
289
  8
2
  6
DASHED
 62
     0
 10
1.98833924306267
 20
-7.748968128370188
 30
0.0
  0
VERTEX
  5
28A
  8
2
  6
DASHED
 62
     0
 10
1.971141134499934
 20
-7.753360731185047
 30
0.0
  0
VERTEX
  5
28B
  8
2
  6
DASHED
 62
     0
 10
1.93556662675318
 20
-7.762318070872857
 30
0.0
  0
VERTEX
  5
28C
  8
2
  6
DASHED
 62
     0
 10
1.898481642107868
 20
-7.771471382857909
 30
0.0
  0
VERTEX
  5
28D
  8
2
  6
DASHED
 62
     0
 10
1.879396511911595
 20
-7.776108843825074
 30
0.0
  0
VERTEX
  5
28E
  8
2
  6
DASHED
 62
     0
 10
1.859962990398985
 20
-7.780780017089937
 30
0.0
  0
VERTEX
  5
28F
  8
2
  6
DASHED
 62
     0
 10
1.820093377807068
 20
-7.790202827658781
 30
0.0
  0
VERTEX
  5
290
  8
2
  6
DASHED
 62
     0
 10
1.778962103471736
 20
-7.799698316884534
 30
0.0
  0
VERTEX
  5
291
  8
2
  6
DASHED
 62
     0
 10
1.736664738476461
 20
-7.809225031085511
 30
0.0
  0
VERTEX
  5
292
  8
2
  6
DASHED
 62
     0
 10
1.693302663074236
 20
-7.818741976253324
 30
0.0
  0
VERTEX
  5
293
  8
2
  6
DASHED
 62
     0
 10
1.648982503819207
 20
-7.828209035411494
 30
0.0
  0
VERTEX
  5
294
  8
2
  6
DASHED
 62
     0
 10
1.626497735533812
 20
-7.832911662740962
 30
0.0
  0
VERTEX
  5
295
  8
2
  6
DASHED
 62
     0
 10
1.603698871544165
 20
-7.837611238726247
 30
0.0
  0
VERTEX
  5
296
  8
2
  6
DASHED
 62
     0
 10
1.556829402912367
 20
-7.84705563955217
 30
0.0
  0
VERTEX
  5
297
  8
2
  6
DASHED
 62
     0
 10
1.508301681400187
 20
-7.85652760689386
 30
0.0
  0
VERTEX
  5
298
  8
2
  6
DASHED
 62
     0
 10
1.458165886677701
 20
-7.865987048484725
 30
0.0
  0
VERTEX
  5
299
  8
2
  6
DASHED
 62
     0
 10
1.40647759293228
 20
-7.875393373069021
 30
0.0
  0
VERTEX
  5
29A
  8
2
  6
DASHED
 62
     0
 10
1.353296979188821
 20
-7.884705909932114
 30
0.0
  0
VERTEX
  5
29B
  8
2
  6
DASHED
 62
     0
 10
1.326166901988658
 20
-7.889314377566014
 30
0.0
  0
VERTEX
  5
29C
  8
2
  6
DASHED
 62
     0
 10
1.298687945462314
 20
-7.893884317641782
 30
0.0
  0
VERTEX
  5
29D
  8
2
  6
DASHED
 62
     0
 10
1.242717190998123
 20
-7.902888964372317
 30
0.0
  0
VERTEX
  5
29E
  8
2
  6
DASHED
 62
     0
 10
1.185454734150294
 20
-7.911681052297335
 30
0.0
  0
VERTEX
  5
29F
  8
2
  6
DASHED
 62
     0
 10
1.126975679073799
 20
-7.920222586441379
 30
0.0
  0
VERTEX
  5
2A0
  8
2
  6
DASHED
 62
     0
 10
1.067359933592338
 20
-7.928476699351633
 30
0.0
  0
VERTEX
  5
2A1
  8
2
  6
DASHED
 62
     0
 10
1.006691413729406
 20
-7.936408028669108
 30
0.0
  0
VERTEX
  5
2A2
  8
2
  6
DASHED
 62
     0
 10
0.9759894692800836
 20
-7.94024209680375
 30
0.0
  0
VERTEX
  5
2A3
  8
2
  6
DASHED
 62
     0
 10
0.94505716735058
 20
-7.943983065845451
 30
0.0
  0
VERTEX
  5
2A4
  8
2
  6
DASHED
 62
     0
 10
0.8825464085291775
 20
-7.951170469609632
 30
0.0
  0
VERTEX
  5
2A5
  8
2
  6
DASHED
 62
     0
 10
0.8192340811263943
 20
-7.957942920147204
 30
0.0
  0
VERTEX
  5
2A6
  8
2
  6
DASHED
 62
     0
 10
0.7551972905862979
 20
-7.964275048759374
 30
0.0
  0
VERTEX
  5
2A7
  8
2
  6
DASHED
 62
     0
 10
0.6905329737523095
 20
-7.970142044666506
 30
0.0
  0
VERTEX
  5
2A8
  8
2
  6
DASHED
 62
     0
 10
0.6253417562429413
 20
-7.975521781545018
 30
0.0
  0
VERTEX
  5
2A9
  8
2
  6
DASHED
 62
     0
 10
0.5925807716521606
 20
-7.978022814524168
 30
0.0
  0
VERTEX
  5
2AA
  8
2
  6
DASHED
 62
     0
 10
0.5597269622898463
 20
-7.980395085939404
 30
0.0
  0
VERTEX
  5
2AB
  8
2
  6
DASHED
 62
     0
 10
0.4937935536399148
 20
-7.984745952526208
 30
0.0
  0
VERTEX
  5
2AC
  8
2
  6
DASHED
 62
     0
 10
0.4276469933096799
 20
-7.988561700901684
 30
0.0
  0
VERTEX
  5
2AD
  8
2
  6
DASHED
 62
     0
 10
0.3613926225270339
 20
-7.991833042073829
 30
0.0
  0
VERTEX
  5
2AE
  8
2
  6
DASHED
 62
     0
 10
0.2951380249478093
 20
-7.994553992952321
 30
0.0
  0
VERTEX
  5
2AF
  8
2
  6
DASHED
 62
     0
 10
0.2289940798788284
 20
-7.99672193535454
 30
0.0
  0
VERTEX
  5
2B0
  8
2
  6
DASHED
 62
     0
 10
0.1959988880831349
 20
-7.997598666841828
 30
0.0
  0
VERTEX
  5
2B1
  8
2
  6
DASHED
 62
     0
 10
0.1630738730179137
 20
-7.998337759305927
 30
0.0
  0
VERTEX
  5
2B2
  8
2
  6
DASHED
 62
     0
 10
0.0974914867984045
 20
-7.999405941068489
 30
0.0
  0
VERTEX
  5
2B3
  8
2
  6
DASHED
 62
     0
 10
0.0323607722486415
 20
-7.999934548508474
 30
0.0
  0
VERTEX
  5
2B4
  8
2
  6
DASHED
 62
     0
 10
0.0000000000000008
 20
-8.0
 30
0.0
  0
VERTEX
  5
2B5
  8
2
  6
DASHED
 62
     0
 10
-0.0323607722486399
 20
-7.999934548508474
 30
0.0
  0
VERTEX
  5
2B6
  8
2
  6
DASHED
 62
     0
 10
-0.0974914867984034
 20
-7.999405941068489
 30
0.0
  0
VERTEX
  5
2B7
  8
2
  6
DASHED
 62
     0
 10
-0.1630738730179125
 20
-7.998337759305927
 30
0.0
  0
VERTEX
  5
2B8
  8
2
  6
DASHED
 62
     0
 10
-0.1959988880831338
 20
-7.997598666841828
 30
0.0
  0
VERTEX
  5
2B9
  8
2
  6
DASHED
 62
     0
 10
-0.2289940798788285
 20
-7.99672193535454
 30
0.0
  0
VERTEX
  5
2BA
  8
2
  6
DASHED
 62
     0
 10
-0.295138024947809
 20
-7.994553992952321
 30
0.0
  0
VERTEX
  5
2BB
  8
2
  6
DASHED
 62
     0
 10
-0.3613926225270332
 20
-7.991833042073829
 30
0.0
  0
VERTEX
  5
2BC
  8
2
  6
DASHED
 62
     0
 10
-0.4276469933096788
 20
-7.988561700901684
 30
0.0
  0
VERTEX
  5
2BD
  8
2
  6
DASHED
 62
     0
 10
-0.493793553639913
 20
-7.984745952526208
 30
0.0
  0
VERTEX
  5
2BE
  8
2
  6
DASHED
 62
     0
 10
-0.5597269622898458
 20
-7.980395085939404
 30
0.0
  0
VERTEX
  5
2BF
  8
2
  6
DASHED
 62
     0
 10
-0.5925807716521593
 20
-7.978022814524168
 30
0.0
  0
VERTEX
  5
2C0
  8
2
  6
DASHED
 62
     0
 10
-0.6253417562429413
 20
-7.975521781545018
 30
0.0
  0
VERTEX
  5
2C1
  8
2
  6
DASHED
 62
     0
 10
-0.6905329737523102
 20
-7.970142044666505
 30
0.0
  0
VERTEX
  5
2C2
  8
2
  6
DASHED
 62
     0
 10
-0.7551972905862988
 20
-7.964275048759373
 30
0.0
  0
VERTEX
  5
2C3
  8
2
  6
DASHED
 62
     0
 10
-0.819234081126391
 20
-7.957942920147204
 30
0.0
  0
VERTEX
  5
2C4
  8
2
  6
DASHED
 62
     0
 10
-0.8825464085291772
 20
-7.951170469609632
 30
0.0
  0
VERTEX
  5
2C5
  8
2
  6
DASHED
 62
     0
 10
-0.9450571673505765
 20
-7.943983065845452
 30
0.0
  0
VERTEX
  5
2C6
  8
2
  6
DASHED
 62
     0
 10
-0.9759894692800819
 20
-7.94024209680375
 30
0.0
  0
VERTEX
  5
2C7
  8
2
  6
DASHED
 62
     0
 10
-1.006691413729404
 20
-7.936408028669108
 30
0.0
  0
VERTEX
  5
2C8
  8
2
  6
DASHED
 62
     0
 10
-1.067359933592339
 20
-7.928476699351633
 30
0.0
  0
VERTEX
  5
2C9
  8
2
  6
DASHED
 62
     0
 10
-1.126975679073796
 20
-7.920222586441379
 30
0.0
  0
VERTEX
  5
2CA
  8
2
  6
DASHED
 62
     0
 10
-1.185454734150293
 20
-7.911681052297334
 30
0.0
  0
VERTEX
  5
2CB
  8
2
  6
DASHED
 62
     0
 10
-1.242717190998126
 20
-7.902888964372317
 30
0.0
  0
VERTEX
  5
2CC
  8
2
  6
DASHED
 62
     0
 10
-1.298687945462314
 20
-7.893884317641784
 30
0.0
  0
VERTEX
  5
2CD
  8
2
  6
DASHED
 62
     0
 10
-1.326166901988659
 20
-7.889314377566013
 30
0.0
  0
VERTEX
  5
2CE
  8
2
  6
DASHED
 62
     0
 10
-1.35329697918882
 20
-7.884705909932116
 30
0.0
  0
VERTEX
  5
2CF
  8
2
  6
DASHED
 62
     0
 10
-1.406477592932284
 20
-7.875393373069019
 30
0.0
  0
VERTEX
  5
2D0
  8
2
  6
DASHED
 62
     0
 10
-1.458165886677703
 20
-7.865987048484725
 30
0.0
  0
VERTEX
  5
2D1
  8
2
  6
DASHED
 62
     0
 10
-1.508301681400182
 20
-7.856527606893861
 30
0.0
  0
VERTEX
  5
2D2
  8
2
  6
DASHED
 62
     0
 10
-1.556829402912369
 20
-7.84705563955217
 30
0.0
  0
VERTEX
  5
2D3
  8
2
  6
DASHED
 62
     0
 10
-1.603698871544165
 20
-7.837611238726248
 30
0.0
  0
VERTEX
  5
2D4
  8
2
  6
DASHED
 62
     0
 10
-1.626497735533812
 20
-7.832911662740962
 30
0.0
  0
VERTEX
  5
2D5
  8
2
  6
DASHED
 62
     0
 10
-1.648982503819206
 20
-7.828209035411494
 30
0.0
  0
VERTEX
  5
2D6
  8
2
  6
DASHED
 62
     0
 10
-1.693302663074235
 20
-7.818741976253324
 30
0.0
  0
VERTEX
  5
2D7
  8
2
  6
DASHED
 62
     0
 10
-1.736664738476461
 20
-7.809225031085511
 30
0.0
  0
VERTEX
  5
2D8
  8
2
  6
DASHED
 62
     0
 10
-1.778962103471735
 20
-7.799698316884534
 30
0.0
  0
VERTEX
  5
2D9
  8
2
  6
DASHED
 62
     0
 10
-1.820093377807064
 20
-7.790202827658781
 30
0.0
  0
VERTEX
  5
2DA
  8
2
  6
DASHED
 62
     0
 10
-1.859962990398985
 20
-7.780780017089936
 30
0.0
  0
VERTEX
  5
2DB
  8
2
  6
DASHED
 62
     0
 10
-1.879396511911593
 20
-7.776108843825075
 30
0.0
  0
VERTEX
  5
2DC
  8
2
  6
DASHED
 62
     0
 10
-1.898481642107868
 20
-7.771471382857909
 30
0.0
  0
VERTEX
  5
2DD
  8
2
  6
DASHED
 62
     0
 10
-1.935566626753182
 20
-7.762318070872857
 30
0.0
  0
VERTEX
  5
2DE
  8
2
  6
DASHED
 62
     0
 10
-1.971141134499931
 20
-7.753360731185047
 30
0.0
  0
VERTEX
  5
2DF
  8
2
  6
DASHED
 62
     0
 10
-1.988339243062665
 20
-7.74896812837019
 30
0.0
  0
VERTEX
  5
2E0
  8
2
  6
DASHED
 62
     0
 10
-2.005133085631533
 20
-7.744639520914176
 30
0.0
  0
VERTEX
  5
2E1
  8
2
  6
DASHED
 62
     0
 10
-2.037475485107557
 20
-7.736193744186203
 30
0.0
  0
VERTEX
  5
2E2
  8
2
  6
DASHED
 62
     0
 10
-2.06810698215617
 20
-7.728061432879329
 30
0.0
  0
VERTEX
  5
2E3
  8
2
  6
DASHED
 62
     0
 10
-2.082763628161215
 20
-7.724124265520896
 30
0.0
  0
VERTEX
  5
2E4
  8
2
  6
DASHED
 62
     0
 10
-2.096972327607496
 20
-7.720278949445311
 30
0.0
  0
VERTEX
  5
2E5
  8
2
  6
DASHED
 62
     0
 10
-2.124022727828902
 20
-7.712880619565317
 30
0.0
  0
VERTEX
  5
2E6
  8
2
  6
DASHED
 62
     0
 10
-2.149221970989163
 20
-7.705896762831531
 30
0.0
  0
VERTEX
  5
2E7
  8
2
  6
DASHED
 62
     0
 10
-2.172537746354212
 20
-7.699355800368378
 30
0.0
  0
VERTEX
  5
2E8
  8
2
  6
DASHED
 62
     0
 10
-2.193936324565031
 20
-7.693285605237472
 30
0.0
  0
VERTEX
  5
2E9
  8
2
  6
DASHED
 62
     0
 10
-2.21339000312562
 20
-7.687711278011394
 30
0.0
  0
VERTEX
  5
2EA
  8
2
  6
DASHED
 62
     0
 10
-2.22238062450411
 20
-7.685117068713315
 30
0.0
  0
VERTEX
  5
2EB
  8
2
  6
DASHED
 62
     0
 10
-2.23087761748169
 20
-7.682654818213509
 30
0.0
  0
VERTEX
  5
2EC
  8
2
  6
DASHED
 62
     0
 10
-2.246384916868465
 20
-7.678134851984945
 30
0.0
  0
VERTEX
  5
2ED
  8
2
  6
DASHED
 62
     0
 10
-2.259904799516848
 20
-7.674166423600725
 30
0.0
  0
VERTEX
  5
2EE
  8
2
  6
DASHED
 62
     0
 10
-2.271437304539029
 20
-7.670760886088712
 30
0.0
  0
VERTEX
  5
2EF
  8
2
  6
DASHED
 62
     0
 10
-2.28098914916126
 20
-7.66792595826333
 30
0.0
  0
VERTEX
  5
2F0
  8
2
  6
DASHED
 62
     0
 10
-2.288573865559203
 20
-7.665665637234604
 30
0.0
  0
VERTEX
  5
2F1
  8
2
  6
DASHED
 62
     0
 10
-2.291634771250976
 20
-7.664751142417704
 30
0.0
  0
VERTEX
  5
2F2
  8
2
  6
DASHED
 62
     0
 10
-2.294212309536757
 20
-7.663980028599371
 30
0.0
  0
VERTEX
  5
2F3
  8
2
  6
DASHED
 62
     0
 10
-2.297933009848286
 20
-7.66286525277912
 30
0.0
  0
VERTEX
  5
2F4
  8
2
  6
DASHED
 62
     0
 10
-2.29977233812456
 20
-7.662313436084241
 30
0.0
  0
VERTEX
  5
2F5
  8
2
  6
DASHED
 62
     0
 10
-2.300000000000001
 20
-7.662245101796209
 30
0.0
  0
SEQEND
  5
272
  8
2
  6
DASHED
 62
     0
  0
POLYLINE
  5
4D
  8
2
  6
DASHED
 62
     0
 66
     1
 10
0.0
 20
0.0
 30
0.0
  0
VERTEX
  5
2F7
  8
2
  6
DASHED
 62
     0
 10
-2.300000000000001
 20
-7.662245101796209
 30
0.0
  0
VERTEX
  5
2F8
  8
2
  6
DASHED
 62
     0
 10
-2.29977233812456
 20
-7.662313436084242
 30
0.0
  0
VERTEX
  5
2F9
  8
2
  6
DASHED
 62
     0
 10
-2.297933009848286
 20
-7.66286525277912
 30
0.0
  0
VERTEX
  5
2FA
  8
2
  6
DASHED
 62
     0
 10
-2.294212309536756
 20
-7.663980028599371
 30
0.0
  0
VERTEX
  5
2FB
  8
2
  6
DASHED
 62
     0
 10
-2.291634771250976
 20
-7.664751142417704
 30
0.0
  0
VERTEX
  5
2FC
  8
2
  6
DASHED
 62
     0
 10
-2.288573865559204
 20
-7.665665637234604
 30
0.0
  0
VERTEX
  5
2FD
  8
2
  6
DASHED
 62
     0
 10
-2.28098914916126
 20
-7.66792595826333
 30
0.0
  0
VERTEX
  5
2FE
  8
2
  6
DASHED
 62
     0
 10
-2.271437304539031
 20
-7.67076088608871
 30
0.0
  0
VERTEX
  5
2FF
  8
2
  6
DASHED
 62
     0
 10
-2.259904799516848
 20
-7.674166423600723
 30
0.0
  0
VERTEX
  5
300
  8
2
  6
DASHED
 62
     0
 10
-2.246384916868466
 20
-7.678134851984944
 30
0.0
  0
VERTEX
  5
301
  8
2
  6
DASHED
 62
     0
 10
-2.230877617481691
 20
-7.682654818213508
 30
0.0
  0
VERTEX
  5
302
  8
2
  6
DASHED
 62
     0
 10
-2.22238062450411
 20
-7.685117068713315
 30
0.0
  0
VERTEX
  5
303
  8
2
  6
DASHED
 62
     0
 10
-2.21339000312562
 20
-7.687711278011394
 30
0.0
  0
VERTEX
  5
304
  8
2
  6
DASHED
 62
     0
 10
-2.193936324565031
 20
-7.693285605237471
 30
0.0
  0
VERTEX
  5
305
  8
2
  6
DASHED
 62
     0
 10
-2.172537746354211
 20
-7.699355800368377
 30
0.0
  0
VERTEX
  5
306
  8
2
  6
DASHED
 62
     0
 10
-2.149221970989167
 20
-7.705896762831529
 30
0.0
  0
VERTEX
  5
307
  8
2
  6
DASHED
 62
     0
 10
-2.124022727828901
 20
-7.712880619565318
 30
0.0
  0
VERTEX
  5
308
  8
2
  6
DASHED
 62
     0
 10
-2.096972327607499
 20
-7.72027894944531
 30
0.0
  0
VERTEX
  5
309
  8
2
  6
DASHED
 62
     0
 10
-2.082763628161219
 20
-7.724124265520896
 30
0.0
  0
VERTEX
  5
30A
  8
2
  6
DASHED
 62
     0
 10
-2.06810698215617
 20
-7.72806143287933
 30
0.0
  0
VERTEX
  5
30B
  8
2
  6
DASHED
 62
     0
 10
-2.037475485107556
 20
-7.736193744186202
 30
0.0
  0
VERTEX
  5
30C
  8
2
  6
DASHED
 62
     0
 10
-2.005133085631532
 20
-7.744639520914177
 30
0.0
  0
VERTEX
  5
30D
  8
2
  6
DASHED
 62
     0
 10
-1.98833924306267
 20
-7.748968128370188
 30
0.0
  0
VERTEX
  5
30E
  8
2
  6
DASHED
 62
     0
 10
-1.971141134499931
 20
-7.753360731185047
 30
0.0
  0
VERTEX
  5
30F
  8
2
  6
DASHED
 62
     0
 10
-1.935566626753182
 20
-7.762318070872857
 30
0.0
  0
VERTEX
  5
310
  8
2
  6
DASHED
 62
     0
 10
-1.898481642107873
 20
-7.771471382857908
 30
0.0
  0
VERTEX
  5
311
  8
2
  6
DASHED
 62
     0
 10
-1.879396511911595
 20
-7.776108843825074
 30
0.0
  0
VERTEX
  5
312
  8
2
  6
DASHED
 62
     0
 10
-1.859962990398986
 20
-7.780780017089937
 30
0.0
  0
VERTEX
  5
313
  8
2
  6
DASHED
 62
     0
 10
-1.820093377807066
 20
-7.790202827658781
 30
0.0
  0
VERTEX
  5
314
  8
2
  6
DASHED
 62
     0
 10
-1.77896210347174
 20
-7.799698316884533
 30
0.0
  0
VERTEX
  5
315
  8
2
  6
DASHED
 62
     0
 10
-1.736664738476461
 20
-7.809225031085511
 30
0.0
  0
VERTEX
  5
316
  8
2
  6
DASHED
 62
     0
 10
-1.693302663074237
 20
-7.818741976253323
 30
0.0
  0
VERTEX
  5
317
  8
2
  6
DASHED
 62
     0
 10
-1.648982503819203
 20
-7.828209035411494
 30
0.0
  0
VERTEX
  5
318
  8
2
  6
DASHED
 62
     0
 10
-1.626497735533812
 20
-7.832911662740962
 30
0.0
  0
VERTEX
  5
319
  8
2
  6
DASHED
 62
     0
 10
-1.603698871544163
 20
-7.837611238726248
 30
0.0
  0
VERTEX
  5
31A
  8
2
  6
DASHED
 62
     0
 10
-1.556829402912367
 20
-7.84705563955217
 30
0.0
  0
VERTEX
  5
31B
  8
2
  6
DASHED
 62
     0
 10
-1.508301681400184
 20
-7.85652760689386
 30
0.0
  0
VERTEX
  5
31C
  8
2
  6
DASHED
 62
     0
 10
-1.458165886677706
 20
-7.865987048484725
 30
0.0
  0
VERTEX
  5
31D
  8
2
  6
DASHED
 62
     0
 10
-1.406477592932281
 20
-7.87539337306902
 30
0.0
  0
VERTEX
  5
31E
  8
2
  6
DASHED
 62
     0
 10
-1.353296979188817
 20
-7.884705909932115
 30
0.0
  0
VERTEX
  5
31F
  8
2
  6
DASHED
 62
     0
 10
-1.326166901988658
 20
-7.889314377566014
 30
0.0
  0
VERTEX
  5
320
  8
2
  6
DASHED
 62
     0
 10
-1.298687945462314
 20
-7.893884317641783
 30
0.0
  0
VERTEX
  5
321
  8
2
  6
DASHED
 62
     0
 10
-1.242717190998125
 20
-7.902888964372317
 30
0.0
  0
VERTEX
  5
322
  8
2
  6
DASHED
 62
     0
 10
-1.185454734150293
 20
-7.911681052297335
 30
0.0
  0
VERTEX
  5
323
  8
2
  6
DASHED
 62
     0
 10
-1.126975679073797
 20
-7.920222586441379
 30
0.0
  0
VERTEX
  5
324
  8
2
  6
DASHED
 62
     0
 10
-1.067359933592338
 20
-7.928476699351633
 30
0.0
  0
VERTEX
  5
325
  8
2
  6
DASHED
 62
     0
 10
-1.006691413729405
 20
-7.936408028669109
 30
0.0
  0
VERTEX
  5
326
  8
2
  6
DASHED
 62
     0
 10
-0.9759894692800833
 20
-7.94024209680375
 30
0.0
  0
VERTEX
  5
327
  8
2
  6
DASHED
 62
     0
 10
-0.94505716735058
 20
-7.943983065845451
 30
0.0
  0
VERTEX
  5
328
  8
2
  6
DASHED
 62
     0
 10
-0.882546408529175
 20
-7.951170469609632
 30
0.0
  0
VERTEX
  5
329
  8
2
  6
DASHED
 62
     0
 10
-0.8192340811263928
 20
-7.957942920147204
 30
0.0
  0
VERTEX
  5
32A
  8
2
  6
DASHED
 62
     0
 10
-0.7551972905862986
 20
-7.964275048759374
 30
0.0
  0
VERTEX
  5
32B
  8
2
  6
DASHED
 62
     0
 10
-0.6905329737523075
 20
-7.970142044666506
 30
0.0
  0
VERTEX
  5
32C
  8
2
  6
DASHED
 62
     0
 10
-0.625341756242942
 20
-7.975521781545018
 30
0.0
  0
VERTEX
  5
32D
  8
2
  6
DASHED
 62
     0
 10
-0.5925807716521617
 20
-7.978022814524168
 30
0.0
  0
VERTEX
  5
32E
  8
2
  6
DASHED
 62
     0
 10
-0.559726962289847
 20
-7.980395085939404
 30
0.0
  0
VERTEX
  5
32F
  8
2
  6
DASHED
 62
     0
 10
-0.4937935536399155
 20
-7.984745952526208
 30
0.0
  0
VERTEX
  5
330
  8
2
  6
DASHED
 62
     0
 10
-0.4276469933096791
 20
-7.988561700901684
 30
0.0
  0
VERTEX
  5
331
  8
2
  6
DASHED
 62
     0
 10
-0.3613926225270344
 20
-7.991833042073829
 30
0.0
  0
VERTEX
  5
332
  8
2
  6
DASHED
 62
     0
 10
-0.2951380249478102
 20
-7.994553992952321
 30
0.0
  0
VERTEX
  5
333
  8
2
  6
DASHED
 62
     0
 10
-0.2289940798788286
 20
-7.99672193535454
 30
0.0
  0
VERTEX
  5
334
  8
2
  6
DASHED
 62
     0
 10
-0.1959988880831348
 20
-7.997598666841828
 30
0.0
  0
VERTEX
  5
335
  8
2
  6
DASHED
 62
     0
 10
-0.1630738730179138
 20
-7.998337759305927
 30
0.0
  0
VERTEX
  5
336
  8
2
  6
DASHED
 62
     0
 10
-0.0974914867984018
 20
-7.999405941068489
 30
0.0
  0
VERTEX
  5
337
  8
2
  6
DASHED
 62
     0
 10
-0.0323607722486399
 20
-7.999934548508474
 30
0.0
  0
VERTEX
  5
338
  8
2
  6
DASHED
 62
     0
 10
0.0000000000000003
 20
-8.0
 30
0.0
  0
VERTEX
  5
339
  8
2
  6
DASHED
 62
     0
 10
0.0323607722486405
 20
-7.999934548508474
 30
0.0
  0
VERTEX
  5
33A
  8
2
  6
DASHED
 62
     0
 10
0.0974914867984061
 20
-7.999405941068489
 30
0.0
  0
VERTEX
  5
33B
  8
2
  6
DASHED
 62
     0
 10
0.1630738730179143
 20
-7.998337759305927
 30
0.0
  0
VERTEX
  5
33C
  8
2
  6
DASHED
 62
     0
 10
0.1959988880831349
 20
-7.997598666841828
 30
0.0
  0
VERTEX
  5
33D
  8
2
  6
DASHED
 62
     0
 10
0.2289940798788286
 20
-7.99672193535454
 30
0.0
  0
VERTEX
  5
33E
  8
2
  6
DASHED
 62
     0
 10
0.2951380249478076
 20
-7.994553992952321
 30
0.0
  0
VERTEX
  5
33F
  8
2
  6
DASHED
 62
     0
 10
0.3613926225270345
 20
-7.991833042073829
 30
0.0
  0
VERTEX
  5
340
  8
2
  6
DASHED
 62
     0
 10
0.4276469933096791
 20
-7.988561700901684
 30
0.0
  0
VERTEX
  5
341
  8
2
  6
DASHED
 62
     0
 10
0.493793553639912
 20
-7.984745952526208
 30
0.0
  0
VERTEX
  5
342
  8
2
  6
DASHED
 62
     0
 10
0.5597269622898468
 20
-7.980395085939404
 30
0.0
  0
VERTEX
  5
343
  8
2
  6
DASHED
 62
     0
 10
0.5925807716521616
 20
-7.978022814524168
 30
0.0
  0
VERTEX
  5
344
  8
2
  6
DASHED
 62
     0
 10
0.6253417562429418
 20
-7.975521781545018
 30
0.0
  0
VERTEX
  5
345
  8
2
  6
DASHED
 62
     0
 10
0.690532973752311
 20
-7.970142044666506
 30
0.0
  0
VERTEX
  5
346
  8
2
  6
DASHED
 62
     0
 10
0.7551972905862984
 20
-7.964275048759374
 30
0.0
  0
VERTEX
  5
347
  8
2
  6
DASHED
 62
     0
 10
0.8192340811263897
 20
-7.957942920147204
 30
0.0
  0
VERTEX
  5
348
  8
2
  6
DASHED
 62
     0
 10
0.8825464085291748
 20
-7.951170469609632
 30
0.0
  0
VERTEX
  5
349
  8
2
  6
DASHED
 62
     0
 10
0.9450571673505752
 20
-7.943983065845453
 30
0.0
  0
VERTEX
  5
34A
  8
2
  6
DASHED
 62
     0
 10
0.9759894692800801
 20
-7.94024209680375
 30
0.0
  0
VERTEX
  5
34B
  8
2
  6
DASHED
 62
     0
 10
1.0066914137294
 20
-7.936408028669109
 30
0.0
  0
VERTEX
  5
34C
  8
2
  6
DASHED
 62
     0
 10
1.067359933592337
 20
-7.928476699351633
 30
0.0
  0
VERTEX
  5
34D
  8
2
  6
DASHED
 62
     0
 10
1.126975679073795
 20
-7.920222586441379
 30
0.0
  0
VERTEX
  5
34E
  8
2
  6
DASHED
 62
     0
 10
1.185454734150289
 20
-7.911681052297336
 30
0.0
  0
VERTEX
  5
34F
  8
2
  6
DASHED
 62
     0
 10
1.242717190998124
 20
-7.902888964372317
 30
0.0
  0
VERTEX
  5
350
  8
2
  6
DASHED
 62
     0
 10
1.298687945462314
 20
-7.893884317641783
 30
0.0
  0
VERTEX
  5
351
  8
2
  6
DASHED
 62
     0
 10
1.326166901988658
 20
-7.889314377566014
 30
0.0
  0
VERTEX
  5
352
  8
2
  6
DASHED
 62
     0
 10
1.353296979188816
 20
-7.884705909932115
 30
0.0
  0
VERTEX
  5
353
  8
2
  6
DASHED
 62
     0
 10
1.40647759293228
 20
-7.87539337306902
 30
0.0
  0
VERTEX
  5
354
  8
2
  6
DASHED
 62
     0
 10
1.458165886677705
 20
-7.865987048484725
 30
0.0
  0
VERTEX
  5
355
  8
2
  6
DASHED
 62
     0
 10
1.508301681400183
 20
-7.85652760689386
 30
0.0
  0
VERTEX
  5
356
  8
2
  6
DASHED
 62
     0
 10
1.556829402912365
 20
-7.847055639552171
 30
0.0
  0
VERTEX
  5
357
  8
2
  6
DASHED
 62
     0
 10
1.603698871544163
 20
-7.837611238726248
 30
0.0
  0
VERTEX
  5
358
  8
2
  6
DASHED
 62
     0
 10
1.626497735533812
 20
-7.832911662740962
 30
0.0
  0
VERTEX
  5
359
  8
2
  6
DASHED
 62
     0
 10
1.648982503819203
 20
-7.828209035411494
 30
0.0
  0
VERTEX
  5
35A
  8
2
  6
DASHED
 62
     0
 10
1.693302663074239
 20
-7.818741976253323
 30
0.0
  0
VERTEX
  5
35B
  8
2
  6
DASHED
 62
     0
 10
1.736664738476461
 20
-7.809225031085511
 30
0.0
  0
VERTEX
  5
35C
  8
2
  6
DASHED
 62
     0
 10
1.778962103471735
 20
-7.799698316884534
 30
0.0
  0
VERTEX
  5
35D
  8
2
  6
DASHED
 62
     0
 10
1.820093377807064
 20
-7.790202827658781
 30
0.0
  0
VERTEX
  5
35E
  8
2
  6
DASHED
 62
     0
 10
1.859962990398986
 20
-7.780780017089936
 30
0.0
  0
VERTEX
  5
35F
  8
2
  6
DASHED
 62
     0
 10
1.879396511911593
 20
-7.776108843825075
 30
0.0
  0
VERTEX
  5
360
  8
2
  6
DASHED
 62
     0
 10
1.898481642107866
 20
-7.77147138285791
 30
0.0
  0
VERTEX
  5
361
  8
2
  6
DASHED
 62
     0
 10
1.935566626753184
 20
-7.762318070872857
 30
0.0
  0
VERTEX
  5
362
  8
2
  6
DASHED
 62
     0
 10
1.971141134499932
 20
-7.753360731185047
 30
0.0
  0
VERTEX
  5
363
  8
2
  6
DASHED
 62
     0
 10
1.988339243062669
 20
-7.748968128370189
 30
0.0
  0
VERTEX
  5
364
  8
2
  6
DASHED
 62
     0
 10
2.005133085631533
 20
-7.744639520914176
 30
0.0
  0
VERTEX
  5
365
  8
2
  6
DASHED
 62
     0
 10
2.037475485107556
 20
-7.736193744186202
 30
0.0
  0
VERTEX
  5
366
  8
2
  6
DASHED
 62
     0
 10
2.06810698215617
 20
-7.72806143287933
 30
0.0
  0
VERTEX
  5
367
  8
2
  6
DASHED
 62
     0
 10
2.082763628161217
 20
-7.724124265520897
 30
0.0
  0
VERTEX
  5
368
  8
2
  6
DASHED
 62
     0
 10
2.096972327607496
 20
-7.72027894944531
 30
0.0
  0
VERTEX
  5
369
  8
2
  6
DASHED
 62
     0
 10
2.124022727828899
 20
-7.712880619565318
 30
0.0
  0
VERTEX
  5
36A
  8
2
  6
DASHED
 62
     0
 10
2.149221970989166
 20
-7.705896762831529
 30
0.0
  0
VERTEX
  5
36B
  8
2
  6
DASHED
 62
     0
 10
2.17253774635421
 20
-7.699355800368377
 30
0.0
  0
VERTEX
  5
36C
  8
2
  6
DASHED
 62
     0
 10
2.193936324565033
 20
-7.693285605237471
 30
0.0
  0
VERTEX
  5
36D
  8
2
  6
DASHED
 62
     0
 10
2.213390003125619
 20
-7.687711278011394
 30
0.0
  0
VERTEX
  5
36E
  8
2
  6
DASHED
 62
     0
 10
2.22238062450411
 20
-7.685117068713315
 30
0.0
  0
VERTEX
  5
36F
  8
2
  6
DASHED
 62
     0
 10
2.230877617481688
 20
-7.682654818213507
 30
0.0
  0
VERTEX
  5
370
  8
2
  6
DASHED
 62
     0
 10
2.246384916868466
 20
-7.678134851984944
 30
0.0
  0
VERTEX
  5
371
  8
2
  6
DASHED
 62
     0
 10
2.259904799516848
 20
-7.674166423600723
 30
0.0
  0
VERTEX
  5
372
  8
2
  6
DASHED
 62
     0
 10
2.271437304539031
 20
-7.670760886088711
 30
0.0
  0
VERTEX
  5
373
  8
2
  6
DASHED
 62
     0
 10
2.28098914916126
 20
-7.66792595826333
 30
0.0
  0
VERTEX
  5
374
  8
2
  6
DASHED
 62
     0
 10
2.288573865559204
 20
-7.665665637234604
 30
0.0
  0
VERTEX
  5
375
  8
2
  6
DASHED
 62
     0
 10
2.291634771250976
 20
-7.664751142417704
 30
0.0
  0
VERTEX
  5
376
  8
2
  6
DASHED
 62
     0
 10
2.294212309536756
 20
-7.663980028599371
 30
0.0
  0
VERTEX
  5
377
  8
2
  6
DASHED
 62
     0
 10
2.297933009848286
 20
-7.66286525277912
 30
0.0
  0
VERTEX
  5
378
  8
2
  6
DASHED
 62
     0
 10
2.29977233812456
 20
-7.662313436084242
 30
0.0
  0
VERTEX
  5
379
  8
2
  6
DASHED
 62
     0
 10
2.300000000000001
 20
-7.662245101796209
 30
0.0
  0
SEQEND
  5
2F6
  8
2
  6
DASHED
 62
     0
  0
POLYLINE
  5
4E
  8
2
  6
DASHED
 62
     0
 66
     1
 10
0.0
 20
0.0
 30
0.0
  0
VERTEX
  5
37B
  8
2
  6
DASHED
 62
     0
 10
2.300000000000001
 20
7.662245101796209
 30
0.0
  0
VERTEX
  5
37C
  8
2
  6
DASHED
 62
     0
 10
2.29977233812456
 20
7.662313436084241
 30
0.0
  0
VERTEX
  5
37D
  8
2
  6
DASHED
 62
     0
 10
2.297933009848286
 20
7.66286525277912
 30
0.0
  0
VERTEX
  5
37E
  8
2
  6
DASHED
 62
     0
 10
2.294212309536757
 20
7.663980028599371
 30
0.0
  0
VERTEX
  5
37F
  8
2
  6
DASHED
 62
     0
 10
2.291634771250976
 20
7.664751142417703
 30
0.0
  0
VERTEX
  5
380
  8
2
  6
DASHED
 62
     0
 10
2.288573865559203
 20
7.665665637234604
 30
0.0
  0
VERTEX
  5
381
  8
2
  6
DASHED
 62
     0
 10
2.280989149161259
 20
7.66792595826333
 30
0.0
  0
VERTEX
  5
382
  8
2
  6
DASHED
 62
     0
 10
2.27143730453903
 20
7.670760886088711
 30
0.0
  0
VERTEX
  5
383
  8
2
  6
DASHED
 62
     0
 10
2.259904799516848
 20
7.674166423600723
 30
0.0
  0
VERTEX
  5
384
  8
2
  6
DASHED
 62
     0
 10
2.246384916868465
 20
7.678134851984944
 30
0.0
  0
VERTEX
  5
385
  8
2
  6
DASHED
 62
     0
 10
2.23087761748169
 20
7.682654818213509
 30
0.0
  0
VERTEX
  5
386
  8
2
  6
DASHED
 62
     0
 10
2.22238062450411
 20
7.685117068713314
 30
0.0
  0
VERTEX
  5
387
  8
2
  6
DASHED
 62
     0
 10
2.213390003125618
 20
7.687711278011394
 30
0.0
  0
VERTEX
  5
388
  8
2
  6
DASHED
 62
     0
 10
2.193936324565033
 20
7.693285605237472
 30
0.0
  0
VERTEX
  5
389
  8
2
  6
DASHED
 62
     0
 10
2.172537746354212
 20
7.699355800368378
 30
0.0
  0
VERTEX
  5
38A
  8
2
  6
DASHED
 62
     0
 10
2.149221970989166
 20
7.70589676283153
 30
0.0
  0
VERTEX
  5
38B
  8
2
  6
DASHED
 62
     0
 10
2.124022727828901
 20
7.712880619565318
 30
0.0
  0
VERTEX
  5
38C
  8
2
  6
DASHED
 62
     0
 10
2.096972327607499
 20
7.72027894944531
 30
0.0
  0
VERTEX
  5
38D
  8
2
  6
DASHED
 62
     0
 10
2.082763628161217
 20
7.724124265520896
 30
0.0
  0
VERTEX
  5
38E
  8
2
  6
DASHED
 62
     0
 10
2.068106982156171
 20
7.728061432879329
 30
0.0
  0
VERTEX
  5
38F
  8
2
  6
DASHED
 62
     0
 10
2.037475485107555
 20
7.736193744186202
 30
0.0
  0
VERTEX
  5
390
  8
2
  6
DASHED
 62
     0
 10
2.005133085631535
 20
7.744639520914176
 30
0.0
  0
VERTEX
  5
391
  8
2
  6
DASHED
 62
     0
 10
1.988339243062671
 20
7.748968128370188
 30
0.0
  0
VERTEX
  5
392
  8
2
  6
DASHED
 62
     0
 10
1.971141134499932
 20
7.753360731185047
 30
0.0
  0
VERTEX
  5
393
  8
2
  6
DASHED
 62
     0
 10
1.93556662675318
 20
7.762318070872857
 30
0.0
  0
VERTEX
  5
394
  8
2
  6
DASHED
 62
     0
 10
1.898481642107868
 20
7.77147138285791
 30
0.0
  0
VERTEX
  5
395
  8
2
  6
DASHED
 62
     0
 10
1.879396511911589
 20
7.776108843825076
 30
0.0
  0
VERTEX
  5
396
  8
2
  6
DASHED
 62
     0
 10
1.859962990398986
 20
7.780780017089936
 30
0.0
  0
VERTEX
  5
397
  8
2
  6
DASHED
 62
     0
 10
1.820093377807067
 20
7.790202827658781
 30
0.0
  0
VERTEX
  5
398
  8
2
  6
DASHED
 62
     0
 10
1.778962103471734
 20
7.799698316884534
 30
0.0
  0
VERTEX
  5
399
  8
2
  6
DASHED
 62
     0
 10
1.736664738476461
 20
7.809225031085511
 30
0.0
  0
VERTEX
  5
39A
  8
2
  6
DASHED
 62
     0
 10
1.693302663074238
 20
7.818741976253322
 30
0.0
  0
VERTEX
  5
39B
  8
2
  6
DASHED
 62
     0
 10
1.648982503819205
 20
7.828209035411494
 30
0.0
  0
VERTEX
  5
39C
  8
2
  6
DASHED
 62
     0
 10
1.626497735533808
 20
7.832911662740963
 30
0.0
  0
VERTEX
  5
39D
  8
2
  6
DASHED
 62
     0
 10
1.603698871544161
 20
7.837611238726248
 30
0.0
  0
VERTEX
  5
39E
  8
2
  6
DASHED
 62
     0
 10
1.556829402912366
 20
7.84705563955217
 30
0.0
  0
VERTEX
  5
39F
  8
2
  6
DASHED
 62
     0
 10
1.508301681400181
 20
7.856527606893861
 30
0.0
  0
VERTEX
  5
3A0
  8
2
  6
DASHED
 62
     0
 10
1.458165886677701
 20
7.865987048484725
 30
0.0
  0
VERTEX
  5
3A1
  8
2
  6
DASHED
 62
     0
 10
1.40647759293228
 20
7.875393373069021
 30
0.0
  0
VERTEX
  5
3A2
  8
2
  6
DASHED
 62
     0
 10
1.35329697918882
 20
7.884705909932115
 30
0.0
  0
VERTEX
  5
3A3
  8
2
  6
DASHED
 62
     0
 10
1.326166901988658
 20
7.889314377566014
 30
0.0
  0
VERTEX
  5
3A4
  8
2
  6
DASHED
 62
     0
 10
1.298687945462314
 20
7.893884317641783
 30
0.0
  0
VERTEX
  5
3A5
  8
2
  6
DASHED
 62
     0
 10
1.242717190998124
 20
7.902888964372317
 30
0.0
  0
VERTEX
  5
3A6
  8
2
  6
DASHED
 62
     0
 10
1.185454734150295
 20
7.911681052297335
 30
0.0
  0
VERTEX
  5
3A7
  8
2
  6
DASHED
 62
     0
 10
1.126975679073796
 20
7.920222586441379
 30
0.0
  0
VERTEX
  5
3A8
  8
2
  6
DASHED
 62
     0
 10
1.067359933592336
 20
7.928476699351633
 30
0.0
  0
VERTEX
  5
3A9
  8
2
  6
DASHED
 62
     0
 10
1.006691413729403
 20
7.936408028669108
 30
0.0
  0
VERTEX
  5
3AA
  8
2
  6
DASHED
 62
     0
 10
0.9759894692800799
 20
7.94024209680375
 30
0.0
  0
VERTEX
  5
3AB
  8
2
  6
DASHED
 62
     0
 10
0.9450571673505775
 20
7.943983065845452
 30
0.0
  0
VERTEX
  5
3AC
  8
2
  6
DASHED
 62
     0
 10
0.8825464085291775
 20
7.951170469609632
 30
0.0
  0
VERTEX
  5
3AD
  8
2
  6
DASHED
 62
     0
 10
0.8192340811263923
 20
7.957942920147204
 30
0.0
  0
VERTEX
  5
3AE
  8
2
  6
DASHED
 62
     0
 10
0.7551972905862971
 20
7.964275048759374
 30
0.0
  0
VERTEX
  5
3AF
  8
2
  6
DASHED
 62
     0
 10
0.6905329737523088
 20
7.970142044666506
 30
0.0
  0
VERTEX
  5
3B0
  8
2
  6
DASHED
 62
     0
 10
0.6253417562429423
 20
7.975521781545018
 30
0.0
  0
VERTEX
  5
3B1
  8
2
  6
DASHED
 62
     0
 10
0.5925807716521624
 20
7.978022814524168
 30
0.0
  0
VERTEX
  5
3B2
  8
2
  6
DASHED
 62
     0
 10
0.5597269622898464
 20
7.980395085939404
 30
0.0
  0
VERTEX
  5
3B3
  8
2
  6
DASHED
 62
     0
 10
0.493793553639915
 20
7.984745952526208
 30
0.0
  0
VERTEX
  5
3B4
  8
2
  6
DASHED
 62
     0
 10
0.4276469933096804
 20
7.988561700901684
 30
0.0
  0
VERTEX
  5
3B5
  8
2
  6
DASHED
 62
     0
 10
0.3613926225270338
 20
7.991833042073829
 30
0.0
  0
VERTEX
  5
3B6
  8
2
  6
DASHED
 62
     0
 10
0.2951380249478077
 20
7.994553992952321
 30
0.0
  0
VERTEX
  5
3B7
  8
2
  6
DASHED
 62
     0
 10
0.2289940798788285
 20
7.99672193535454
 30
0.0
  0
VERTEX
  5
3B8
  8
2
  6
DASHED
 62
     0
 10
0.1959988880831347
 20
7.997598666841828
 30
0.0
  0
VERTEX
  5
3B9
  8
2
  6
DASHED
 62
     0
 10
0.1630738730179134
 20
7.998337759305927
 30
0.0
  0
VERTEX
  5
3BA
  8
2
  6
DASHED
 62
     0
 10
0.097491486798404
 20
7.999405941068489
 30
0.0
  0
VERTEX
  5
3BB
  8
2
  6
DASHED
 62
     0
 10
0.0323607722486409
 20
7.999934548508474
 30
0.0
  0
VERTEX
  5
3BC
  8
2
  6
DASHED
 62
     0
 10
0.0000000000000003
 20
8.0
 30
0.0
  0
VERTEX
  5
3BD
  8
2
  6
DASHED
 62
     0
 10
-0.0323607722486403
 20
7.999934548508474
 30
0.0
  0
VERTEX
  5
3BE
  8
2
  6
DASHED
 62
     0
 10
-0.0974914867984033
 20
7.999405941068489
 30
0.0
  0
VERTEX
  5
3BF
  8
2
  6
DASHED
 62
     0
 10
-0.1630738730179124
 20
7.998337759305927
 30
0.0
  0
VERTEX
  5
3C0
  8
2
  6
DASHED
 62
     0
 10
-0.1959988880831339
 20
7.997598666841828
 30
0.0
  0
VERTEX
  5
3C1
  8
2
  6
DASHED
 62
     0
 10
-0.2289940798788274
 20
7.99672193535454
 30
0.0
  0
VERTEX
  5
3C2
  8
2
  6
DASHED
 62
     0
 10
-0.2951380249478082
 20
7.994553992952321
 30
0.0
  0
VERTEX
  5
3C3
  8
2
  6
DASHED
 62
     0
 10
-0.3613926225270328
 20
7.991833042073829
 30
0.0
  0
VERTEX
  5
3C4
  8
2
  6
DASHED
 62
     0
 10
-0.4276469933096769
 20
7.988561700901684
 30
0.0
  0
VERTEX
  5
3C5
  8
2
  6
DASHED
 62
     0
 10
-0.493793553639912
 20
7.984745952526208
 30
0.0
  0
VERTEX
  5
3C6
  8
2
  6
DASHED
 62
     0
 10
-0.5597269622898449
 20
7.980395085939404
 30
0.0
  0
VERTEX
  5
3C7
  8
2
  6
DASHED
 62
     0
 10
-0.5925807716521597
 20
7.978022814524168
 30
0.0
  0
VERTEX
  5
3C8
  8
2
  6
DASHED
 62
     0
 10
-0.6253417562429406
 20
7.975521781545018
 30
0.0
  0
VERTEX
  5
3C9
  8
2
  6
DASHED
 62
     0
 10
-0.690532973752307
 20
7.970142044666506
 30
0.0
  0
VERTEX
  5
3CA
  8
2
  6
DASHED
 62
     0
 10
-0.7551972905862965
 20
7.964275048759374
 30
0.0
  0
VERTEX
  5
3CB
  8
2
  6
DASHED
 62
     0
 10
-0.8192340811263909
 20
7.957942920147204
 30
0.0
  0
VERTEX
  5
3CC
  8
2
  6
DASHED
 62
     0
 10
-0.8825464085291751
 20
7.951170469609632
 30
0.0
  0
VERTEX
  5
3CD
  8
2
  6
DASHED
 62
     0
 10
-0.9450571673505753
 20
7.943983065845453
 30
0.0
  0
VERTEX
  5
3CE
  8
2
  6
DASHED
 62
     0
 10
-0.9759894692800794
 20
7.94024209680375
 30
0.0
  0
VERTEX
  5
3CF
  8
2
  6
DASHED
 62
     0
 10
-1.006691413729402
 20
7.936408028669109
 30
0.0
  0
VERTEX
  5
3D0
  8
2
  6
DASHED
 62
     0
 10
-1.067359933592335
 20
7.928476699351633
 30
0.0
  0
VERTEX
  5
3D1
  8
2
  6
DASHED
 62
     0
 10
-1.126975679073795
 20
7.920222586441379
 30
0.0
  0
VERTEX
  5
3D2
  8
2
  6
DASHED
 62
     0
 10
-1.185454734150291
 20
7.911681052297335
 30
0.0
  0
VERTEX
  5
3D3
  8
2
  6
DASHED
 62
     0
 10
-1.24271719099812
 20
7.902888964372317
 30
0.0
  0
VERTEX
  5
3D4
  8
2
  6
DASHED
 62
     0
 10
-1.298687945462313
 20
7.893884317641784
 30
0.0
  0
VERTEX
  5
3D5
  8
2
  6
DASHED
 62
     0
 10
-1.326166901988656
 20
7.889314377566014
 30
0.0
  0
VERTEX
  5
3D6
  8
2
  6
DASHED
 62
     0
 10
-1.353296979188817
 20
7.884705909932115
 30
0.0
  0
VERTEX
  5
3D7
  8
2
  6
DASHED
 62
     0
 10
-1.40647759293228
 20
7.87539337306902
 30
0.0
  0
VERTEX
  5
3D8
  8
2
  6
DASHED
 62
     0
 10
-1.458165886677705
 20
7.865987048484725
 30
0.0
  0
VERTEX
  5
3D9
  8
2
  6
DASHED
 62
     0
 10
-1.50830168140018
 20
7.856527606893861
 30
0.0
  0
VERTEX
  5
3DA
  8
2
  6
DASHED
 62
     0
 10
-1.556829402912367
 20
7.84705563955217
 30
0.0
  0
VERTEX
  5
3DB
  8
2
  6
DASHED
 62
     0
 10
-1.603698871544164
 20
7.837611238726248
 30
0.0
  0
VERTEX
  5
3DC
  8
2
  6
DASHED
 62
     0
 10
-1.626497735533812
 20
7.832911662740962
 30
0.0
  0
VERTEX
  5
3DD
  8
2
  6
DASHED
 62
     0
 10
-1.648982503819209
 20
7.828209035411493
 30
0.0
  0
VERTEX
  5
3DE
  8
2
  6
DASHED
 62
     0
 10
-1.693302663074234
 20
7.818741976253324
 30
0.0
  0
VERTEX
  5
3DF
  8
2
  6
DASHED
 62
     0
 10
-1.736664738476461
 20
7.809225031085511
 30
0.0
  0
VERTEX
  5
3E0
  8
2
  6
DASHED
 62
     0
 10
-1.77896210347174
 20
7.799698316884533
 30
0.0
  0
VERTEX
  5
3E1
  8
2
  6
DASHED
 62
     0
 10
-1.820093377807066
 20
7.790202827658781
 30
0.0
  0
VERTEX
  5
3E2
  8
2
  6
DASHED
 62
     0
 10
-1.859962990398987
 20
7.780780017089937
 30
0.0
  0
VERTEX
  5
3E3
  8
2
  6
DASHED
 62
     0
 10
-1.879396511911591
 20
7.776108843825076
 30
0.0
  0
VERTEX
  5
3E4
  8
2
  6
DASHED
 62
     0
 10
-1.898481642107868
 20
7.771471382857909
 30
0.0
  0
VERTEX
  5
3E5
  8
2
  6
DASHED
 62
     0
 10
-1.935566626753184
 20
7.762318070872856
 30
0.0
  0
VERTEX
  5
3E6
  8
2
  6
DASHED
 62
     0
 10
-1.971141134499932
 20
7.753360731185047
 30
0.0
  0
VERTEX
  5
3E7
  8
2
  6
DASHED
 62
     0
 10
-1.98833924306267
 20
7.748968128370189
 30
0.0
  0
VERTEX
  5
3E8
  8
2
  6
DASHED
 62
     0
 10
-2.005133085631533
 20
7.744639520914176
 30
0.0
  0
VERTEX
  5
3E9
  8
2
  6
DASHED
 62
     0
 10
-2.037475485107555
 20
7.736193744186203
 30
0.0
  0
VERTEX
  5
3EA
  8
2
  6
DASHED
 62
     0
 10
-2.068106982156169
 20
7.728061432879329
 30
0.0
  0
VERTEX
  5
3EB
  8
2
  6
DASHED
 62
     0
 10
-2.082763628161217
 20
7.724124265520897
 30
0.0
  0
VERTEX
  5
3EC
  8
2
  6
DASHED
 62
     0
 10
-2.096972327607496
 20
7.72027894944531
 30
0.0
  0
VERTEX
  5
3ED
  8
2
  6
DASHED
 62
     0
 10
-2.124022727828901
 20
7.712880619565318
 30
0.0
  0
VERTEX
  5
3EE
  8
2
  6
DASHED
 62
     0
 10
-2.149221970989166
 20
7.705896762831529
 30
0.0
  0
VERTEX
  5
3EF
  8
2
  6
DASHED
 62
     0
 10
-2.172537746354211
 20
7.699355800368377
 30
0.0
  0
VERTEX
  5
3F0
  8
2
  6
DASHED
 62
     0
 10
-2.193936324565031
 20
7.693285605237471
 30
0.0
  0
VERTEX
  5
3F1
  8
2
  6
DASHED
 62
     0
 10
-2.21339000312562
 20
7.687711278011394
 30
0.0
  0
VERTEX
  5
3F2
  8
2
  6
DASHED
 62
     0
 10
-2.22238062450411
 20
7.685117068713315
 30
0.0
  0
VERTEX
  5
3F3
  8
2
  6
DASHED
 62
     0
 10
-2.230877617481691
 20
7.682654818213508
 30
0.0
  0
VERTEX
  5
3F4
  8
2
  6
DASHED
 62
     0
 10
-2.246384916868466
 20
7.678134851984944
 30
0.0
  0
VERTEX
  5
3F5
  8
2
  6
DASHED
 62
     0
 10
-2.259904799516848
 20
7.674166423600723
 30
0.0
  0
VERTEX
  5
3F6
  8
2
  6
DASHED
 62
     0
 10
-2.271437304539031
 20
7.670760886088711
 30
0.0
  0
VERTEX
  5
3F7
  8
2
  6
DASHED
 62
     0
 10
-2.28098914916126
 20
7.66792595826333
 30
0.0
  0
VERTEX
  5
3F8
  8
2
  6
DASHED
 62
     0
 10
-2.288573865559204
 20
7.665665637234604
 30
0.0
  0
VERTEX
  5
3F9
  8
2
  6
DASHED
 62
     0
 10
-2.291634771250976
 20
7.664751142417704
 30
0.0
  0
VERTEX
  5
3FA
  8
2
  6
DASHED
 62
     0
 10
-2.294212309536756
 20
7.663980028599371
 30
0.0
  0
VERTEX
  5
3FB
  8
2
  6
DASHED
 62
     0
 10
-2.297933009848286
 20
7.66286525277912
 30
0.0
  0
VERTEX
  5
3FC
  8
2
  6
DASHED
 62
     0
 10
-2.29977233812456
 20
7.662313436084242
 30
0.0
  0
VERTEX
  5
3FD
  8
2
  6
DASHED
 62
     0
 10
-2.300000000000001
 20
7.662245101796209
 30
0.0
  0
SEQEND
  5
37A
  8
2
  6
DASHED
 62
     0
  0
POLYLINE
  5
4F
  8
2
  6
DASHED
 62
     0
 66
     1
 10
0.0
 20
0.0
 30
0.0
  0
VERTEX
  5
3FF
  8
2
  6
DASHED
 62
     0
 10
-2.300000000000001
 20
7.662245101796209
 30
0.0
  0
VERTEX
  5
400
  8
2
  6
DASHED
 62
     0
 10
-2.29977233812456
 20
7.662313436084242
 30
0.0
  0
VERTEX
  5
401
  8
2
  6
DASHED
 62
     0
 10
-2.297933009848286
 20
7.66286525277912
 30
0.0
  0
VERTEX
  5
402
  8
2
  6
DASHED
 62
     0
 10
-2.294212309536757
 20
7.663980028599372
 30
0.0
  0
VERTEX
  5
403
  8
2
  6
DASHED
 62
     0
 10
-2.291634771250976
 20
7.664751142417703
 30
0.0
  0
VERTEX
  5
404
  8
2
  6
DASHED
 62
     0
 10
-2.288573865559203
 20
7.665665637234604
 30
0.0
  0
VERTEX
  5
405
  8
2
  6
DASHED
 62
     0
 10
-2.28098914916126
 20
7.66792595826333
 30
0.0
  0
VERTEX
  5
406
  8
2
  6
DASHED
 62
     0
 10
-2.271437304539029
 20
7.670760886088712
 30
0.0
  0
VERTEX
  5
407
  8
2
  6
DASHED
 62
     0
 10
-2.259904799516849
 20
7.674166423600723
 30
0.0
  0
VERTEX
  5
408
  8
2
  6
DASHED
 62
     0
 10
-2.246384916868465
 20
7.678134851984945
 30
0.0
  0
VERTEX
  5
409
  8
2
  6
DASHED
 62
     0
 10
-2.230877617481688
 20
7.682654818213509
 30
0.0
  0
VERTEX
  5
40A
  8
2
  6
DASHED
 62
     0
 10
-2.22238062450411
 20
7.685117068713314
 30
0.0
  0
VERTEX
  5
40B
  8
2
  6
DASHED
 62
     0
 10
-2.21339000312562
 20
7.687711278011394
 30
0.0
  0
VERTEX
  5
40C
  8
2
  6
DASHED
 62
     0
 10
-2.193936324565033
 20
7.693285605237471
 30
0.0
  0
VERTEX
  5
40D
  8
2
  6
DASHED
 62
     0
 10
-2.172537746354212
 20
7.699355800368378
 30
0.0
  0
VERTEX
  5
40E
  8
2
  6
DASHED
 62
     0
 10
-2.149221970989166
 20
7.705896762831529
 30
0.0
  0
VERTEX
  5
40F
  8
2
  6
DASHED
 62
     0
 10
-2.124022727828902
 20
7.712880619565317
 30
0.0
  0
VERTEX
  5
410
  8
2
  6
DASHED
 62
     0
 10
-2.096972327607496
 20
7.72027894944531
 30
0.0
  0
VERTEX
  5
411
  8
2
  6
DASHED
 62
     0
 10
-2.082763628161215
 20
7.724124265520897
 30
0.0
  0
VERTEX
  5
412
  8
2
  6
DASHED
 62
     0
 10
-2.06810698215617
 20
7.728061432879329
 30
0.0
  0
VERTEX
  5
413
  8
2
  6
DASHED
 62
     0
 10
-2.037475485107552
 20
7.736193744186203
 30
0.0
  0
VERTEX
  5
414
  8
2
  6
DASHED
 62
     0
 10
-2.005133085631533
 20
7.744639520914176
 30
0.0
  0
VERTEX
  5
415
  8
2
  6
DASHED
 62
     0
 10
-1.988339243062665
 20
7.74896812837019
 30
0.0
  0
VERTEX
  5
416
  8
2
  6
DASHED
 62
     0
 10
-1.971141134499931
 20
7.753360731185047
 30
0.0
  0
VERTEX
  5
417
  8
2
  6
DASHED
 62
     0
 10
-1.935566626753182
 20
7.762318070872857
 30
0.0
  0
VERTEX
  5
418
  8
2
  6
DASHED
 62
     0
 10
-1.898481642107868
 20
7.771471382857909
 30
0.0
  0
VERTEX
  5
419
  8
2
  6
DASHED
 62
     0
 10
-1.879396511911594
 20
7.776108843825075
 30
0.0
  0
VERTEX
  5
41A
  8
2
  6
DASHED
 62
     0
 10
-1.859962990398985
 20
7.780780017089936
 30
0.0
  0
VERTEX
  5
41B
  8
2
  6
DASHED
 62
     0
 10
-1.820093377807064
 20
7.790202827658782
 30
0.0
  0
VERTEX
  5
41C
  8
2
  6
DASHED
 62
     0
 10
-1.778962103471736
 20
7.799698316884534
 30
0.0
  0
VERTEX
  5
41D
  8
2
  6
DASHED
 62
     0
 10
-1.736664738476461
 20
7.809225031085511
 30
0.0
  0
VERTEX
  5
41E
  8
2
  6
DASHED
 62
     0
 10
-1.693302663074235
 20
7.818741976253324
 30
0.0
  0
VERTEX
  5
41F
  8
2
  6
DASHED
 62
     0
 10
-1.648982503819206
 20
7.828209035411494
 30
0.0
  0
VERTEX
  5
420
  8
2
  6
DASHED
 62
     0
 10
-1.626497735533811
 20
7.832911662740963
 30
0.0
  0
VERTEX
  5
421
  8
2
  6
DASHED
 62
     0
 10
-1.603698871544165
 20
7.837611238726248
 30
0.0
  0
VERTEX
  5
422
  8
2
  6
DASHED
 62
     0
 10
-1.556829402912362
 20
7.847055639552171
 30
0.0
  0
VERTEX
  5
423
  8
2
  6
DASHED
 62
     0
 10
-1.50830168140018
 20
7.856527606893861
 30
0.0
  0
VERTEX
  5
424
  8
2
  6
DASHED
 62
     0
 10
-1.458165886677707
 20
7.865987048484724
 30
0.0
  0
VERTEX
  5
425
  8
2
  6
DASHED
 62
     0
 10
-1.406477592932281
 20
7.875393373069019
 30
0.0
  0
VERTEX
  5
426
  8
2
  6
DASHED
 62
     0
 10
-1.353296979188822
 20
7.884705909932114
 30
0.0
  0
VERTEX
  5
427
  8
2
  6
DASHED
 62
     0
 10
-1.326166901988659
 20
7.889314377566013
 30
0.0
  0
VERTEX
  5
428
  8
2
  6
DASHED
 62
     0
 10
-1.298687945462316
 20
7.893884317641783
 30
0.0
  0
VERTEX
  5
429
  8
2
  6
DASHED
 62
     0
 10
-1.242717190998121
 20
7.902888964372317
 30
0.0
  0
VERTEX
  5
42A
  8
2
  6
DASHED
 62
     0
 10
-1.185454734150297
 20
7.911681052297333
 30
0.0
  0
VERTEX
  5
42B
  8
2
  6
DASHED
 62
     0
 10
-1.126975679073798
 20
7.920222586441379
 30
0.0
  0
VERTEX
  5
42C
  8
2
  6
DASHED
 62
     0
 10
-1.067359933592337
 20
7.928476699351633
 30
0.0
  0
VERTEX
  5
42D
  8
2
  6
DASHED
 62
     0
 10
-1.006691413729407
 20
7.936408028669108
 30
0.0
  0
VERTEX
  5
42E
  8
2
  6
DASHED
 62
     0
 10
-0.9759894692800812
 20
7.94024209680375
 30
0.0
  0
VERTEX
  5
42F
  8
2
  6
DASHED
 62
     0
 10
-0.9450571673505779
 20
7.943983065845452
 30
0.0
  0
VERTEX
  5
430
  8
2
  6
DASHED
 62
     0
 10
-0.8825464085291791
 20
7.951170469609632
 30
0.0
  0
VERTEX
  5
431
  8
2
  6
DASHED
 62
     0
 10
-0.8192340811263945
 20
7.957942920147202
 30
0.0
  0
VERTEX
  5
432
  8
2
  6
DASHED
 62
     0
 10
-0.7551972905862979
 20
7.964275048759374
 30
0.0
  0
VERTEX
  5
433
  8
2
  6
DASHED
 62
     0
 10
-0.6905329737523104
 20
7.970142044666506
 30
0.0
  0
VERTEX
  5
434
  8
2
  6
DASHED
 62
     0
 10
-0.6253417562429411
 20
7.975521781545018
 30
0.0
  0
VERTEX
  5
435
  8
2
  6
DASHED
 62
     0
 10
-0.5925807716521628
 20
7.978022814524168
 30
0.0
  0
VERTEX
  5
436
  8
2
  6
DASHED
 62
     0
 10
-0.559726962289849
 20
7.980395085939403
 30
0.0
  0
VERTEX
  5
437
  8
2
  6
DASHED
 62
     0
 10
-0.4937935536399115
 20
7.984745952526208
 30
0.0
  0
VERTEX
  5
438
  8
2
  6
DASHED
 62
     0
 10
-0.4276469933096779
 20
7.988561700901684
 30
0.0
  0
VERTEX
  5
439
  8
2
  6
DASHED
 62
     0
 10
-0.3613926225270347
 20
7.991833042073829
 30
0.0
  0
VERTEX
  5
43A
  8
2
  6
DASHED
 62
     0
 10
-0.2951380249478106
 20
7.994553992952321
 30
0.0
  0
VERTEX
  5
43B
  8
2
  6
DASHED
 62
     0
 10
-0.2289940798788298
 20
7.99672193535454
 30
0.0
  0
VERTEX
  5
43C
  8
2
  6
DASHED
 62
     0
 10
-0.1959988880831356
 20
7.997598666841828
 30
0.0
  0
VERTEX
  5
43D
  8
2
  6
DASHED
 62
     0
 10
-0.1630738730179151
 20
7.998337759305927
 30
0.0
  0
VERTEX
  5
43E
  8
2
  6
DASHED
 62
     0
 10
-0.0974914867984032
 20
7.999405941068489
 30
0.0
  0
VERTEX
  5
43F
  8
2
  6
DASHED
 62
     0
 10
-0.0323607722486408
 20
7.999934548508474
 30
0.0
  0
VERTEX
  5
440
  8
2
  6
DASHED
 62
     0
 10
-0.0000000000000006
 20
8.0
 30
0.0
  0
VERTEX
  5
441
  8
2
  6
DASHED
 62
     0
 10
0.0323607722486397
 20
7.999934548508474
 30
0.0
  0
VERTEX
  5
442
  8
2
  6
DASHED
 62
     0
 10
0.0974914867984057
 20
7.999405941068489
 30
0.0
  0
VERTEX
  5
443
  8
2
  6
DASHED
 62
     0
 10
0.1630738730179148
 20
7.998337759305927
 30
0.0
  0
VERTEX
  5
444
  8
2
  6
DASHED
 62
     0
 10
0.1959988880831349
 20
7.997598666841828
 30
0.0
  0
VERTEX
  5
445
  8
2
  6
DASHED
 62
     0
 10
0.2289940798788295
 20
7.99672193535454
 30
0.0
  0
VERTEX
  5
446
  8
2
  6
DASHED
 62
     0
 10
0.2951380249478096
 20
7.994553992952321
 30
0.0
  0
VERTEX
  5
447
  8
2
  6
DASHED
 62
     0
 10
0.3613926225270348
 20
7.991833042073829
 30
0.0
  0
VERTEX
  5
448
  8
2
  6
DASHED
 62
     0
 10
0.4276469933096795
 20
7.988561700901684
 30
0.0
  0
VERTEX
  5
449
  8
2
  6
DASHED
 62
     0
 10
0.4937935536399137
 20
7.984745952526208
 30
0.0
  0
VERTEX
  5
44A
  8
2
  6
DASHED
 62
     0
 10
0.5597269622898488
 20
7.980395085939404
 30
0.0
  0
VERTEX
  5
44B
  8
2
  6
DASHED
 62
     0
 10
0.5925807716521625
 20
7.978022814524168
 30
0.0
  0
VERTEX
  5
44C
  8
2
  6
DASHED
 62
     0
 10
0.6253417562429408
 20
7.975521781545018
 30
0.0
  0
VERTEX
  5
44D
  8
2
  6
DASHED
 62
     0
 10
0.6905329737523108
 20
7.970142044666506
 30
0.0
  0
VERTEX
  5
44E
  8
2
  6
DASHED
 62
     0
 10
0.7551972905863017
 20
7.964275048759373
 30
0.0
  0
VERTEX
  5
44F
  8
2
  6
DASHED
 62
     0
 10
0.8192340811263937
 20
7.957942920147204
 30
0.0
  0
VERTEX
  5
450
  8
2
  6
DASHED
 62
     0
 10
0.8825464085291808
 20
7.951170469609631
 30
0.0
  0
VERTEX
  5
451
  8
2
  6
DASHED
 62
     0
 10
0.9450571673505809
 20
7.943983065845451
 30
0.0
  0
VERTEX
  5
452
  8
2
  6
DASHED
 62
     0
 10
0.9759894692800865
 20
7.940242096803749
 30
0.0
  0
VERTEX
  5
453
  8
2
  6
DASHED
 62
     0
 10
1.006691413729406
 20
7.936408028669109
 30
0.0
  0
VERTEX
  5
454
  8
2
  6
DASHED
 62
     0
 10
1.06735993359234
 20
7.928476699351633
 30
0.0
  0
VERTEX
  5
455
  8
2
  6
DASHED
 62
     0
 10
1.126975679073798
 20
7.920222586441379
 30
0.0
  0
VERTEX
  5
456
  8
2
  6
DASHED
 62
     0
 10
1.185454734150295
 20
7.911681052297335
 30
0.0
  0
VERTEX
  5
457
  8
2
  6
DASHED
 62
     0
 10
1.242717190998123
 20
7.902888964372317
 30
0.0
  0
VERTEX
  5
458
  8
2
  6
DASHED
 62
     0
 10
1.298687945462316
 20
7.893884317641783
 30
0.0
  0
VERTEX
  5
459
  8
2
  6
DASHED
 62
     0
 10
1.326166901988658
 20
7.889314377566014
 30
0.0
  0
VERTEX
  5
45A
  8
2
  6
DASHED
 62
     0
 10
1.353296979188821
 20
7.884705909932115
 30
0.0
  0
VERTEX
  5
45B
  8
2
  6
DASHED
 62
     0
 10
1.406477592932285
 20
7.875393373069019
 30
0.0
  0
VERTEX
  5
45C
  8
2
  6
DASHED
 62
     0
 10
1.458165886677707
 20
7.865987048484725
 30
0.0
  0
VERTEX
  5
45D
  8
2
  6
DASHED
 62
     0
 10
1.508301681400187
 20
7.85652760689386
 30
0.0
  0
VERTEX
  5
45E
  8
2
  6
DASHED
 62
     0
 10
1.556829402912369
 20
7.84705563955217
 30
0.0
  0
VERTEX
  5
45F
  8
2
  6
DASHED
 62
     0
 10
1.603698871544164
 20
7.837611238726248
 30
0.0
  0
VERTEX
  5
460
  8
2
  6
DASHED
 62
     0
 10
1.626497735533812
 20
7.832911662740963
 30
0.0
  0
VERTEX
  5
461
  8
2
  6
DASHED
 62
     0
 10
1.648982503819207
 20
7.828209035411494
 30
0.0
  0
VERTEX
  5
462
  8
2
  6
DASHED
 62
     0
 10
1.69330266307424
 20
7.818741976253323
 30
0.0
  0
VERTEX
  5
463
  8
2
  6
DASHED
 62
     0
 10
1.73666473847646
 20
7.809225031085511
 30
0.0
  0
VERTEX
  5
464
  8
2
  6
DASHED
 62
     0
 10
1.778962103471742
 20
7.799698316884533
 30
0.0
  0
VERTEX
  5
465
  8
2
  6
DASHED
 62
     0
 10
1.820093377807069
 20
7.790202827658781
 30
0.0
  0
VERTEX
  5
466
  8
2
  6
DASHED
 62
     0
 10
1.859962990398989
 20
7.780780017089935
 30
0.0
  0
VERTEX
  5
467
  8
2
  6
DASHED
 62
     0
 10
1.879396511911595
 20
7.776108843825075
 30
0.0
  0
VERTEX
  5
468
  8
2
  6
DASHED
 62
     0
 10
1.898481642107871
 20
7.771471382857908
 30
0.0
  0
VERTEX
  5
469
  8
2
  6
DASHED
 62
     0
 10
1.935566626753185
 20
7.762318070872856
 30
0.0
  0
VERTEX
  5
46A
  8
2
  6
DASHED
 62
     0
 10
1.971141134499935
 20
7.753360731185047
 30
0.0
  0
VERTEX
  5
46B
  8
2
  6
DASHED
 62
     0
 10
1.988339243062673
 20
7.748968128370187
 30
0.0
  0
VERTEX
  5
46C
  8
2
  6
DASHED
 62
     0
 10
2.005133085631535
 20
7.744639520914177
 30
0.0
  0
VERTEX
  5
46D
  8
2
  6
DASHED
 62
     0
 10
2.037475485107559
 20
7.736193744186201
 30
0.0
  0
VERTEX
  5
46E
  8
2
  6
DASHED
 62
     0
 10
2.068106982156174
 20
7.728061432879327
 30
0.0
  0
VERTEX
  5
46F
  8
2
  6
DASHED
 62
     0
 10
2.08276362816122
 20
7.724124265520896
 30
0.0
  0
VERTEX
  5
470
  8
2
  6
DASHED
 62
     0
 10
2.096972327607502
 20
7.720278949445311
 30
0.0
  0
VERTEX
  5
471
  8
2
  6
DASHED
 62
     0
 10
2.124022727828903
 20
7.712880619565317
 30
0.0
  0
VERTEX
  5
472
  8
2
  6
DASHED
 62
     0
 10
2.149221970989165
 20
7.70589676283153
 30
0.0
  0
VERTEX
  5
473
  8
2
  6
DASHED
 62
     0
 10
2.172537746354212
 20
7.699355800368377
 30
0.0
  0
VERTEX
  5
474
  8
2
  6
DASHED
 62
     0
 10
2.193936324565033
 20
7.693285605237471
 30
0.0
  0
VERTEX
  5
475
  8
2
  6
DASHED
 62
     0
 10
2.21339000312562
 20
7.687711278011394
 30
0.0
  0
VERTEX
  5
476
  8
2
  6
DASHED
 62
     0
 10
2.222380624504109
 20
7.685117068713315
 30
0.0
  0
VERTEX
  5
477
  8
2
  6
DASHED
 62
     0
 10
2.230877617481689
 20
7.682654818213509
 30
0.0
  0
VERTEX
  5
478
  8
2
  6
DASHED
 62
     0
 10
2.246384916868466
 20
7.678134851984943
 30
0.0
  0
VERTEX
  5
479
  8
2
  6
DASHED
 62
     0
 10
2.259904799516849
 20
7.674166423600722
 30
0.0
  0
VERTEX
  5
47A
  8
2
  6
DASHED
 62
     0
 10
2.271437304539029
 20
7.670760886088712
 30
0.0
  0
VERTEX
  5
47B
  8
2
  6
DASHED
 62
     0
 10
2.28098914916126
 20
7.66792595826333
 30
0.0
  0
VERTEX
  5
47C
  8
2
  6
DASHED
 62
     0
 10
2.288573865559203
 20
7.665665637234604
 30
0.0
  0
VERTEX
  5
47D
  8
2
  6
DASHED
 62
     0
 10
2.291634771250976
 20
7.664751142417704
 30
0.0
  0
VERTEX
  5
47E
  8
2
  6
DASHED
 62
     0
 10
2.294212309536757
 20
7.663980028599371
 30
0.0
  0
VERTEX
  5
47F
  8
2
  6
DASHED
 62
     0
 10
2.297933009848286
 20
7.66286525277912
 30
0.0
  0
VERTEX
  5
480
  8
2
  6
DASHED
 62
     0
 10
2.29977233812456
 20
7.662313436084242
 30
0.0
  0
VERTEX
  5
481
  8
2
  6
DASHED
 62
     0
 10
2.300000000000001
 20
7.662245101796209
 30
0.0
  0
SEQEND
  5
3FE
  8
2
  6
DASHED
 62
     0
  0
POLYLINE
  5
50
  8
2
  6
DASHED
 62
     0
 66
     1
 10
0.0
 20
0.0
 30
0.0
  0
VERTEX
  5
483
  8
2
  6
DASHED
 62
     0
 10
2.300000000000001
 20
-4.607873696185693
 30
0.0
  0
VERTEX
  5
484
  8
2
  6
DASHED
 62
     0
 10
2.2993680115592
 20
-4.60818909631737
 30
0.0
  0
VERTEX
  5
485
  8
2
  6
DASHED
 62
     0
 10
2.294243702803231
 20
-4.610742438279082
 30
0.0
  0
VERTEX
  5
486
  8
2
  6
DASHED
 62
     0
 10
2.283850616066551
 20
-4.615899301706271
 30
0.0
  0
VERTEX
  5
487
  8
2
  6
DASHED
 62
     0
 10
2.276646332234449
 20
-4.619456837976022
 30
0.0
  0
VERTEX
  5
488
  8
2
  6
DASHED
 62
     0
 10
2.268093585048397
 20
-4.623662129682738
 30
0.0
  0
VERTEX
  5
489
  8
2
  6
DASHED
 62
     0
 10
2.246932204045282
 20
-4.63398270070403
 30
0.0
  0
VERTEX
  5
48A
  8
2
  6
DASHED
 62
     0
 10
2.220375587361526
 20
-4.64676578396727
 30
0.0
  0
VERTEX
  5
48B
  8
2
  6
DASHED
 62
     0
 10
2.188483514584743
 20
-4.661870859042624
 30
0.0
  0
VERTEX
  5
48C
  8
2
  6
DASHED
 62
     0
 10
2.151365878085444
 20
-4.679115820174754
 30
0.0
  0
VERTEX
  5
48D
  8
2
  6
DASHED
 62
     0
 10
2.109175669000618
 20
-4.698284580279892
 30
0.0
  0
VERTEX
  5
48E
  8
2
  6
DASHED
 62
     0
 10
2.086227505401678
 20
-4.708519384658568
 30
0.0
  0
VERTEX
  5
48F
  8
2
  6
DASHED
 62
     0
 10
2.062075328443114
 20
-4.71914667496426
 30
0.0
  0
VERTEX
  5
490
  8
2
  6
DASHED
 62
     0
 10
2.010277779780057
 20
-4.74144316090814
 30
0.0
  0
VERTEX
  5
491
  8
2
  6
DASHED
 62
     0
 10
1.954046987591201
 20
-4.764892482552544
 30
0.0
  0
VERTEX
  5
492
  8
2
  6
DASHED
 62
     0
 10
1.893685557885596
 20
-4.789201917632574
 30
0.0
  0
VERTEX
  5
493
  8
2
  6
DASHED
 62
     0
 10
1.82953071467638
 20
-4.814074922979049
 30
0.0
  0
VERTEX
  5
494
  8
2
  6
DASHED
 62
     0
 10
1.761960207085955
 20
-4.839214422677055
 30
0.0
  0
VERTEX
  5
495
  8
2
  6
DASHED
 62
     0
 10
1.727024318110405
 20
-4.851792143595528
 30
0.0
  0
VERTEX
  5
496
  8
2
  6
DASHED
 62
     0
 10
1.691396036319352
 20
-4.864327234913702
 30
0.0
  0
VERTEX
  5
497
  8
2
  6
DASHED
 62
     0
 10
1.618285162330957
 20
-4.889136235919334
 30
0.0
  0
VERTEX
  5
498
  8
2
  6
DASHED
 62
     0
 10
1.541501838436195
 20
-4.913885639908385
 30
0.0
  0
VERTEX
  5
499
  8
2
  6
DASHED
 62
     0
 10
1.501419359837966
 20
-4.926280534632975
 30
0.0
  0
SEQEND
  5
482
  8
2
  6
DASHED
 62
     0
  0
POLYLINE
  5
51
  8
2
  6
DASHED
 62
     0
 66
     1
 10
0.0
 20
0.0
 30
0.0
  0
VERTEX
  5
49B
  8
2
  6
DASHED
 62
     0
 10
1.501419359837966
 20
-4.926280534632975
 30
0.0
  0
VERTEX
  5
49C
  8
2
  6
DASHED
 62
     0
 10
1.458606012979645
 20
-4.939126289021129
 30
0.0
  0
VERTEX
  5
49D
  8
2
  6
DASHED
 62
     0
 10
1.369576058638462
 20
-4.964550475078719
 30
0.0
  0
VERTEX
  5
49E
  8
2
  6
DASHED
 62
     0
 10
1.276254962441598
 20
-4.989355997605623
 30
0.0
  0
VERTEX
  5
49F
  8
2
  6
DASHED
 62
     0
 10
1.228084022192378
 20
-5.001430758736524
 30
0.0
  0
VERTEX
  5
4A0
  8
2
  6
DASHED
 62
     0
 10
1.17896263875773
 20
-5.013237187328504
 30
0.0
  0
VERTEX
  5
4A1
  8
2
  6
DASHED
 62
     0
 10
1.078054350909735
 20
-5.035900993514924
 30
0.0
  0
VERTEX
  5
4A2
  8
2
  6
DASHED
 62
     0
 10
0.9739255250774099
 20
-5.057071195030053
 30
0.0
  0
VERTEX
  5
4A3
  8
2
  6
DASHED
 62
     0
 10
0.8669995750779299
 20
-5.076496009730993
 30
0.0
  0
VERTEX
  5
4A4
  8
2
  6
DASHED
 62
     0
 10
0.7576573743959183
 20
-5.093962632668548
 30
0.0
  0
VERTEX
  5
4A5
  8
2
  6
DASHED
 62
     0
 10
0.6463384652979791
 20
-5.109280437427198
 30
0.0
  0
VERTEX
  5
4A6
  8
2
  6
DASHED
 62
     0
 10
0.5900951817072995
 20
-5.116081281266536
 30
0.0
  0
VERTEX
  5
4A7
  8
2
  6
DASHED
 62
     0
 10
0.5335497076009885
 20
-5.122287058484608
 30
0.0
  0
VERTEX
  5
4A8
  8
2
  6
DASHED
 62
     0
 10
0.4198170382924221
 20
-5.132860182623269
 30
0.0
  0
VERTEX
  5
4A9
  8
2
  6
DASHED
 62
     0
 10
0.3056720971100382
 20
-5.140920595481743
 30
0.0
  0
VERTEX
  5
4AA
  8
2
  6
DASHED
 62
     0
 10
0.1916674388857588
 20
-5.146432122633211
 30
0.0
  0
VERTEX
  5
4AB
  8
2
  6
DASHED
 62
     0
 10
0.0783785190661415
 20
-5.149403539027506
 30
0.0
  0
VERTEX
  5
4AC
  8
2
  6
DASHED
 62
     0
 10
-0.0337702533331451
 20
-5.149889277449547
 30
0.0
  0
VERTEX
  5
4AD
  8
2
  6
DASHED
 62
     0
 10
-0.0900379279241369
 20
-5.149212869122342
 30
0.0
  0
VERTEX
  5
4AE
  8
2
  6
DASHED
 62
     0
 10
-0.1466145478547601
 20
-5.147912603605207
 30
0.0
  0
VERTEX
  5
4AF
  8
2
  6
DASHED
 62
     0
 10
-0.2604048114854772
 20
-5.143412226737734
 30
0.0
  0
VERTEX
  5
4B0
  8
2
  6
DASHED
 62
     0
 10
-0.3745618994188212
 20
-5.136360908610665
 30
0.0
  0
VERTEX
  5
4B1
  8
2
  6
DASHED
 62
     0
 10
-0.4316007329700701
 20
-5.131882774119037
 30
0.0
  0
SEQEND
  5
49A
  8
2
  6
DASHED
 62
     0
  0
POLYLINE
  5
52
  8
2
  6
DASHED
 62
     0
 66
     1
 10
0.0
 20
0.0
 30
0.0
  0
VERTEX
  5
4B3
  8
2
  6
DASHED
 62
     0
 10
-0.4316007329700701
 20
-5.131882774119037
 30
0.0
  0
VERTEX
  5
4B4
  8
2
  6
DASHED
 62
     0
 10
-0.4462225479506454
 20
-5.130632069998826
 30
0.0
  0
VERTEX
  5
4B5
  8
2
  6
DASHED
 62
     0
 10
-0.4754385163159653
 20
-5.128007236461673
 30
0.0
  0
VERTEX
  5
4B6
  8
2
  6
DASHED
 62
     0
 10
-0.5046101786499295
 20
-5.12521887997019
 30
0.0
  0
VERTEX
  5
4B7
  8
2
  6
DASHED
 62
     0
 10
-0.5191766002733728
 20
-5.123763817520143
 30
0.0
  0
VERTEX
  5
4B8
  8
2
  6
DASHED
 62
     0
 10
-0.5337285879036371
 20
-5.122268422725852
 30
0.0
  0
VERTEX
  5
4B9
  8
2
  6
DASHED
 62
     0
 10
-0.5627847742747196
 20
-5.119157479297209
 30
0.0
  0
VERTEX
  5
4BA
  8
2
  6
DASHED
 62
     0
 10
-0.5917697689136031
 20
-5.115887854576168
 30
0.0
  0
VERTEX
  5
4BB
  8
2
  6
DASHED
 62
     0
 10
-0.6206746267339147
 20
-5.112461540953508
 30
0.0
  0
VERTEX
  5
4BC
  8
2
  6
DASHED
 62
     0
 10
-0.6494904483339437
 20
-5.108880714747897
 30
0.0
  0
VERTEX
  5
4BD
  8
2
  6
DASHED
 62
     0
 10
-0.6782084010395268
 20
-5.105147731923085
 30
0.0
  0
VERTEX
  5
4BE
  8
2
  6
DASHED
 62
     0
 10
-0.6925279395750953
 20
-5.103224965931629
 30
0.0
  0
VERTEX
  5
4BF
  8
2
  6
DASHED
 62
     0
 10
-0.7068197390815016
 20
-5.101265123128258
 30
0.0
  0
VERTEX
  5
4C0
  8
2
  6
DASHED
 62
     0
 10
-0.7353158229230341
 20
-5.097235588096652
 30
0.0
  0
VERTEX
  5
4C1
  8
2
  6
DASHED
 62
     0
 10
-0.7636881377542055
 20
-5.093061989437545
 30
0.0
  0
VERTEX
  5
4C2
  8
2
  6
DASHED
 62
     0
 10
-0.7919283111723267
 20
-5.088747345856715
 30
0.0
  0
VERTEX
  5
4C3
  8
2
  6
DASHED
 62
     0
 10
-0.8200281300675896
 20
-5.084294824840299
 30
0.0
  0
VERTEX
  5
4C4
  8
2
  6
DASHED
 62
     0
 10
-0.8479795567338524
 20
-5.079707734836863
 30
0.0
  0
VERTEX
  5
4C5
  8
2
  6
DASHED
 62
     0
 10
-0.8618971629540502
 20
-5.077364796869706
 30
0.0
  0
VERTEX
  5
4C6
  8
2
  6
DASHED
 62
     0
 10
-0.8757747442246071
 20
-5.074989516972259
 30
0.0
  0
VERTEX
  5
4C7
  8
2
  6
DASHED
 62
     0
 10
-0.9034073363022042
 20
-5.070143507309764
 30
0.0
  0
VERTEX
  5
4C8
  8
2
  6
DASHED
 62
     0
 10
-0.9308744975138407
 20
-5.065172521235417
 30
0.0
  0
VERTEX
  5
4C9
  8
2
  6
DASHED
 62
     0
 10
-0.9445438647600332
 20
-5.062641295563433
 30
0.0
  0
VERTEX
  5
4CA
  8
2
  6
DASHED
 62
     0
 10
-0.9581691811278412
 20
-5.060080218764997
 30
0.0
  0
VERTEX
  5
4CB
  8
2
  6
DASHED
 62
     0
 10
-0.9852839527047875
 20
-5.0548704763369
 30
0.0
  0
VERTEX
  5
4CC
  8
2
  6
DASHED
 62
     0
 10
-1.012211433617187
 20
-5.049547307794496
 30
0.0
  0
VERTEX
  5
4CD
  8
2
  6
DASHED
 62
     0
 10
-1.025602654027707
 20
-5.046844479083076
 30
0.0
  0
VERTEX
  5
4CE
  8
2
  6
DASHED
 62
     0
 10
-1.038944319304484
 20
-5.044114858068256
 30
0.0
  0
VERTEX
  5
4CF
  8
2
  6
DASHED
 62
     0
 10
-1.06547539650767
 20
-5.038577396392441
 30
0.0
  0
VERTEX
  5
4D0
  8
2
  6
DASHED
 62
     0
 10
-1.091797559524116
 20
-5.032939309093364
 30
0.0
  0
VERTEX
  5
4D1
  8
2
  6
DASHED
 62
     0
 10
-1.117903825526216
 20
-5.027205091984397
 30
0.0
  0
VERTEX
  5
4D2
  8
2
  6
DASHED
 62
     0
 10
-1.143787348990146
 20
-5.021379342400861
 30
0.0
  0
VERTEX
  5
4D3
  8
2
  6
DASHED
 62
     0
 10
-1.169441435282423
 20
-5.0154667509061
 30
0.0
  0
VERTEX
  5
4D4
  8
2
  6
DASHED
 62
     0
 10
-1.182180391839147
 20
-5.012479378626015
 30
0.0
  0
VERTEX
  5
4D5
  8
2
  6
DASHED
 62
     0
 10
-1.194859553453278
 20
-5.009472092698135
 30
0.0
  0
VERTEX
  5
4D6
  8
2
  6
DASHED
 62
     0
 10
-1.220035348286052
 20
-5.003400218744503
 30
0.0
  0
VERTEX
  5
4D7
  8
2
  6
DASHED
 62
     0
 10
-1.244962651651866
 20
-4.997256046671208
 30
0.0
  0
VERTEX
  5
4D8
  8
2
  6
DASHED
 62
     0
 10
-1.26963549321815
 20
-4.991044551430163
 30
0.0
  0
VERTEX
  5
4D9
  8
2
  6
DASHED
 62
     0
 10
-1.294048110495603
 20
-4.984770755784338
 30
0.0
  0
VERTEX
  5
4DA
  8
2
  6
DASHED
 62
     0
 10
-1.318194938648223
 20
-4.978439725829992
 30
0.0
  0
VERTEX
  5
4DB
  8
2
  6
DASHED
 62
     0
 10
-1.330166975354666
 20
-4.975254347033509
 30
0.0
  0
VERTEX
  5
4DC
  8
2
  6
DASHED
 62
     0
 10
-1.342070526649904
 20
-4.972056586715165
 30
0.0
  0
VERTEX
  5
4DD
  8
2
  6
DASHED
 62
     0
 10
-1.365669504473298
 20
-4.965626526889801
 30
0.0
  0
VERTEX
  5
4DE
  8
2
  6
DASHED
 62
     0
 10
-1.38898659812512
 20
-4.959154789904103
 30
0.0
  0
VERTEX
  5
4DF
  8
2
  6
DASHED
 62
     0
 10
-1.412016645391991
 20
-4.952646665484623
 30
0.0
  0
VERTEX
  5
4E0
  8
2
  6
DASHED
 62
     0
 10
-1.434754610703601
 20
-4.946107480338934
 30
0.0
  0
VERTEX
  5
4E1
  8
2
  6
DASHED
 62
     0
 10
-1.45719559916387
 20
-4.939542588719875
 30
0.0
  0
VERTEX
  5
4E2
  8
2
  6
DASHED
 62
     0
 10
-1.468303239161586
 20
-4.936252181348476
 30
0.0
  0
VERTEX
  5
4E3
  8
2
  6
DASHED
 62
     0
 10
-1.479334869802434
 20
-4.932957362778096
 30
0.0
  0
VERTEX
  5
4E4
  8
2
  6
DASHED
 62
     0
 10
-1.501167848099181
 20
-4.926357182729779
 30
0.0
  0
VERTEX
  5
4E5
  8
2
  6
DASHED
 62
     0
 10
-1.522690137834997
 20
-4.919747426864517
 30
0.0
  0
VERTEX
  5
4E6
  8
2
  6
DASHED
 62
     0
 10
-1.543897532321059
 20
-4.913133461416752
 30
0.0
  0
VERTEX
  5
4E7
  8
2
  6
DASHED
 62
     0
 10
-1.564786025058551
 20
-4.906520630322618
 30
0.0
  0
VERTEX
  5
4E8
  8
2
  6
DASHED
 62
     0
 10
-1.58535181987906
 20
-4.89991424488288
 30
0.0
  0
VERTEX
  5
4E9
  8
2
  6
DASHED
 62
     0
 10
-1.595512579168631
 20
-4.896615117580169
 30
0.0
  0
VERTEX
  5
4EA
  8
2
  6
DASHED
 62
     0
 10
-1.605591340614524
 20
-4.893319573351374
 30
0.0
  0
VERTEX
  5
4EB
  8
2
  6
DASHED
 62
     0
 10
-1.62550124034372
 20
-4.886741830467519
 30
0.0
  0
VERTEX
  5
4EC
  8
2
  6
DASHED
 62
     0
 10
-1.645161736818386
 20
-4.880158077327897
 30
0.0
  0
VERTEX
  5
4ED
  8
2
  6
DASHED
 62
     0
 10
-1.664664046128659
 20
-4.873540152038
 30
0.0
  0
VERTEX
  5
4EE
  8
2
  6
DASHED
 62
     0
 10
-1.683998899795245
 20
-4.866893023838556
 30
0.0
  0
VERTEX
  5
4EF
  8
2
  6
DASHED
 62
     0
 10
-1.703157020385759
 20
-4.860221822500565
 30
0.0
  0
VERTEX
  5
4F0
  8
2
  6
DASHED
 62
     0
 10
-1.712666952852905
 20
-4.856878823751479
 30
0.0
  0
VERTEX
  5
4F1
  8
2
  6
DASHED
 62
     0
 10
-1.722129300693881
 20
-4.853531773017625
 30
0.0
  0
VERTEX
  5
4F2
  8
2
  6
DASHED
 62
     0
 10
-1.740906813509046
 20
-4.846828186213926
 30
0.0
  0
VERTEX
  5
4F3
  8
2
  6
DASHED
 62
     0
 10
-1.759480820530784
 20
-4.840116449238005
 30
0.0
  0
VERTEX
  5
4F4
  8
2
  6
DASHED
 62
     0
 10
-1.76868883231965
 20
-4.836759226427108
 30
0.0
  0
VERTEX
  5
4F5
  8
2
  6
DASHED
 62
     0
 10
-1.777842780491697
 20
-4.833402015956624
 30
0.0
  0
VERTEX
  5
4F6
  8
2
  6
DASHED
 62
     0
 10
-1.795984356544554
 20
-4.826690397264699
 30
0.0
  0
VERTEX
  5
4F7
  8
2
  6
DASHED
 62
     0
 10
-1.813897422960724
 20
-4.819987151328979
 30
0.0
  0
VERTEX
  5
4F8
  8
2
  6
DASHED
 62
     0
 10
-1.822765784993963
 20
-4.816640415585883
 30
0.0
  0
VERTEX
  5
4F9
  8
2
  6
DASHED
 62
     0
 10
-1.831574071178953
 20
-4.813297873785183
 30
0.0
  0
VERTEX
  5
4FA
  8
2
  6
DASHED
 62
     0
 10
-1.849006615235504
 20
-4.806628187910456
 30
0.0
  0
VERTEX
  5
4FB
  8
2
  6
DASHED
 62
     0
 10
-1.866187596598665
 20
-4.799983734795495
 30
0.0
  0
VERTEX
  5
4FC
  8
2
  6
DASHED
 62
     0
 10
-1.883109788422677
 20
-4.793370163543257
 30
0.0
  0
VERTEX
  5
4FD
  8
2
  6
DASHED
 62
     0
 10
-1.899766199228147
 20
-4.786793121524081
 30
0.0
  0
VERTEX
  5
4FE
  8
2
  6
DASHED
 62
     0
 10
-1.916150075389614
 20
-4.780258244967983
 30
0.0
  0
VERTEX
  5
4FF
  8
2
  6
DASHED
 62
     0
 10
-1.924237763054963
 20
-4.777008376717927
 30
0.0
  0
VERTEX
  5
500
  8
2
  6
DASHED
 62
     0
 10
-1.932254877914282
 20
-4.773771159866847
 30
0.0
  0
VERTEX
  5
501
  8
2
  6
DASHED
 62
     0
 10
-1.948074227518328
 20
-4.767337496347293
 30
0.0
  0
VERTEX
  5
502
  8
2
  6
DASHED
 62
     0
 10
-1.963601898711062
 20
-4.760962884058047
 30
0.0
  0
VERTEX
  5
503
  8
2
  6
DASHED
 62
     0
 10
-1.978831829186817
 20
-4.754652941256298
 30
0.0
  0
VERTEX
  5
504
  8
2
  6
DASHED
 62
     0
 10
-1.99375812874884
 20
-4.748413263822761
 30
0.0
  0
VERTEX
  5
505
  8
2
  6
DASHED
 62
     0
 10
-2.008375087692263
 20
-4.742249414269256
 30
0.0
  0
VERTEX
  5
506
  8
2
  6
DASHED
 62
     0
 10
-2.015565831447746
 20
-4.739197651406866
 30
0.0
  0
VERTEX
  5
507
  8
2
  6
DASHED
 62
     0
 10
-2.022677184666194
 20
-4.736166910765587
 30
0.0
  0
VERTEX
  5
508
  8
2
  6
DASHED
 62
     0
 10
-2.036659094027482
 20
-4.730171216215662
 30
0.0
  0
VERTEX
  5
509
  8
2
  6
DASHED
 62
     0
 10
-2.050315692691043
 20
-4.724267727416055
 30
0.0
  0
VERTEX
  5
50A
  8
2
  6
DASHED
 62
     0
 10
-2.063642066473915
 20
-4.718461764333719
 30
0.0
  0
VERTEX
  5
50B
  8
2
  6
DASHED
 62
     0
 10
-2.076633515922088
 20
-4.712758559543345
 30
0.0
  0
VERTEX
  5
50C
  8
2
  6
DASHED
 62
     0
 10
-2.089285561601231
 20
-4.707163247868576
 30
0.0
  0
VERTEX
  5
50D
  8
2
  6
DASHED
 62
     0
 10
-2.0954829695413
 20
-4.70440762735994
 30
0.0
  0
VERTEX
  5
50E
  8
2
  6
DASHED
 62
     0
 10
-2.101593948824088
 20
-4.701680856275337
 30
0.0
  0
VERTEX
  5
50F
  8
2
  6
DASHED
 62
     0
 10
-2.113554651779137
 20
-4.69631629406951
 30
0.0
  0
VERTEX
  5
510
  8
2
  6
DASHED
 62
     0
 10
-2.125163944919214
 20
-4.691074312693779
 30
0.0
  0
VERTEX
  5
511
  8
2
  6
DASHED
 62
     0
 10
-2.13641994825877
 20
-4.685958792465209
 30
0.0
  0
VERTEX
  5
512
  8
2
  6
DASHED
 62
     0
 10
-2.147319800123248
 20
-4.680974009327403
 30
0.0
  0
VERTEX
  5
513
  8
2
  6
DASHED
 62
     0
 10
-2.157860010171031
 20
-4.676124482571511
 30
0.0
  0
VERTEX
  5
514
  8
2
  6
DASHED
 62
     0
 10
-2.162994208889097
 20
-4.673751817577847
 30
0.0
  0
VERTEX
  5
515
  8
2
  6
DASHED
 62
     0
 10
-2.168037272531876
 20
-4.671414602121349
 30
0.0
  0
VERTEX
  5
516
  8
2
  6
DASHED
 62
     0
 10
-2.177848477838532
 20
-4.66684861631234
 30
0.0
  0
VERTEX
  5
517
  8
2
  6
DASHED
 62
     0
 10
-2.187290724485673
 20
-4.662430620028458
 30
0.0
  0
VERTEX
  5
518
  8
2
  6
DASHED
 62
     0
 10
-2.196361329084361
 20
-4.658164543261947
 30
0.0
  0
VERTEX
  5
519
  8
2
  6
DASHED
 62
     0
 10
-2.205057836073942
 20
-4.654054140163059
 30
0.0
  0
VERTEX
  5
51A
  8
2
  6
DASHED
 62
     0
 10
-2.213378026446868
 20
-4.650102978649201
 30
0.0
  0
VERTEX
  5
51B
  8
2
  6
DASHED
 62
     0
 10
-2.217396376081175
 20
-4.648188175121795
 30
0.0
  0
VERTEX
  5
51C
  8
2
  6
DASHED
 62
     0
 10
-2.221319925535684
 20
-4.646314430644804
 30
0.0
  0
VERTEX
  5
51D
  8
2
  6
DASHED
 62
     0
 10
-2.228881809805355
 20
-4.642691663024674
 30
0.0
  0
VERTEX
  5
51E
  8
2
  6
DASHED
 62
     0
 10
-2.23606221258818
 20
-4.639237629334723
 30
0.0
  0
VERTEX
  5
51F
  8
2
  6
DASHED
 62
     0
 10
-2.239508971484094
 20
-4.637574750518018
 30
0.0
  0
VERTEX
  5
520
  8
2
  6
DASHED
 62
     0
 10
-2.242859928693052
 20
-4.635955062364496
 30
0.0
  0
VERTEX
  5
521
  8
2
  6
DASHED
 62
     0
 10
-2.249274017815585
 20
-4.632846467645971
 30
0.0
  0
VERTEX
  5
522
  8
2
  6
DASHED
 62
     0
 10
-2.255303806670988
 20
-4.629914117952444
 30
0.0
  0
VERTEX
  5
523
  8
2
  6
DASHED
 62
     0
 10
-2.258174451350921
 20
-4.628514680463482
 30
0.0
  0
VERTEX
  5
524
  8
2
  6
DASHED
 62
     0
 10
-2.260948889290987
 20
-4.62716004910289
 30
0.0
  0
VERTEX
  5
525
  8
2
  6
DASHED
 62
     0
 10
-2.266209110178308
 20
-4.624586064605658
 30
0.0
  0
VERTEX
  5
526
  8
2
  6
DASHED
 62
     0
 10
-2.271084540239555
 20
-4.62219374443401
 30
0.0
  0
VERTEX
  5
527
  8
2
  6
DASHED
 62
     0
 10
-2.275575485410828
 20
-4.61998443830683
 30
0.0
  0
VERTEX
  5
528
  8
2
  6
DASHED
 62
     0
 10
-2.279682500227227
 20
-4.617959256875025
 30
0.0
  0
VERTEX
  5
529
  8
2
  6
DASHED
 62
     0
 10
-2.283406399793238
 20
-4.616119064038891
 30
0.0
  0
VERTEX
  5
52A
  8
2
  6
DASHED
 62
     0
 10
-2.285125009907094
 20
-4.61526853921818
 30
0.0
  0
VERTEX
  5
52B
  8
2
  6
DASHED
 62
     0
 10
-2.286748270130826
 20
-4.614464470450898
 30
0.0
  0
VERTEX
  5
52C
  8
2
  6
DASHED
 62
     0
 10
-2.289709476888003
 20
-4.612995828249715
 30
0.0
  0
VERTEX
  5
52D
  8
2
  6
DASHED
 62
     0
 10
-2.292291672392065
 20
-4.611713227064536
 30
0.0
  0
VERTEX
  5
52E
  8
2
  6
DASHED
 62
     0
 10
-2.294496801032897
 20
-4.610616491321937
 30
0.0
  0
VERTEX
  5
52F
  8
2
  6
DASHED
 62
     0
 10
-2.296327102962756
 20
-4.609705178880606
 30
0.0
  0
VERTEX
  5
530
  8
2
  6
DASHED
 62
     0
 10
-2.297785116099718
 20
-4.60897858101235
 30
0.0
  0
VERTEX
  5
531
  8
2
  6
DASHED
 62
     0
 10
-2.298375388998387
 20
-4.608684255972253
 30
0.0
  0
VERTEX
  5
532
  8
2
  6
DASHED
 62
     0
 10
-2.298873676422492
 20
-4.608435723740947
 30
0.0
  0
VERTEX
  5
533
  8
2
  6
DASHED
 62
     0
 10
-2.299595916544623
 20
-4.608075370543683
 30
0.0
  0
VERTEX
  5
534
  8
2
  6
DASHED
 62
     0
 10
-2.299955262556015
 20
-4.607896026413888
 30
0.0
  0
VERTEX
  5
535
  8
2
  6
DASHED
 62
     0
 10
-2.300000000000001
 20
-4.607873696185693
 30
0.0
  0
SEQEND
  5
4B2
  8
2
  6
DASHED
 62
     0
  0
POLYLINE
  5
53
  8
2
  6
DASHED
 62
     0
 66
     1
 10
0.0
 20
0.0
 30
0.0
  0
VERTEX
  5
537
  8
2
  6
DASHED
 62
     0
 10
-2.300000000000001
 20
-4.607873696185693
 30
0.0
  0
VERTEX
  5
538
  8
2
  6
DASHED
 62
     0
 10
-2.29976805956147
 20
-4.607989460949414
 30
0.0
  0
VERTEX
  5
539
  8
2
  6
DASHED
 62
     0
 10
-2.297896323496357
 20
-4.608923137400095
 30
0.0
  0
VERTEX
  5
53A
  8
2
  6
DASHED
 62
     0
 10
-2.294115475153113
 20
-4.61080624041642
 30
0.0
  0
VERTEX
  5
53B
  8
2
  6
DASHED
 62
     0
 10
-2.291498998909967
 20
-4.612107147280365
 30
0.0
  0
VERTEX
  5
53C
  8
2
  6
DASHED
 62
     0
 10
-2.288394077785042
 20
-4.613648506849904
 30
0.0
  0
VERTEX
  5
53D
  8
2
  6
DASHED
 62
     0
 10
-2.280708623229626
 20
-4.617452563473287
 30
0.0
  0
VERTEX
  5
53E
  8
2
  6
DASHED
 62
     0
 10
-2.271043325667489
 20
-4.622213994715213
 30
0.0
  0
VERTEX
  5
53F
  8
2
  6
DASHED
 62
     0
 10
-2.259389683368803
 20
-4.627921591674455
 30
0.0
  0
VERTEX
  5
540
  8
2
  6
DASHED
 62
     0
 10
-2.245745842972791
 20
-4.634557757625902
 30
0.0
  0
VERTEX
  5
541
  8
2
  6
DASHED
 62
     0
 10
-2.230116437114171
 20
-4.642098736230543
 30
0.0
  0
VERTEX
  5
542
  8
2
  6
DASHED
 62
     0
 10
-2.221560513739616
 20
-4.646199402069716
 30
0.0
  0
VERTEX
  5
543
  8
2
  6
DASHED
 62
     0
 10
-2.212513121950774
 20
-4.650514561335728
 30
0.0
  0
VERTEX
  5
544
  8
2
  6
DASHED
 62
     0
 10
-2.192954544616289
 20
-4.659769346786037
 30
0.0
  0
VERTEX
  5
545
  8
2
  6
DASHED
 62
     0
 10
-2.171466033854114
 20
-4.66982175931993
 30
0.0
  0
VERTEX
  5
546
  8
2
  6
DASHED
 62
     0
 10
-2.148079144453363
 20
-4.680625598054657
 30
0.0
  0
VERTEX
  5
547
  8
2
  6
DASHED
 62
     0
 10
-2.122831073781762
 20
-4.692130457711782
 30
0.0
  0
VERTEX
  5
548
  8
2
  6
DASHED
 62
     0
 10
-2.095756886455691
 20
-4.704285607068681
 30
0.0
  0
VERTEX
  5
549
  8
2
  6
DASHED
 62
     0
 10
-2.081546212696087
 20
-4.710590765966684
 30
0.0
  0
VERTEX
  5
54A
  8
2
  6
DASHED
 62
     0
 10
-2.066894495798417
 20
-4.717037962878633
 30
0.0
  0
VERTEX
  5
54B
  8
2
  6
DASHED
 62
     0
 10
-2.036294234202809
 20
-4.730328296403157
 30
0.0
  0
VERTEX
  5
54C
  8
2
  6
DASHED
 62
     0
 10
-2.004012343742557
 20
-4.744094700375137
 30
0.0
  0
VERTEX
  5
54D
  8
2
  6
DASHED
 62
     0
 10
-1.987259898461283
 20
-4.751136505718148
 30
0.0
  0
VERTEX
  5
54E
  8
2
  6
DASHED
 62
     0
 10
-1.970110641799982
 20
-4.758273222406051
 30
0.0
  0
VERTEX
  5
54F
  8
2
  6
DASHED
 62
     0
 10
-1.934656114837579
 20
-4.772798520503622
 30
0.0
  0
VERTEX
  5
550
  8
2
  6
DASHED
 62
     0
 10
-1.897720441589716
 20
-4.787604528944777
 30
0.0
  0
VERTEX
  5
551
  8
2
  6
DASHED
 62
     0
 10
-1.878720755932335
 20
-4.795092107689802
 30
0.0
  0
VERTEX
  5
552
  8
2
  6
DASHED
 62
     0
 10
-1.859379714430195
 20
-4.802625019462324
 30
0.0
  0
VERTEX
  5
553
  8
2
  6
DASHED
 62
     0
 10
-1.819715536884344
 20
-4.817793619990558
 30
0.0
  0
VERTEX
  5
554
  8
2
  6
DASHED
 62
     0
 10
-1.778815720656594
 20
-4.833044033727084
 30
0.0
  0
VERTEX
  5
555
  8
2
  6
DASHED
 62
     0
 10
-1.736774066243709
 20
-4.848310617403066
 30
0.0
  0
VERTEX
  5
556
  8
2
  6
DASHED
 62
     0
 10
-1.693690019680138
 20
-4.863528977731694
 30
0.0
  0
VERTEX
  5
557
  8
2
  6
DASHED
 62
     0
 10
-1.649668238470802
 20
-4.878636561887004
 30
0.0
  0
VERTEX
  5
558
  8
2
  6
DASHED
 62
     0
 10
-1.627339697729121
 20
-4.886129911104995
 30
0.0
  0
VERTEX
  5
559
  8
2
  6
DASHED
 62
     0
 10
-1.604707962260712
 20
-4.893609338295924
 30
0.0
  0
VERTEX
  5
55A
  8
2
  6
DASHED
 62
     0
 10
-1.558171753770572
 20
-4.908625142109707
 30
0.0
  0
VERTEX
  5
55B
  8
2
  6
DASHED
 62
     0
 10
-1.509972889619293
 20
-4.923665491543344
 30
0.0
  0
VERTEX
  5
55C
  8
2
  6
DASHED
 62
     0
 10
-1.460158332858044
 20
-4.93866759794433
 30
0.0
  0
VERTEX
  5
55D
  8
2
  6
DASHED
 62
     0
 10
-1.408780225220996
 20
-4.95356823683961
 30
0.0
  0
VERTEX
  5
55E
  8
2
  6
DASHED
 62
     0
 10
-1.355895192666013
 20
-4.968304361299254
 30
0.0
  0
VERTEX
  5
55F
  8
2
  6
DASHED
 62
     0
 10
-1.328906309840822
 20
-4.975591223127684
 30
0.0
  0
VERTEX
  5
560
  8
2
  6
DASHED
 62
     0
 10
-1.301563558558277
 20
-4.982813693389822
 30
0.0
  0
VERTEX
  5
561
  8
2
  6
DASHED
 62
     0
 10
-1.245848501891411
 20
-4.997035272072325
 30
0.0
  0
VERTEX
  5
562
  8
2
  6
DASHED
 62
     0
 10
-1.188816515531398
 20
-5.01090962724332
 30
0.0
  0
VERTEX
  5
563
  8
2
  6
DASHED
 62
     0
 10
-1.130539185994595
 20
-5.024378682875196
 30
0.0
  0
VERTEX
  5
564
  8
2
  6
DASHED
 62
     0
 10
-1.07109302129014
 20
-5.03738620117056
 30
0.0
  0
VERTEX
  5
565
  8
2
  6
DASHED
 62
     0
 10
-1.010558721536804
 20
-5.049878322328758
 30
0.0
  0
VERTEX
  5
566
  8
2
  6
DASHED
 62
     0
 10
-0.9799096825756199
 20
-5.055915052094383
 30
0.0
  0
VERTEX
  5
567
  8
2
  6
DASHED
 62
     0
 10
-0.9490203421392424
 20
-5.06180406477828
 30
0.0
  0
VERTEX
  5
568
  8
2
  6
DASHED
 62
     0
 10
-0.8865643354176573
 20
-5.073115776242983
 30
0.0
  0
VERTEX
  5
569
  8
2
  6
DASHED
 62
     0
 10
-0.8232624882267785
 20
-5.083772110891543
 30
0.0
  0
VERTEX
  5
56A
  8
2
  6
DASHED
 62
     0
 10
-0.7591886838304871
 20
-5.09373463603511
 30
0.0
  0
VERTEX
  5
56B
  8
2
  6
DASHED
 62
     0
 10
-0.6944384795838229
 20
-5.102965333810658
 30
0.0
  0
VERTEX
  5
56C
  8
2
  6
DASHED
 62
     0
 10
-0.629111611952816
 20
-5.1114301892627
 30
0.0
  0
VERTEX
  5
56D
  8
2
  6
DASHED
 62
     0
 10
-0.5962639789274229
 20
-5.115365995452685
 30
0.0
  0
VERTEX
  5
56E
  8
2
  6
DASHED
 62
     0
 10
-0.563310927560378
 20
-5.119099608221261
 30
0.0
  0
VERTEX
  5
56F
  8
2
  6
DASHED
 62
     0
 10
-0.4971412025998452
 20
-5.125948753614066
 30
0.0
  0
VERTEX
  5
570
  8
2
  6
DASHED
 62
     0
 10
-0.4307078437607532
 20
-5.131957789511032
 30
0.0
  0
VERTEX
  5
571
  8
2
  6
DASHED
 62
     0
 10
-0.364116130987655
 20
-5.137111974948042
 30
0.0
  0
VERTEX
  5
572
  8
2
  6
DASHED
 62
     0
 10
-0.2974739319554913
 20
-5.141401487902588
 30
0.0
  0
VERTEX
  5
573
  8
2
  6
DASHED
 62
     0
 10
-0.2308929904904553
 20
-5.144821515557404
 30
0.0
  0
VERTEX
  5
574
  8
2
  6
DASHED
 62
     0
 10
-0.1976611657572109
 20
-5.146205404329631
 30
0.0
  0
VERTEX
  5
575
  8
2
  6
DASHED
 62
     0
 10
-0.1644876680687049
 20
-5.147372514890807
 30
0.0
  0
VERTEX
  5
576
  8
2
  6
DASHED
 62
     0
 10
-0.0983735192709736
 20
-5.149060365805226
 30
0.0
  0
VERTEX
  5
577
  8
2
  6
DASHED
 62
     0
 10
-0.0326658321932308
 20
-5.149896401230526
 30
0.0
  0
VERTEX
  5
578
  8
2
  6
DASHED
 62
     0
 10
0.0000000000000003
 20
-5.15
 30
0.0
  0
VERTEX
  5
579
  8
2
  6
DASHED
 62
     0
 10
0.0326658321932315
 20
-5.149896401230526
 30
0.0
  0
VERTEX
  5
57A
  8
2
  6
DASHED
 62
     0
 10
0.0983735192709742
 20
-5.149060365805226
 30
0.0
  0
VERTEX
  5
57B
  8
2
  6
DASHED
 62
     0
 10
0.1644876680687055
 20
-5.147372514890807
 30
0.0
  0
VERTEX
  5
57C
  8
2
  6
DASHED
 62
     0
 10
0.1976611657572115
 20
-5.146205404329631
 30
0.0
  0
VERTEX
  5
57D
  8
2
  6
DASHED
 62
     0
 10
0.230892990490456
 20
-5.144821515557404
 30
0.0
  0
VERTEX
  5
57E
  8
2
  6
DASHED
 62
     0
 10
0.2974739319554919
 20
-5.141401487902588
 30
0.0
  0
VERTEX
  5
57F
  8
2
  6
DASHED
 62
     0
 10
0.3641161309876556
 20
-5.137111974948042
 30
0.0
  0
VERTEX
  5
580
  8
2
  6
DASHED
 62
     0
 10
0.4307078437607538
 20
-5.131957789511032
 30
0.0
  0
VERTEX
  5
581
  8
2
  6
DASHED
 62
     0
 10
0.4971412025998458
 20
-5.125948753614066
 30
0.0
  0
VERTEX
  5
582
  8
2
  6
DASHED
 62
     0
 10
0.5633109275603785
 20
-5.119099608221261
 30
0.0
  0
VERTEX
  5
583
  8
2
  6
DASHED
 62
     0
 10
0.5962639789274233
 20
-5.115365995452685
 30
0.0
  0
VERTEX
  5
584
  8
2
  6
DASHED
 62
     0
 10
0.6291116119528163
 20
-5.1114301892627
 30
0.0
  0
VERTEX
  5
585
  8
2
  6
DASHED
 62
     0
 10
0.6944384795838233
 20
-5.102965333810658
 30
0.0
  0
VERTEX
  5
586
  8
2
  6
DASHED
 62
     0
 10
0.7591886838304874
 20
-5.09373463603511
 30
0.0
  0
VERTEX
  5
587
  8
2
  6
DASHED
 62
     0
 10
0.8232624882267788
 20
-5.083772110891543
 30
0.0
  0
VERTEX
  5
588
  8
2
  6
DASHED
 62
     0
 10
0.8865643354176576
 20
-5.073115776242983
 30
0.0
  0
VERTEX
  5
589
  8
2
  6
DASHED
 62
     0
 10
0.9490203421392426
 20
-5.06180406477828
 30
0.0
  0
VERTEX
  5
58A
  8
2
  6
DASHED
 62
     0
 10
0.9799096825756199
 20
-5.055915052094384
 30
0.0
  0
VERTEX
  5
58B
  8
2
  6
DASHED
 62
     0
 10
1.010558721536804
 20
-5.049878322328758
 30
0.0
  0
VERTEX
  5
58C
  8
2
  6
DASHED
 62
     0
 10
1.07109302129014
 20
-5.03738620117056
 30
0.0
  0
VERTEX
  5
58D
  8
2
  6
DASHED
 62
     0
 10
1.130539185994595
 20
-5.024378682875196
 30
0.0
  0
VERTEX
  5
58E
  8
2
  6
DASHED
 62
     0
 10
1.188816515531398
 20
-5.01090962724332
 30
0.0
  0
VERTEX
  5
58F
  8
2
  6
DASHED
 62
     0
 10
1.245848501891411
 20
-4.997035272072325
 30
0.0
  0
VERTEX
  5
590
  8
2
  6
DASHED
 62
     0
 10
1.301563558558277
 20
-4.982813693389822
 30
0.0
  0
VERTEX
  5
591
  8
2
  6
DASHED
 62
     0
 10
1.328906309840822
 20
-4.975591223127684
 30
0.0
  0
VERTEX
  5
592
  8
2
  6
DASHED
 62
     0
 10
1.355895192666013
 20
-4.968304361299254
 30
0.0
  0
VERTEX
  5
593
  8
2
  6
DASHED
 62
     0
 10
1.408780225220996
 20
-4.95356823683961
 30
0.0
  0
VERTEX
  5
594
  8
2
  6
DASHED
 62
     0
 10
1.460158332858044
 20
-4.93866759794433
 30
0.0
  0
VERTEX
  5
595
  8
2
  6
DASHED
 62
     0
 10
1.509972889619293
 20
-4.923665491543344
 30
0.0
  0
VERTEX
  5
596
  8
2
  6
DASHED
 62
     0
 10
1.558171753770572
 20
-4.908625142109707
 30
0.0
  0
VERTEX
  5
597
  8
2
  6
DASHED
 62
     0
 10
1.604707962260712
 20
-4.893609338295924
 30
0.0
  0
VERTEX
  5
598
  8
2
  6
DASHED
 62
     0
 10
1.627339697729121
 20
-4.886129911104995
 30
0.0
  0
VERTEX
  5
599
  8
2
  6
DASHED
 62
     0
 10
1.649668238470802
 20
-4.878636561887004
 30
0.0
  0
VERTEX
  5
59A
  8
2
  6
DASHED
 62
     0
 10
1.693690019680138
 20
-4.863528977731694
 30
0.0
  0
VERTEX
  5
59B
  8
2
  6
DASHED
 62
     0
 10
1.736774066243709
 20
-4.848310617403066
 30
0.0
  0
VERTEX
  5
59C
  8
2
  6
DASHED
 62
     0
 10
1.778815720656594
 20
-4.833044033727084
 30
0.0
  0
VERTEX
  5
59D
  8
2
  6
DASHED
 62
     0
 10
1.819715536884344
 20
-4.817793619990558
 30
0.0
  0
VERTEX
  5
59E
  8
2
  6
DASHED
 62
     0
 10
1.859379714430195
 20
-4.802625019462324
 30
0.0
  0
VERTEX
  5
59F
  8
2
  6
DASHED
 62
     0
 10
1.878720755932335
 20
-4.795092107689802
 30
0.0
  0
VERTEX
  5
5A0
  8
2
  6
DASHED
 62
     0
 10
1.897720441589716
 20
-4.787604528944777
 30
0.0
  0
VERTEX
  5
5A1
  8
2
  6
DASHED
 62
     0
 10
1.934656114837579
 20
-4.772798520503622
 30
0.0
  0
VERTEX
  5
5A2
  8
2
  6
DASHED
 62
     0
 10
1.970110641799982
 20
-4.758273222406051
 30
0.0
  0
VERTEX
  5
5A3
  8
2
  6
DASHED
 62
     0
 10
1.987259898461283
 20
-4.751136505718148
 30
0.0
  0
VERTEX
  5
5A4
  8
2
  6
DASHED
 62
     0
 10
2.004012343742557
 20
-4.744094700375137
 30
0.0
  0
VERTEX
  5
5A5
  8
2
  6
DASHED
 62
     0
 10
2.036294234202809
 20
-4.730328296403157
 30
0.0
  0
VERTEX
  5
5A6
  8
2
  6
DASHED
 62
     0
 10
2.066894495798417
 20
-4.717037962878633
 30
0.0
  0
VERTEX
  5
5A7
  8
2
  6
DASHED
 62
     0
 10
2.081546212696087
 20
-4.710590765966684
 30
0.0
  0
VERTEX
  5
5A8
  8
2
  6
DASHED
 62
     0
 10
2.095756886455691
 20
-4.704285607068681
 30
0.0
  0
VERTEX
  5
5A9
  8
2
  6
DASHED
 62
     0
 10
2.122831073781762
 20
-4.692130457711782
 30
0.0
  0
VERTEX
  5
5AA
  8
2
  6
DASHED
 62
     0
 10
2.148079144453363
 20
-4.680625598054657
 30
0.0
  0
VERTEX
  5
5AB
  8
2
  6
DASHED
 62
     0
 10
2.171466033854117
 20
-4.669821759319929
 30
0.0
  0
VERTEX
  5
5AC
  8
2
  6
DASHED
 62
     0
 10
2.192954544616287
 20
-4.659769346786038
 30
0.0
  0
VERTEX
  5
5AD
  8
2
  6
DASHED
 62
     0
 10
2.212513121950774
 20
-4.650514561335728
 30
0.0
  0
VERTEX
  5
5AE
  8
2
  6
DASHED
 62
     0
 10
2.221560513739616
 20
-4.646199402069716
 30
0.0
  0
VERTEX
  5
5AF
  8
2
  6
DASHED
 62
     0
 10
2.23011643711417
 20
-4.642098736230543
 30
0.0
  0
VERTEX
  5
5B0
  8
2
  6
DASHED
 62
     0
 10
2.24574584297279
 20
-4.634557757625902
 30
0.0
  0
VERTEX
  5
5B1
  8
2
  6
DASHED
 62
     0
 10
2.259389683368803
 20
-4.627921591674455
 30
0.0
  0
VERTEX
  5
5B2
  8
2
  6
DASHED
 62
     0
 10
2.271043325667489
 20
-4.622213994715213
 30
0.0
  0
VERTEX
  5
5B3
  8
2
  6
DASHED
 62
     0
 10
2.280708623229626
 20
-4.617452563473287
 30
0.0
  0
VERTEX
  5
5B4
  8
2
  6
DASHED
 62
     0
 10
2.288394077785041
 20
-4.613648506849905
 30
0.0
  0
VERTEX
  5
5B5
  8
2
  6
DASHED
 62
     0
 10
2.291498998909967
 20
-4.612107147280365
 30
0.0
  0
VERTEX
  5
5B6
  8
2
  6
DASHED
 62
     0
 10
2.294115475153113
 20
-4.610806240416421
 30
0.0
  0
VERTEX
  5
5B7
  8
2
  6
DASHED
 62
     0
 10
2.297896323496357
 20
-4.608923137400095
 30
0.0
  0
VERTEX
  5
5B8
  8
2
  6
DASHED
 62
     0
 10
2.29976805956147
 20
-4.607989460949415
 30
0.0
  0
VERTEX
  5
5B9
  8
2
  6
DASHED
 62
     0
 10
2.300000000000001
 20
-4.607873696185693
 30
0.0
  0
SEQEND
  5
536
  8
2
  6
DASHED
 62
     0
  0
POLYLINE
  5
54
  8
2
  6
DASHED
 62
     0
 66
     1
 10
0.0
 20
0.0
 30
0.0
  0
VERTEX
  5
5BB
  8
2
  6
DASHED
 62
     0
 10
2.300000000000001
 20
4.607873696185693
 30
0.0
  0
VERTEX
  5
5BC
  8
2
  6
DASHED
 62
     0
 10
2.29976805956147
 20
4.607989460949414
 30
0.0
  0
VERTEX
  5
5BD
  8
2
  6
DASHED
 62
     0
 10
2.297896323496357
 20
4.608923137400095
 30
0.0
  0
VERTEX
  5
5BE
  8
2
  6
DASHED
 62
     0
 10
2.294115475153113
 20
4.610806240416421
 30
0.0
  0
VERTEX
  5
5BF
  8
2
  6
DASHED
 62
     0
 10
2.291498998909967
 20
4.612107147280364
 30
0.0
  0
VERTEX
  5
5C0
  8
2
  6
DASHED
 62
     0
 10
2.288394077785041
 20
4.613648506849905
 30
0.0
  0
VERTEX
  5
5C1
  8
2
  6
DASHED
 62
     0
 10
2.280708623229625
 20
4.617452563473287
 30
0.0
  0
VERTEX
  5
5C2
  8
2
  6
DASHED
 62
     0
 10
2.271043325667489
 20
4.622213994715213
 30
0.0
  0
VERTEX
  5
5C3
  8
2
  6
DASHED
 62
     0
 10
2.259389683368803
 20
4.627921591674455
 30
0.0
  0
VERTEX
  5
5C4
  8
2
  6
DASHED
 62
     0
 10
2.245745842972791
 20
4.634557757625902
 30
0.0
  0
VERTEX
  5
5C5
  8
2
  6
DASHED
 62
     0
 10
2.230116437114171
 20
4.642098736230542
 30
0.0
  0
VERTEX
  5
5C6
  8
2
  6
DASHED
 62
     0
 10
2.221560513739614
 20
4.646199402069716
 30
0.0
  0
VERTEX
  5
5C7
  8
2
  6
DASHED
 62
     0
 10
2.212513121950772
 20
4.650514561335729
 30
0.0
  0
VERTEX
  5
5C8
  8
2
  6
DASHED
 62
     0
 10
2.192954544616285
 20
4.659769346786039
 30
0.0
  0
VERTEX
  5
5C9
  8
2
  6
DASHED
 62
     0
 10
2.171466033854116
 20
4.669821759319929
 30
0.0
  0
VERTEX
  5
5CA
  8
2
  6
DASHED
 62
     0
 10
2.148079144453362
 20
4.680625598054657
 30
0.0
  0
VERTEX
  5
5CB
  8
2
  6
DASHED
 62
     0
 10
2.122831073781761
 20
4.692130457711782
 30
0.0
  0
VERTEX
  5
5CC
  8
2
  6
DASHED
 62
     0
 10
2.09575688645569
 20
4.704285607068682
 30
0.0
  0
VERTEX
  5
5CD
  8
2
  6
DASHED
 62
     0
 10
2.081546212696088
 20
4.710590765966682
 30
0.0
  0
VERTEX
  5
5CE
  8
2
  6
DASHED
 62
     0
 10
2.066894495798421
 20
4.717037962878631
 30
0.0
  0
VERTEX
  5
5CF
  8
2
  6
DASHED
 62
     0
 10
2.036294234202806
 20
4.730328296403159
 30
0.0
  0
VERTEX
  5
5D0
  8
2
  6
DASHED
 62
     0
 10
2.004012343742556
 20
4.744094700375139
 30
0.0
  0
VERTEX
  5
5D1
  8
2
  6
DASHED
 62
     0
 10
1.987259898461283
 20
4.751136505718148
 30
0.0
  0
VERTEX
  5
5D2
  8
2
  6
DASHED
 62
     0
 10
1.970110641799981
 20
4.758273222406052
 30
0.0
  0
VERTEX
  5
5D3
  8
2
  6
DASHED
 62
     0
 10
1.934656114837579
 20
4.772798520503623
 30
0.0
  0
VERTEX
  5
5D4
  8
2
  6
DASHED
 62
     0
 10
1.897720441589716
 20
4.787604528944777
 30
0.0
  0
VERTEX
  5
5D5
  8
2
  6
DASHED
 62
     0
 10
1.878720755932335
 20
4.795092107689802
 30
0.0
  0
VERTEX
  5
5D6
  8
2
  6
DASHED
 62
     0
 10
1.859379714430195
 20
4.802625019462324
 30
0.0
  0
VERTEX
  5
5D7
  8
2
  6
DASHED
 62
     0
 10
1.819715536884344
 20
4.817793619990558
 30
0.0
  0
VERTEX
  5
5D8
  8
2
  6
DASHED
 62
     0
 10
1.778815720656598
 20
4.833044033727083
 30
0.0
  0
VERTEX
  5
5D9
  8
2
  6
DASHED
 62
     0
 10
1.736774066243705
 20
4.848310617403067
 30
0.0
  0
VERTEX
  5
5DA
  8
2
  6
DASHED
 62
     0
 10
1.693690019680139
 20
4.863528977731694
 30
0.0
  0
VERTEX
  5
5DB
  8
2
  6
DASHED
 62
     0
 10
1.6496682384708
 20
4.878636561887004
 30
0.0
  0
VERTEX
  5
5DC
  8
2
  6
DASHED
 62
     0
 10
1.62733969772912
 20
4.886129911104995
 30
0.0
  0
VERTEX
  5
5DD
  8
2
  6
DASHED
 62
     0
 10
1.60470796226071
 20
4.893609338295925
 30
0.0
  0
VERTEX
  5
5DE
  8
2
  6
DASHED
 62
     0
 10
1.55817175377057
 20
4.908625142109708
 30
0.0
  0
VERTEX
  5
5DF
  8
2
  6
DASHED
 62
     0
 10
1.509972889619293
 20
4.923665491543345
 30
0.0
  0
VERTEX
  5
5E0
  8
2
  6
DASHED
 62
     0
 10
1.460158332858045
 20
4.93866759794433
 30
0.0
  0
VERTEX
  5
5E1
  8
2
  6
DASHED
 62
     0
 10
1.408780225220991
 20
4.953568236839612
 30
0.0
  0
VERTEX
  5
5E2
  8
2
  6
DASHED
 62
     0
 10
1.355895192666013
 20
4.968304361299255
 30
0.0
  0
VERTEX
  5
5E3
  8
2
  6
DASHED
 62
     0
 10
1.328906309840822
 20
4.975591223127685
 30
0.0
  0
VERTEX
  5
5E4
  8
2
  6
DASHED
 62
     0
 10
1.301563558558275
 20
4.982813693389821
 30
0.0
  0
VERTEX
  5
5E5
  8
2
  6
DASHED
 62
     0
 10
1.245848501891409
 20
4.997035272072325
 30
0.0
  0
VERTEX
  5
5E6
  8
2
  6
DASHED
 62
     0
 10
1.188816515531396
 20
5.010909627243321
 30
0.0
  0
VERTEX
  5
5E7
  8
2
  6
DASHED
 62
     0
 10
1.130539185994594
 20
5.024378682875196
 30
0.0
  0
VERTEX
  5
5E8
  8
2
  6
DASHED
 62
     0
 10
1.071093021290139
 20
5.03738620117056
 30
0.0
  0
VERTEX
  5
5E9
  8
2
  6
DASHED
 62
     0
 10
1.010558721536803
 20
5.049878322328758
 30
0.0
  0
VERTEX
  5
5EA
  8
2
  6
DASHED
 62
     0
 10
0.9799096825756197
 20
5.055915052094383
 30
0.0
  0
VERTEX
  5
5EB
  8
2
  6
DASHED
 62
     0
 10
0.9490203421392424
 20
5.06180406477828
 30
0.0
  0
VERTEX
  5
5EC
  8
2
  6
DASHED
 62
     0
 10
0.8865643354176576
 20
5.073115776242983
 30
0.0
  0
VERTEX
  5
5ED
  8
2
  6
DASHED
 62
     0
 10
0.8232624882267787
 20
5.083772110891543
 30
0.0
  0
VERTEX
  5
5EE
  8
2
  6
DASHED
 62
     0
 10
0.7591886838304874
 20
5.09373463603511
 30
0.0
  0
VERTEX
  5
5EF
  8
2
  6
DASHED
 62
     0
 10
0.6944384795838233
 20
5.102965333810658
 30
0.0
  0
VERTEX
  5
5F0
  8
2
  6
DASHED
 62
     0
 10
0.6291116119528163
 20
5.1114301892627
 30
0.0
  0
VERTEX
  5
5F1
  8
2
  6
DASHED
 62
     0
 10
0.5962639789274233
 20
5.115365995452685
 30
0.0
  0
VERTEX
  5
5F2
  8
2
  6
DASHED
 62
     0
 10
0.5633109275603785
 20
5.119099608221261
 30
0.0
  0
VERTEX
  5
5F3
  8
2
  6
DASHED
 62
     0
 10
0.4971412025998458
 20
5.125948753614066
 30
0.0
  0
VERTEX
  5
5F4
  8
2
  6
DASHED
 62
     0
 10
0.4307078437607538
 20
5.131957789511032
 30
0.0
  0
VERTEX
  5
5F5
  8
2
  6
DASHED
 62
     0
 10
0.3641161309876556
 20
5.137111974948042
 30
0.0
  0
VERTEX
  5
5F6
  8
2
  6
DASHED
 62
     0
 10
0.2974739319554924
 20
5.141401487902588
 30
0.0
  0
VERTEX
  5
5F7
  8
2
  6
DASHED
 62
     0
 10
0.2308929904904554
 20
5.144821515557404
 30
0.0
  0
VERTEX
  5
5F8
  8
2
  6
DASHED
 62
     0
 10
0.1976611657572119
 20
5.146205404329631
 30
0.0
  0
VERTEX
  5
5F9
  8
2
  6
DASHED
 62
     0
 10
0.1644876680687056
 20
5.147372514890807
 30
0.0
  0
VERTEX
  5
5FA
  8
2
  6
DASHED
 62
     0
 10
0.0983735192709738
 20
5.149060365805226
 30
0.0
  0
VERTEX
  5
5FB
  8
2
  6
DASHED
 62
     0
 10
0.0326658321932311
 20
5.149896401230526
 30
0.0
  0
VERTEX
  5
5FC
  8
2
  6
DASHED
 62
     0
 10
-0.0000000000000002
 20
5.15
 30
0.0
  0
VERTEX
  5
5FD
  8
2
  6
DASHED
 62
     0
 10
-0.0326658321932313
 20
5.149896401230526
 30
0.0
  0
VERTEX
  5
5FE
  8
2
  6
DASHED
 62
     0
 10
-0.098373519270974
 20
5.149060365805226
 30
0.0
  0
VERTEX
  5
5FF
  8
2
  6
DASHED
 62
     0
 10
-0.1644876680687059
 20
5.147372514890807
 30
0.0
  0
VERTEX
  5
600
  8
2
  6
DASHED
 62
     0
 10
-0.1976611657572117
 20
5.146205404329631
 30
0.0
  0
VERTEX
  5
601
  8
2
  6
DASHED
 62
     0
 10
-0.2308929904904558
 20
5.144821515557404
 30
0.0
  0
VERTEX
  5
602
  8
2
  6
DASHED
 62
     0
 10
-0.2974739319554927
 20
5.141401487902588
 30
0.0
  0
VERTEX
  5
603
  8
2
  6
DASHED
 62
     0
 10
-0.3641161309876554
 20
5.137111974948042
 30
0.0
  0
VERTEX
  5
604
  8
2
  6
DASHED
 62
     0
 10
-0.4307078437607531
 20
5.131957789511033
 30
0.0
  0
VERTEX
  5
605
  8
2
  6
DASHED
 62
     0
 10
-0.4971412025998459
 20
5.125948753614065
 30
0.0
  0
VERTEX
  5
606
  8
2
  6
DASHED
 62
     0
 10
-0.5633109275603789
 20
5.119099608221261
 30
0.0
  0
VERTEX
  5
607
  8
2
  6
DASHED
 62
     0
 10
-0.596263978927423
 20
5.115365995452685
 30
0.0
  0
VERTEX
  5
608
  8
2
  6
DASHED
 62
     0
 10
-0.6291116119528168
 20
5.1114301892627
 30
0.0
  0
VERTEX
  5
609
  8
2
  6
DASHED
 62
     0
 10
-0.6944384795838237
 20
5.102965333810657
 30
0.0
  0
VERTEX
  5
60A
  8
2
  6
DASHED
 62
     0
 10
-0.7591886838304879
 20
5.09373463603511
 30
0.0
  0
VERTEX
  5
60B
  8
2
  6
DASHED
 62
     0
 10
-0.8232624882267795
 20
5.083772110891543
 30
0.0
  0
VERTEX
  5
60C
  8
2
  6
DASHED
 62
     0
 10
-0.8865643354176565
 20
5.073115776242984
 30
0.0
  0
VERTEX
  5
60D
  8
2
  6
DASHED
 62
     0
 10
-0.9490203421392417
 20
5.06180406477828
 30
0.0
  0
VERTEX
  5
60E
  8
2
  6
DASHED
 62
     0
 10
-0.9799096825756206
 20
5.055915052094383
 30
0.0
  0
VERTEX
  5
60F
  8
2
  6
DASHED
 62
     0
 10
-1.010558721536802
 20
5.049878322328758
 30
0.0
  0
VERTEX
  5
610
  8
2
  6
DASHED
 62
     0
 10
-1.071093021290139
 20
5.03738620117056
 30
0.0
  0
VERTEX
  5
611
  8
2
  6
DASHED
 62
     0
 10
-1.130539185994596
 20
5.024378682875195
 30
0.0
  0
VERTEX
  5
612
  8
2
  6
DASHED
 62
     0
 10
-1.188816515531395
 20
5.010909627243321
 30
0.0
  0
VERTEX
  5
613
  8
2
  6
DASHED
 62
     0
 10
-1.24584850189141
 20
4.997035272072325
 30
0.0
  0
VERTEX
  5
614
  8
2
  6
DASHED
 62
     0
 10
-1.301563558558277
 20
4.982813693389822
 30
0.0
  0
VERTEX
  5
615
  8
2
  6
DASHED
 62
     0
 10
-1.328906309840825
 20
4.975591223127685
 30
0.0
  0
VERTEX
  5
616
  8
2
  6
DASHED
 62
     0
 10
-1.355895192666014
 20
4.968304361299254
 30
0.0
  0
VERTEX
  5
617
  8
2
  6
DASHED
 62
     0
 10
-1.408780225220996
 20
4.95356823683961
 30
0.0
  0
VERTEX
  5
618
  8
2
  6
DASHED
 62
     0
 10
-1.460158332858045
 20
4.93866759794433
 30
0.0
  0
VERTEX
  5
619
  8
2
  6
DASHED
 62
     0
 10
-1.509972889619297
 20
4.923665491543344
 30
0.0
  0
VERTEX
  5
61A
  8
2
  6
DASHED
 62
     0
 10
-1.558171753770569
 20
4.908625142109708
 30
0.0
  0
VERTEX
  5
61B
  8
2
  6
DASHED
 62
     0
 10
-1.60470796226071
 20
4.893609338295925
 30
0.0
  0
VERTEX
  5
61C
  8
2
  6
DASHED
 62
     0
 10
-1.627339697729123
 20
4.886129911104994
 30
0.0
  0
VERTEX
  5
61D
  8
2
  6
DASHED
 62
     0
 10
-1.649668238470801
 20
4.878636561887004
 30
0.0
  0
VERTEX
  5
61E
  8
2
  6
DASHED
 62
     0
 10
-1.693690019680139
 20
4.863528977731694
 30
0.0
  0
VERTEX
  5
61F
  8
2
  6
DASHED
 62
     0
 10
-1.736774066243705
 20
4.848310617403067
 30
0.0
  0
VERTEX
  5
620
  8
2
  6
DASHED
 62
     0
 10
-1.778815720656592
 20
4.833044033727084
 30
0.0
  0
VERTEX
  5
621
  8
2
  6
DASHED
 62
     0
 10
-1.819715536884343
 20
4.817793619990558
 30
0.0
  0
VERTEX
  5
622
  8
2
  6
DASHED
 62
     0
 10
-1.859379714430191
 20
4.802625019462327
 30
0.0
  0
VERTEX
  5
623
  8
2
  6
DASHED
 62
     0
 10
-1.878720755932331
 20
4.795092107689804
 30
0.0
  0
VERTEX
  5
624
  8
2
  6
DASHED
 62
     0
 10
-1.897720441589713
 20
4.787604528944779
 30
0.0
  0
VERTEX
  5
625
  8
2
  6
DASHED
 62
     0
 10
-1.934656114837577
 20
4.772798520503622
 30
0.0
  0
VERTEX
  5
626
  8
2
  6
DASHED
 62
     0
 10
-1.970110641799976
 20
4.758273222406054
 30
0.0
  0
VERTEX
  5
627
  8
2
  6
DASHED
 62
     0
 10
-1.987259898461278
 20
4.751136505718151
 30
0.0
  0
VERTEX
  5
628
  8
2
  6
DASHED
 62
     0
 10
-2.004012343742551
 20
4.744094700375141
 30
0.0
  0
VERTEX
  5
629
  8
2
  6
DASHED
 62
     0
 10
-2.036294234202802
 20
4.73032829640316
 30
0.0
  0
VERTEX
  5
62A
  8
2
  6
DASHED
 62
     0
 10
-2.066894495798412
 20
4.717037962878636
 30
0.0
  0
VERTEX
  5
62B
  8
2
  6
DASHED
 62
     0
 10
-2.081546212696085
 20
4.710590765966684
 30
0.0
  0
VERTEX
  5
62C
  8
2
  6
DASHED
 62
     0
 10
-2.095756886455687
 20
4.704285607068684
 30
0.0
  0
VERTEX
  5
62D
  8
2
  6
DASHED
 62
     0
 10
-2.122831073781759
 20
4.692130457711783
 30
0.0
  0
VERTEX
  5
62E
  8
2
  6
DASHED
 62
     0
 10
-2.148079144453359
 20
4.680625598054659
 30
0.0
  0
VERTEX
  5
62F
  8
2
  6
DASHED
 62
     0
 10
-2.171466033854113
 20
4.669821759319931
 30
0.0
  0
VERTEX
  5
630
  8
2
  6
DASHED
 62
     0
 10
-2.192954544616287
 20
4.659769346786038
 30
0.0
  0
VERTEX
  5
631
  8
2
  6
DASHED
 62
     0
 10
-2.212513121950772
 20
4.650514561335729
 30
0.0
  0
VERTEX
  5
632
  8
2
  6
DASHED
 62
     0
 10
-2.221560513739615
 20
4.646199402069716
 30
0.0
  0
VERTEX
  5
633
  8
2
  6
DASHED
 62
     0
 10
-2.230116437114169
 20
4.642098736230544
 30
0.0
  0
VERTEX
  5
634
  8
2
  6
DASHED
 62
     0
 10
-2.24574584297279
 20
4.634557757625903
 30
0.0
  0
VERTEX
  5
635
  8
2
  6
DASHED
 62
     0
 10
-2.259389683368803
 20
4.627921591674455
 30
0.0
  0
VERTEX
  5
636
  8
2
  6
DASHED
 62
     0
 10
-2.271043325667489
 20
4.622213994715213
 30
0.0
  0
VERTEX
  5
637
  8
2
  6
DASHED
 62
     0
 10
-2.280708623229626
 20
4.617452563473287
 30
0.0
  0
VERTEX
  5
638
  8
2
  6
DASHED
 62
     0
 10
-2.288394077785042
 20
4.613648506849904
 30
0.0
  0
VERTEX
  5
639
  8
2
  6
DASHED
 62
     0
 10
-2.291498998909967
 20
4.612107147280365
 30
0.0
  0
VERTEX
  5
63A
  8
2
  6
DASHED
 62
     0
 10
-2.294115475153113
 20
4.61080624041642
 30
0.0
  0
VERTEX
  5
63B
  8
2
  6
DASHED
 62
     0
 10
-2.297896323496357
 20
4.608923137400095
 30
0.0
  0
VERTEX
  5
63C
  8
2
  6
DASHED
 62
     0
 10
-2.29976805956147
 20
4.607989460949414
 30
0.0
  0
VERTEX
  5
63D
  8
2
  6
DASHED
 62
     0
 10
-2.300000000000001
 20
4.607873696185693
 30
0.0
  0
SEQEND
  5
5BA
  8
2
  6
DASHED
 62
     0
  0
POLYLINE
  5
55
  8
2
  6
DASHED
 62
     0
 66
     1
 10
0.0
 20
0.0
 30
0.0
  0
VERTEX
  5
63F
  8
2
  6
DASHED
 62
     0
 10
-2.300000000000001
 20
4.607873696185693
 30
0.0
  0
VERTEX
  5
640
  8
2
  6
DASHED
 62
     0
 10
-2.29976805956147
 20
4.607989460949414
 30
0.0
  0
VERTEX
  5
641
  8
2
  6
DASHED
 62
     0
 10
-2.297896323496357
 20
4.608923137400095
 30
0.0
  0
VERTEX
  5
642
  8
2
  6
DASHED
 62
     0
 10
-2.294115475153113
 20
4.610806240416421
 30
0.0
  0
VERTEX
  5
643
  8
2
  6
DASHED
 62
     0
 10
-2.291498998909967
 20
4.612107147280365
 30
0.0
  0
VERTEX
  5
644
  8
2
  6
DASHED
 62
     0
 10
-2.288394077785041
 20
4.613648506849905
 30
0.0
  0
VERTEX
  5
645
  8
2
  6
DASHED
 62
     0
 10
-2.280708623229625
 20
4.617452563473287
 30
0.0
  0
VERTEX
  5
646
  8
2
  6
DASHED
 62
     0
 10
-2.271043325667489
 20
4.622213994715213
 30
0.0
  0
VERTEX
  5
647
  8
2
  6
DASHED
 62
     0
 10
-2.259389683368803
 20
4.627921591674455
 30
0.0
  0
VERTEX
  5
648
  8
2
  6
DASHED
 62
     0
 10
-2.245745842972789
 20
4.634557757625903
 30
0.0
  0
VERTEX
  5
649
  8
2
  6
DASHED
 62
     0
 10
-2.230116437114171
 20
4.642098736230543
 30
0.0
  0
VERTEX
  5
64A
  8
2
  6
DASHED
 62
     0
 10
-2.221560513739615
 20
4.646199402069716
 30
0.0
  0
VERTEX
  5
64B
  8
2
  6
DASHED
 62
     0
 10
-2.21251312195077
 20
4.65051456133573
 30
0.0
  0
VERTEX
  5
64C
  8
2
  6
DASHED
 62
     0
 10
-2.192954544616286
 20
4.659769346786038
 30
0.0
  0
VERTEX
  5
64D
  8
2
  6
DASHED
 62
     0
 10
-2.171466033854115
 20
4.669821759319929
 30
0.0
  0
VERTEX
  5
64E
  8
2
  6
DASHED
 62
     0
 10
-2.148079144453362
 20
4.680625598054657
 30
0.0
  0
VERTEX
  5
64F
  8
2
  6
DASHED
 62
     0
 10
-2.122831073781762
 20
4.692130457711782
 30
0.0
  0
VERTEX
  5
650
  8
2
  6
DASHED
 62
     0
 10
-2.095756886455689
 20
4.704285607068682
 30
0.0
  0
VERTEX
  5
651
  8
2
  6
DASHED
 62
     0
 10
-2.081546212696088
 20
4.710590765966682
 30
0.0
  0
VERTEX
  5
652
  8
2
  6
DASHED
 62
     0
 10
-2.066894495798418
 20
4.717037962878633
 30
0.0
  0
VERTEX
  5
653
  8
2
  6
DASHED
 62
     0
 10
-2.036294234202805
 20
4.730328296403159
 30
0.0
  0
VERTEX
  5
654
  8
2
  6
DASHED
 62
     0
 10
-2.004012343742555
 20
4.744094700375139
 30
0.0
  0
VERTEX
  5
655
  8
2
  6
DASHED
 62
     0
 10
-1.987259898461283
 20
4.751136505718148
 30
0.0
  0
VERTEX
  5
656
  8
2
  6
DASHED
 62
     0
 10
-1.97011064179998
 20
4.758273222406053
 30
0.0
  0
VERTEX
  5
657
  8
2
  6
DASHED
 62
     0
 10
-1.934656114837579
 20
4.772798520503623
 30
0.0
  0
VERTEX
  5
658
  8
2
  6
DASHED
 62
     0
 10
-1.897720441589716
 20
4.787604528944778
 30
0.0
  0
VERTEX
  5
659
  8
2
  6
DASHED
 62
     0
 10
-1.878720755932334
 20
4.795092107689804
 30
0.0
  0
VERTEX
  5
65A
  8
2
  6
DASHED
 62
     0
 10
-1.859379714430193
 20
4.802625019462325
 30
0.0
  0
VERTEX
  5
65B
  8
2
  6
DASHED
 62
     0
 10
-1.819715536884347
 20
4.817793619990558
 30
0.0
  0
VERTEX
  5
65C
  8
2
  6
DASHED
 62
     0
 10
-1.778815720656594
 20
4.833044033727084
 30
0.0
  0
VERTEX
  5
65D
  8
2
  6
DASHED
 62
     0
 10
-1.736774066243705
 20
4.848310617403067
 30
0.0
  0
VERTEX
  5
65E
  8
2
  6
DASHED
 62
     0
 10
-1.693690019680139
 20
4.863528977731694
 30
0.0
  0
VERTEX
  5
65F
  8
2
  6
DASHED
 62
     0
 10
-1.6496682384708
 20
4.878636561887004
 30
0.0
  0
VERTEX
  5
660
  8
2
  6
DASHED
 62
     0
 10
-1.62733969772912
 20
4.886129911104995
 30
0.0
  0
VERTEX
  5
661
  8
2
  6
DASHED
 62
     0
 10
-1.604707962260709
 20
4.893609338295925
 30
0.0
  0
VERTEX
  5
662
  8
2
  6
DASHED
 62
     0
 10
-1.55817175377057
 20
4.908625142109708
 30
0.0
  0
VERTEX
  5
663
  8
2
  6
DASHED
 62
     0
 10
-1.50997288961929
 20
4.923665491543345
 30
0.0
  0
VERTEX
  5
664
  8
2
  6
DASHED
 62
     0
 10
-1.460158332858043
 20
4.938667597944331
 30
0.0
  0
VERTEX
  5
665
  8
2
  6
DASHED
 62
     0
 10
-1.408780225220992
 20
4.953568236839611
 30
0.0
  0
VERTEX
  5
666
  8
2
  6
DASHED
 62
     0
 10
-1.355895192666012
 20
4.968304361299255
 30
0.0
  0
VERTEX
  5
667
  8
2
  6
DASHED
 62
     0
 10
-1.328906309840823
 20
4.975591223127685
 30
0.0
  0
VERTEX
  5
668
  8
2
  6
DASHED
 62
     0
 10
-1.301563558558276
 20
4.982813693389821
 30
0.0
  0
VERTEX
  5
669
  8
2
  6
DASHED
 62
     0
 10
-1.24584850189141
 20
4.997035272072325
 30
0.0
  0
VERTEX
  5
66A
  8
2
  6
DASHED
 62
     0
 10
-1.188816515531395
 20
5.010909627243321
 30
0.0
  0
VERTEX
  5
66B
  8
2
  6
DASHED
 62
     0
 10
-1.13053918599459
 20
5.024378682875197
 30
0.0
  0
VERTEX
  5
66C
  8
2
  6
DASHED
 62
     0
 10
-1.071093021290137
 20
5.03738620117056
 30
0.0
  0
VERTEX
  5
66D
  8
2
  6
DASHED
 62
     0
 10
-1.010558721536798
 20
5.049878322328758
 30
0.0
  0
VERTEX
  5
66E
  8
2
  6
DASHED
 62
     0
 10
-0.9799096825756173
 20
5.055915052094385
 30
0.0
  0
VERTEX
  5
66F
  8
2
  6
DASHED
 62
     0
 10
-0.9490203421392414
 20
5.061804064778282
 30
0.0
  0
VERTEX
  5
670
  8
2
  6
DASHED
 62
     0
 10
-0.8865643354176546
 20
5.073115776242984
 30
0.0
  0
VERTEX
  5
671
  8
2
  6
DASHED
 62
     0
 10
-0.8232624882267788
 20
5.083772110891543
 30
0.0
  0
VERTEX
  5
672
  8
2
  6
DASHED
 62
     0
 10
-0.759188683830487
 20
5.09373463603511
 30
0.0
  0
VERTEX
  5
673
  8
2
  6
DASHED
 62
     0
 10
-0.6944384795838217
 20
5.102965333810658
 30
0.0
  0
VERTEX
  5
674
  8
2
  6
DASHED
 62
     0
 10
-0.629111611952817
 20
5.1114301892627
 30
0.0
  0
VERTEX
  5
675
  8
2
  6
DASHED
 62
     0
 10
-0.596263978927421
 20
5.115365995452685
 30
0.0
  0
VERTEX
  5
676
  8
2
  6
DASHED
 62
     0
 10
-0.5633109275603762
 20
5.119099608221261
 30
0.0
  0
VERTEX
  5
677
  8
2
  6
DASHED
 62
     0
 10
-0.4971412025998441
 20
5.125948753614066
 30
0.0
  0
VERTEX
  5
678
  8
2
  6
DASHED
 62
     0
 10
-0.4307078437607509
 20
5.131957789511033
 30
0.0
  0
VERTEX
  5
679
  8
2
  6
DASHED
 62
     0
 10
-0.364116130987654
 20
5.137111974948042
 30
0.0
  0
VERTEX
  5
67A
  8
2
  6
DASHED
 62
     0
 10
-0.2974739319554912
 20
5.141401487902588
 30
0.0
  0
VERTEX
  5
67B
  8
2
  6
DASHED
 62
     0
 10
-0.230892990490454
 20
5.144821515557404
 30
0.0
  0
VERTEX
  5
67C
  8
2
  6
DASHED
 62
     0
 10
-0.1976611657572109
 20
5.146205404329631
 30
0.0
  0
VERTEX
  5
67D
  8
2
  6
DASHED
 62
     0
 10
-0.1644876680687043
 20
5.147372514890807
 30
0.0
  0
VERTEX
  5
67E
  8
2
  6
DASHED
 62
     0
 10
-0.0983735192709728
 20
5.149060365805226
 30
0.0
  0
VERTEX
  5
67F
  8
2
  6
DASHED
 62
     0
 10
-0.03266583219323
 20
5.149896401230526
 30
0.0
  0
VERTEX
  5
680
  8
2
  6
DASHED
 62
     0
 10
0.0000000000000012
 20
5.15
 30
0.0
  0
VERTEX
  5
681
  8
2
  6
DASHED
 62
     0
 10
0.0326658321932324
 20
5.149896401230526
 30
0.0
  0
VERTEX
  5
682
  8
2
  6
DASHED
 62
     0
 10
0.0983735192709752
 20
5.149060365805226
 30
0.0
  0
VERTEX
  5
683
  8
2
  6
DASHED
 62
     0
 10
0.164487668068706
 20
5.147372514890807
 30
0.0
  0
VERTEX
  5
684
  8
2
  6
DASHED
 62
     0
 10
0.1976611657572125
 20
5.146205404329631
 30
0.0
  0
VERTEX
  5
685
  8
2
  6
DASHED
 62
     0
 10
0.2308929904904566
 20
5.144821515557404
 30
0.0
  0
VERTEX
  5
686
  8
2
  6
DASHED
 62
     0
 10
0.2974739319554933
 20
5.141401487902588
 30
0.0
  0
VERTEX
  5
687
  8
2
  6
DASHED
 62
     0
 10
0.3641161309876559
 20
5.137111974948042
 30
0.0
  0
VERTEX
  5
688
  8
2
  6
DASHED
 62
     0
 10
0.4307078437607528
 20
5.131957789511033
 30
0.0
  0
VERTEX
  5
689
  8
2
  6
DASHED
 62
     0
 10
0.497141202599846
 20
5.125948753614065
 30
0.0
  0
VERTEX
  5
68A
  8
2
  6
DASHED
 62
     0
 10
0.563310927560376
 20
5.119099608221261
 30
0.0
  0
VERTEX
  5
68B
  8
2
  6
DASHED
 62
     0
 10
0.5962639789274229
 20
5.115365995452685
 30
0.0
  0
VERTEX
  5
68C
  8
2
  6
DASHED
 62
     0
 10
0.6291116119528167
 20
5.1114301892627
 30
0.0
  0
VERTEX
  5
68D
  8
2
  6
DASHED
 62
     0
 10
0.6944384795838235
 20
5.102965333810658
 30
0.0
  0
VERTEX
  5
68E
  8
2
  6
DASHED
 62
     0
 10
0.7591886838304889
 20
5.09373463603511
 30
0.0
  0
VERTEX
  5
68F
  8
2
  6
DASHED
 62
     0
 10
0.8232624882267806
 20
5.083772110891543
 30
0.0
  0
VERTEX
  5
690
  8
2
  6
DASHED
 62
     0
 10
0.8865643354176547
 20
5.073115776242984
 30
0.0
  0
VERTEX
  5
691
  8
2
  6
DASHED
 62
     0
 10
0.94902034213924
 20
5.061804064778282
 30
0.0
  0
VERTEX
  5
692
  8
2
  6
DASHED
 62
     0
 10
0.9799096825756184
 20
5.055915052094385
 30
0.0
  0
VERTEX
  5
693
  8
2
  6
DASHED
 62
     0
 10
1.010558721536798
 20
5.049878322328758
 30
0.0
  0
VERTEX
  5
694
  8
2
  6
DASHED
 62
     0
 10
1.07109302129014
 20
5.03738620117056
 30
0.0
  0
VERTEX
  5
695
  8
2
  6
DASHED
 62
     0
 10
1.130539185994591
 20
5.024378682875196
 30
0.0
  0
VERTEX
  5
696
  8
2
  6
DASHED
 62
     0
 10
1.188816515531398
 20
5.010909627243321
 30
0.0
  0
VERTEX
  5
697
  8
2
  6
DASHED
 62
     0
 10
1.245848501891408
 20
4.997035272072325
 30
0.0
  0
VERTEX
  5
698
  8
2
  6
DASHED
 62
     0
 10
1.301563558558277
 20
4.982813693389821
 30
0.0
  0
VERTEX
  5
699
  8
2
  6
DASHED
 62
     0
 10
1.328906309840827
 20
4.975591223127685
 30
0.0
  0
VERTEX
  5
69A
  8
2
  6
DASHED
 62
     0
 10
1.355895192666013
 20
4.968304361299255
 30
0.0
  0
VERTEX
  5
69B
  8
2
  6
DASHED
 62
     0
 10
1.408780225220992
 20
4.953568236839611
 30
0.0
  0
VERTEX
  5
69C
  8
2
  6
DASHED
 62
     0
 10
1.460158332858044
 20
4.93866759794433
 30
0.0
  0
VERTEX
  5
69D
  8
2
  6
DASHED
 62
     0
 10
1.509972889619293
 20
4.923665491543344
 30
0.0
  0
VERTEX
  5
69E
  8
2
  6
DASHED
 62
     0
 10
1.558171753770571
 20
4.908625142109707
 30
0.0
  0
VERTEX
  5
69F
  8
2
  6
DASHED
 62
     0
 10
1.60470796226071
 20
4.893609338295925
 30
0.0
  0
VERTEX
  5
6A0
  8
2
  6
DASHED
 62
     0
 10
1.627339697729122
 20
4.886129911104994
 30
0.0
  0
VERTEX
  5
6A1
  8
2
  6
DASHED
 62
     0
 10
1.649668238470797
 20
4.878636561887006
 30
0.0
  0
VERTEX
  5
6A2
  8
2
  6
DASHED
 62
     0
 10
1.693690019680139
 20
4.863528977731694
 30
0.0
  0
VERTEX
  5
6A3
  8
2
  6
DASHED
 62
     0
 10
1.736774066243704
 20
4.848310617403068
 30
0.0
  0
VERTEX
  5
6A4
  8
2
  6
DASHED
 62
     0
 10
1.778815720656594
 20
4.833044033727084
 30
0.0
  0
VERTEX
  5
6A5
  8
2
  6
DASHED
 62
     0
 10
1.819715536884345
 20
4.817793619990558
 30
0.0
  0
VERTEX
  5
6A6
  8
2
  6
DASHED
 62
     0
 10
1.859379714430195
 20
4.802625019462324
 30
0.0
  0
VERTEX
  5
6A7
  8
2
  6
DASHED
 62
     0
 10
1.878720755932334
 20
4.795092107689804
 30
0.0
  0
VERTEX
  5
6A8
  8
2
  6
DASHED
 62
     0
 10
1.897720441589717
 20
4.787604528944777
 30
0.0
  0
VERTEX
  5
6A9
  8
2
  6
DASHED
 62
     0
 10
1.934656114837579
 20
4.772798520503623
 30
0.0
  0
VERTEX
  5
6AA
  8
2
  6
DASHED
 62
     0
 10
1.970110641799983
 20
4.758273222406052
 30
0.0
  0
VERTEX
  5
6AB
  8
2
  6
DASHED
 62
     0
 10
1.987259898461283
 20
4.751136505718148
 30
0.0
  0
VERTEX
  5
6AC
  8
2
  6
DASHED
 62
     0
 10
2.004012343742552
 20
4.744094700375141
 30
0.0
  0
VERTEX
  5
6AD
  8
2
  6
DASHED
 62
     0
 10
2.036294234202805
 20
4.730328296403159
 30
0.0
  0
VERTEX
  5
6AE
  8
2
  6
DASHED
 62
     0
 10
2.066894495798421
 20
4.717037962878632
 30
0.0
  0
VERTEX
  5
6AF
  8
2
  6
DASHED
 62
     0
 10
2.081546212696088
 20
4.710590765966682
 30
0.0
  0
VERTEX
  5
6B0
  8
2
  6
DASHED
 62
     0
 10
2.09575688645569
 20
4.704285607068682
 30
0.0
  0
VERTEX
  5
6B1
  8
2
  6
DASHED
 62
     0
 10
2.122831073781761
 20
4.692130457711782
 30
0.0
  0
VERTEX
  5
6B2
  8
2
  6
DASHED
 62
     0
 10
2.148079144453364
 20
4.680625598054657
 30
0.0
  0
VERTEX
  5
6B3
  8
2
  6
DASHED
 62
     0
 10
2.171466033854115
 20
4.669821759319929
 30
0.0
  0
VERTEX
  5
6B4
  8
2
  6
DASHED
 62
     0
 10
2.192954544616287
 20
4.659769346786038
 30
0.0
  0
VERTEX
  5
6B5
  8
2
  6
DASHED
 62
     0
 10
2.212513121950772
 20
4.650514561335729
 30
0.0
  0
VERTEX
  5
6B6
  8
2
  6
DASHED
 62
     0
 10
2.221560513739614
 20
4.646199402069716
 30
0.0
  0
VERTEX
  5
6B7
  8
2
  6
DASHED
 62
     0
 10
2.23011643711417
 20
4.642098736230543
 30
0.0
  0
VERTEX
  5
6B8
  8
2
  6
DASHED
 62
     0
 10
2.245745842972791
 20
4.634557757625903
 30
0.0
  0
VERTEX
  5
6B9
  8
2
  6
DASHED
 62
     0
 10
2.259389683368802
 20
4.627921591674457
 30
0.0
  0
VERTEX
  5
6BA
  8
2
  6
DASHED
 62
     0
 10
2.27104332566749
 20
4.622213994715213
 30
0.0
  0
VERTEX
  5
6BB
  8
2
  6
DASHED
 62
     0
 10
2.280708623229625
 20
4.617452563473287
 30
0.0
  0
VERTEX
  5
6BC
  8
2
  6
DASHED
 62
     0
 10
2.28839407778504
 20
4.613648506849905
 30
0.0
  0
VERTEX
  5
6BD
  8
2
  6
DASHED
 62
     0
 10
2.291498998909967
 20
4.612107147280365
 30
0.0
  0
VERTEX
  5
6BE
  8
2
  6
DASHED
 62
     0
 10
2.294115475153113
 20
4.610806240416421
 30
0.0
  0
VERTEX
  5
6BF
  8
2
  6
DASHED
 62
     0
 10
2.297896323496357
 20
4.608923137400095
 30
0.0
  0
VERTEX
  5
6C0
  8
2
  6
DASHED
 62
     0
 10
2.29976805956147
 20
4.607989460949414
 30
0.0
  0
VERTEX
  5
6C1
  8
2
  6
DASHED
 62
     0
 10
2.300000000000001
 20
4.607873696185693
 30
0.0
  0
SEQEND
  5
63E
  8
2
  6
DASHED
 62
     0
  0
CIRCLE
  5
56
  8
2
  6
DASHED
 62
     0
 10
-0.0000000000000003
 20
0.0
 30
0.0
 40
5.15
  0
ARC
  5
57
  8
1
  6
CONTINUOUS
 62
     0
 10
-0.0000000000000018
 20
0.0000000000000053
 30
0.0
 40
13.0
 50
114.6243183521641
 51
242.2042275034745
  0
ARC
  5
58
  8
1
  6
CONTINUOUS
 62
     0
 10
-7.500000000000006
 20
16.36306817195357
 30
0.0
 40
5.000000000000003
 50
294.624318352164
 51
360.0
  0
LINE
  5
59
  8
1
  6
CONTINUOUS
 62
     0
 10
-2.5
 20
16.36306817195357
 30
0.0
 11
-2.500000000000001
 21
37.5
 31
0.0
  0
ARC
  5
5A
  8
1
  6
CONTINUOUS
 62
     0
 10
0.0000000000000453
 20
37.5
 30
0.0
 40
2.500000000000043
 50
156.4218215217986
 51
179.9999991462264
  0
LINE
  5
5B
  8
1
  6
CONTINUOUS
 62
     0
 10
-2.291287847477921
 20
38.5
 30
0.0
 11
2.291287847477921
 21
38.5
 31
0.0
  0
ARC
  5
5C
  8
1
  6
CONTINUOUS
 62
     0
 10
-0.0000000000000449
 20
37.5
 30
0.0
 40
2.500000000000046
 50
0.0
 51
23.57817847820141
  0
LINE
  5
5D
  8
1
  6
CONTINUOUS
 62
     0
 10
2.5
 20
37.5
 30
0.0
 11
2.5
 21
16.36306817195357
 31
0.0
  0
ARC
  5
5E
  8
1
  6
CONTINUOUS
 62
     0
 10
7.500000000000004
 20
16.36306817195357
 30
0.0
 40
5.000000000000004
 50
179.9999991462264
 51
245.3756816478359
  0
ARC
  5
5F
  8
1
  6
CONTINUOUS
 62
     0
 10
0.0000000000000018
 20
0.0000000000000036
 30
0.0
 40
13.0
 50
297.7957724960278
 51
65.37568164783596
  0
LINE
  5
60
  8
1
  6
CONTINUOUS
 62
     0
 10
-6.062177826491054
 20
-11.5
 30
0.0
 11
6.062177826491058
 21
-11.5
 31
0.0
  0
CIRCLE
  5
61
  8
1
  6
CONTINUOUS
 62
     0
 10
0.0000000000000005
 20
0.0
 30
0.0
 40
8.050000000000001
  0
CIRCLE
  5
62
  8
2
  6
DASHED
 62
     0
 10
0.0
 20
0.0
 30
0.0
 40
0.1
  0
CIRCLE
  5
63
  8
2
  6
DASHED
 62
     0
 10
-0.0000000000000004
 20
0.0
 30
0.0
 40
5.8
  0
CIRCLE
  5
64
  8
1
  6
CONTINUOUS
 62
     0
 10
-0.0000000000000005
 20
0.0
 30
0.0
 40
7.850000000000001
  0
LINE
  5
65
  8
1
  6
CONTINUOUS
 62
     0
 10
1.5
 20
2.0
 30
0.0
 11
1.5
 21
1.0
 31
0.0
  0
LINE
  5
66
  8
1
  6
CONTINUOUS
 62
     0
 10
1.5
 20
1.0
 30
0.0
 11
-0.4999999999999998
 21
1.0
 31
0.0
  0
LINE
  5
67
  8
1
  6
CONTINUOUS
 62
     0
 10
-0.4999999999999998
 20
1.0
 30
0.0
 11
-0.5
 21
-1.845299461620749
 31
0.0
  0
LINE
  5
68
  8
1
  6
CONTINUOUS
 62
     0
 10
-0.5
 20
-1.845299461620749
 30
0.0
 11
1.5
 21
-3.759252635405498
 31
0.0
  0
LINE
  5
69
  8
1
  6
CONTINUOUS
 62
     0
 10
1.5
 20
-3.759252635405498
 30
0.0
 11
1.5
 21
-5.196152422706632
 31
0.0
  0
LINE
  5
6A
  8
1
  6
CONTINUOUS
 62
     0
 10
1.499999999999999
 20
-5.196152422706632
 30
0.0
 11
-1.5
 21
-6.0
 31
0.0
  0
LINE
  5
6B
  8
1
  6
CONTINUOUS
 62
     0
 10
-1.5
 20
-6.0
 30
0.0
 11
0.5216491792030821
 21
-4.357320662217911
 31
0.0
  0
LINE
  5
6C
  8
1
  6
CONTINUOUS
 62
     0
 10
0.5216491792030806
 20
-4.35732066221791
 30
0.0
 11
-1.5
 21
-2.422649730810375
 31
0.0
  0
LINE
  5
6D
  8
1
  6
CONTINUOUS
 62
     0
 10
-1.5
 20
-2.422649730810375
 30
0.0
 11
-1.5
 21
2.0
 31
0.0
  0
LINE
  5
6E
  8
1
  6
CONTINUOUS
 62
     0
 10
-1.5
 20
2.0
 30
0.0
 11
1.5
 21
2.0
 31
0.0
  0
ARC
  5
6F
  8
7
  6
CONTINUOUS
 62
     0
 10
0.0000000000000033
 20
-0.0000000000000002
 30
0.0
 40
2.5
 50
75.00000000000001
 51
14.99999999999994
  0
LINE
  5
70
  8
3
  6
CENTER
 62
     0
 10
0.0000000000000016
 20
-15.60835844697021
 30
0.0
 11
0.0000000000000016
 21
15.60835844697021
 31
0.0
  0
LINE
  5
71
  8
3
  6
CENTER
 62
     0
 10
-3.108358446970205
 20
37.5
 30
0.0
 11
3.108358446970205
 21
37.5
 31
0.0
  0
LINE
  5
72
  8
3
  6
CENTER
 62
     0
 10
0.0
 20
34.39164155302979
 30
0.0
 11
0.0
 21
40.60835844697021
 31
0.0
  0
LINE
  5
73
  8
3
  6
CENTER
 62
     0
 10
-13.6083584469702
 20
0.0000000000000037
 30
0.0
 11
13.6083584469702
 21
0.0000000000000037
 31
0.0
  0
CIRCLE
  5
74
  8
2
  6
DASHED
 62
     0
 10
-0.0000000000000164
 20
0.000000000000016
 30
0.0
 40
12.94999999999998
  0
ATTDEF
  5
75
  8
ATTRIB
 10
0.0
 20
0.0
 30
0.0
 40
1.0
  1
Rittal USA
  3

  2
Company
 70
     9
  0
ATTDEF
  5
76
  8
ATTRIB
 10
0.0
 20
0.0
 30
0.0
 40
1.0
  1
2533.000
  3

  2
NB
 70
     9
  0
ATTDEF
  5
77
  8
ATTRIB
 10
0.0
 20
0.0
 30
0.0
 40
1.0
  1
Plastic handles
  3

  2
NN
 70
     9
  0
ATTDEF
  5
78
  8
ATTRIB
 10
0.0
 20
0.0
 30
0.0
 40
1.0
  1
version B, but without cylinder insert
  3

  2
NT
 70
     9
  0
ATTDEF
  5
79
  8
ATTRIB
 10
0.0
 20
0.0
 30
0.0
 40
1.0
  1
2533.000
  3

  2
LINA
 70
     9
  0
ATTDEF
  5
7A
  8
ATTRIB
 10
0.0
 20
0.0
 30
0.0
 40
1.0
  1
2533.000
  3

  2
BEST
 70
     9
  0
ATTDEF
  5
7B
  8
ATTRIB
 10
0.0
 20
0.0
 30
0.0
 40
1.0
  1
PDF Catalog
  3

  2
INFO
 70
     9
  0
ATTDEF
  5
7C
  8
ATTRIB
 10
0.0
 20
0.0
 30
0.0
 40
1.0
  1
RAL 9011
  3

  2
F
 70
     9
  0
ATTDEF
  5
7D
  8
ATTRIB
 10
0.0
 20
0.0
 30
0.0
 40
1.0
  1
hb32_s954
  3

  2
INFOPAGE
 70
     9
  0
ATTDEF
  5
7E
  8
ATTRIB
 10
0.0
 20
0.0
 30
0.0
 40
1.0
  1
hb32_s954_en.pdf
  3

  2
INFOPATH
 70
     9
  0
ATTDEF
  5
7F
  8
ATTRIB
 10
0.0
 20
0.0
 30
0.0
 40
1.0
  1
DUMMY
  3

  2
KT
 70
     9
  0
ENDSEC
  0
EOF
