0
SECTION
2
HEADER
9
$ACADVER
1
AC1009
9
$INSBASE
10
0.0
20
0.0
30
0.0
9
$EXTMIN
10
0.000000
20
0.000000
30
0.000000
9
$EXTMAX
10
0.000000
20
0.000000
30
0.000000
9
$UCSORG
10
0.0
20
0.0
30
0.0
9
$UCSXDIR
10
1.0
20
0.0
30
0.0
9
$UCSYDIR
10
0.0
20
1.0
30
0.0
9
$CLAYER
8
0
9
$SHADEDGE
70
3
0
ENDSEC
0
SECTION
2
TABLES
0
TABLE
2
LTYPE
70
2
0
LTYPE
2
CONTINUOUS
70
0
3
Solid line
72
65
73
0
40
0.0
0
ENDTAB
0
TABLE
2
LAYER
70
5
0
LAYER
2
0
70
0
62
7
6
CONTINUOUS
0
ENDTAB
0
TABLE
2
APPID
70
1
0
APPID
2
ACAD
70
64
0
ENDTAB
0
ENDSEC
0
SECTION
2
BLOCKS
0
ENDSEC
0
SECTION
2
ENTITIES
0
POLYLINE
66
1
8
0
6
CONTINUOUS
62
252
70
64
75
0
10
0.000000
20
0.000000
30
0.000000
0
VERTEX
8
0
6
CONTINUOUS
62
252
70
192
10
0.000000
20
0.000000
30
-0.195000
0
VERTEX
8
0
6
CONTINUOUS
62
252
70
192
10
0.000000
20
0.020383
30
-0.193932
0
VERTEX
8
0
6
CONTINUOUS
62
252
70
192
10
0.000000
20
0.040543
30
-0.190739
0
VERTEX
8
0
6
CONTINUOUS
62
252
70
192
10
0.000000
20
0.060258
30
-0.185456
0
VERTEX
8
0
6
CONTINUOUS
62
252
70
192
10
0.000000
20
0.079314
30
-0.178141
0
VERTEX
8
0
6
CONTINUOUS
62
252
70
192
10
0.000000
20
0.097500
30
-0.168875
0
VERTEX
8
0
6
CONTINUOUS
62
252
70
192
10
0.000000
20
0.114618
30
-0.157758
0
VERTEX
8
0
6
CONTINUOUS
62
252
70
192
10
0.000000
20
0.130480
30
-0.144913
0
VERTEX
8
0
6
CONTINUOUS
62
252
70
192
10
0.000000
20
0.144913
30
-0.130480
0
VERTEX
8
0
6
CONTINUOUS
62
252
70
192
10
0.000000
20
0.157758
30
-0.114618
0
VERTEX
8
0
6
CONTINUOUS
62
252
70
192
10
0.000000
20
0.168875
30
-0.097500
0
VERTEX
8
0
6
CONTINUOUS
62
252
70
192
10
0.000000
20
0.178141
30
-0.079314
0
VERTEX
8
0
6
CONTINUOUS
62
252
70
192
10
0.000000
20
0.185456
30
-0.060258
0
VERTEX
8
0
6
CONTINUOUS
62
252
70
192
10
0.000000
20
0.190739
30
-0.040543
0
VERTEX
8
0
6
CONTINUOUS
62
252
70
192
10
0.000000
20
0.193932
30
-0.020383
0
VERTEX
8
0
6
CONTINUOUS
62
252
70
192
10
0.000000
20
0.195000
30
-0.000000
0
VERTEX
8
0
6
CONTINUOUS
62
252
70
192
10
-0.000000
20
0.193932
30
0.020383
0
VERTEX
8
0
6
CONTINUOUS
62
252
70
192
10
-0.000000
20
0.190739
30
0.040543
0
VERTEX
8
0
6
CONTINUOUS
62
252
70
192
10
-0.000000
20
0.185456
30
0.060258
0
VERTEX
8
0
6
CONTINUOUS
62
252
70
192
10
-0.000000
20
0.178141
30
0.079314
0
VERTEX
8
0
6
CONTINUOUS
62
252
70
192
10
-0.000000
20
0.168875
30
0.097500
0
VERTEX
8
0
6
CONTINUOUS
62
252
70
192
10
-0.000000
20
0.157758
30
0.114618
0
VERTEX
8
0
6
CONTINUOUS
62
252
70
192
10
-0.000000
20
0.144913
30
0.130480
0
VERTEX
8
0
6
CONTINUOUS
62
252
70
192
10
-0.000000
20
0.130480
30
0.144913
0
VERTEX
8
0
6
CONTINUOUS
62
252
70
192
10
-0.000000
20
0.114618
30
0.157758
0
VERTEX
8
0
6
CONTINUOUS
62
252
70
192
10
-0.000000
20
0.097500
30
0.168875
0
VERTEX
8
0
6
CONTINUOUS
62
252
70
192
10
-0.000000
20
0.079314
30
0.178141
0
VERTEX
8
0
6
CONTINUOUS
62
252
70
192
10
-0.000000
20
0.060258
30
0.185456
0
VERTEX
8
0
6
CONTINUOUS
62
252
70
192
10
-0.000000
20
0.040543
30
0.190739
0
VERTEX
8
0
6
CONTINUOUS
62
252
70
192
10
-0.000000
20
0.020383
30
0.193932
0
VERTEX
8
0
6
CONTINUOUS
62
252
70
192
10
-0.000000
20
0.000000
30
0.195000
0
VERTEX
8
0
6
CONTINUOUS
62
252
70
192
10
-0.000000
20
-0.020383
30
0.193932
0
VERTEX
8
0
6
CONTINUOUS
62
252
70
192
10
-0.000000
20
-0.040543
30
0.190739
0
VERTEX
8
0
6
CONTINUOUS
62
252
70
192
10
-0.000000
20
-0.060258
30
0.185456
0
VERTEX
8
0
6
CONTINUOUS
62
252
70
192
10
-0.000000
20
-0.079314
30
0.178141
0
VERTEX
8
0
6
CONTINUOUS
62
252
70
192
10
-0.000000
20
-0.097500
30
0.168875
0
VERTEX
8
0
6
CONTINUOUS
62
252
70
192
10
-0.000000
20
-0.114618
30
0.157758
0
VERTEX
8
0
6
CONTINUOUS
62
252
70
192
10
-0.000000
20
-0.130480
30
0.144913
0
VERTEX
8
0
6
CONTINUOUS
62
252
70
192
10
-0.000000
20
-0.144913
30
0.130480
0
VERTEX
8
0
6
CONTINUOUS
62
252
70
192
10
-0.000000
20
-0.157758
30
0.114618
0
VERTEX
8
0
6
CONTINUOUS
62
252
70
192
10
-0.000000
20
-0.168875
30
0.097500
0
VERTEX
8
0
6
CONTINUOUS
62
252
70
192
10
-0.000000
20
-0.178141
30
0.079314
0
VERTEX
8
0
6
CONTINUOUS
62
252
70
192
10
-0.000000
20
-0.185456
30
0.060258
0
VERTEX
8
0
6
CONTINUOUS
62
252
70
192
10
-0.000000
20
-0.190739
30
0.040543
0
VERTEX
8
0
6
CONTINUOUS
62
252
70
192
10
-0.000000
20
-0.193932
30
0.020383
0
VERTEX
8
0
6
CONTINUOUS
62
252
70
192
10
-0.000000
20
-0.195000
30
0.000000
0
VERTEX
8
0
6
CONTINUOUS
62
252
70
192
10
0.000000
20
-0.193932
30
-0.020383
0
VERTEX
8
0
6
CONTINUOUS
62
252
70
192
10
0.000000
20
-0.190739
30
-0.040543
0
VERTEX
8
0
6
CONTINUOUS
62
252
70
192
10
0.000000
20
-0.185456
30
-0.060258
0
VERTEX
8
0
6
CONTINUOUS
62
252
70
192
10
0.000000
20
-0.178141
30
-0.079314
0
VERTEX
8
0
6
CONTINUOUS
62
252
70
192
10
0.000000
20
-0.168875
30
-0.097500
0
VERTEX
8
0
6
CONTINUOUS
62
252
70
192
10
0.000000
20
-0.157758
30
-0.114618
0
VERTEX
8
0
6
CONTINUOUS
62
252
70
192
10
0.000000
20
-0.144913
30
-0.130480
0
VERTEX
8
0
6
CONTINUOUS
62
252
70
192
10
0.000000
20
-0.130480
30
-0.144913
0
VERTEX
8
0
6
CONTINUOUS
62
252
70
192
10
0.000000
20
-0.114618
30
-0.157758
0
VERTEX
8
0
6
CONTINUOUS
62
252
70
192
10
0.000000
20
-0.097500
30
-0.168875
0
VERTEX
8
0
6
CONTINUOUS
62
252
70
192
10
0.000000
20
-0.079314
30
-0.178141
0
VERTEX
8
0
6
CONTINUOUS
62
252
70
192
10
0.000000
20
-0.060258
30
-0.185456
0
VERTEX
8
0
6
CONTINUOUS
62
252
70
192
10
0.000000
20
-0.040543
30
-0.190739
0
VERTEX
8
0
6
CONTINUOUS
62
252
70
192
10
0.000000
20
-0.020383
30
-0.193932
0
VERTEX
8
0
6
CONTINUOUS
62
252
70
192
10
0.000000
20
0.000000
30
0.250000
0
VERTEX
8
0
6
CONTINUOUS
62
252
70
192
10
-0.000000
20
0.026132
30
0.248630
0
VERTEX
8
0
6
CONTINUOUS
62
252
70
192
10
-0.000000
20
0.051978
30
0.244537
0
VERTEX
8
0
6
CONTINUOUS
62
252
70
192
10
-0.000000
20
0.077254
30
0.237764
0
VERTEX
8
0
6
CONTINUOUS
62
252
70
192
10
-0.000000
20
0.101684
30
0.228386
0
VERTEX
8
0
6
CONTINUOUS
62
252
70
192
10
-0.000000
20
0.125000
30
0.216506
0
VERTEX
8
0
6
CONTINUOUS
62
252
70
192
10
-0.000000
20
0.146946
30
0.202254
0
VERTEX
8
0
6
CONTINUOUS
62
252
70
192
10
-0.000000
20
0.167283
30
0.185786
0
VERTEX
8
0
6
CONTINUOUS
62
252
70
192
10
-0.000000
20
0.185786
30
0.167283
0
VERTEX
8
0
6
CONTINUOUS
62
252
70
192
10
-0.000000
20
0.202254
30
0.146946
0
VERTEX
8
0
6
CONTINUOUS
62
252
70
192
10
-0.000000
20
0.216506
30
0.125000
0
VERTEX
8
0
6
CONTINUOUS
62
252
70
192
10
-0.000000
20
0.228386
30
0.101684
0
VERTEX
8
0
6
CONTINUOUS
62
252
70
192
10
-0.000000
20
0.237764
30
0.077254
0
VERTEX
8
0
6
CONTINUOUS
62
252
70
192
10
-0.000000
20
0.244537
30
0.051978
0
VERTEX
8
0
6
CONTINUOUS
62
252
70
192
10
-0.000000
20
0.248630
30
0.026132
0
VERTEX
8
0
6
CONTINUOUS
62
252
70
192
10
0.000000
20
0.250000
30
-0.000000
0
VERTEX
8
0
6
CONTINUOUS
62
252
70
192
10
0.000000
20
0.248630
30
-0.026132
0
VERTEX
8
0
6
CONTINUOUS
62
252
70
192
10
0.000000
20
0.244537
30
-0.051978
0
VERTEX
8
0
6
CONTINUOUS
62
252
70
192
10
0.000000
20
0.237764
30
-0.077254
0
VERTEX
8
0
6
CONTINUOUS
62
252
70
192
10
0.000000
20
0.228386
30
-0.101684
0
VERTEX
8
0
6
CONTINUOUS
62
252
70
192
10
0.000000
20
0.216506
30
-0.125000
0
VERTEX
8
0
6
CONTINUOUS
62
252
70
192
10
0.000000
20
0.202254
30
-0.146946
0
VERTEX
8
0
6
CONTINUOUS
62
252
70
192
10
0.000000
20
0.185786
30
-0.167283
0
VERTEX
8
0
6
CONTINUOUS
62
252
70
192
10
0.000000
20
0.167283
30
-0.185786
0
VERTEX
8
0
6
CONTINUOUS
62
252
70
192
10
0.000000
20
0.146946
30
-0.202254
0
VERTEX
8
0
6
CONTINUOUS
62
252
70
192
10
0.000000
20
0.125000
30
-0.216506
0
VERTEX
8
0
6
CONTINUOUS
62
252
70
192
10
0.000000
20
0.101684
30
-0.228386
0
VERTEX
8
0
6
CONTINUOUS
62
252
70
192
10
0.000000
20
0.077254
30
-0.237764
0
VERTEX
8
0
6
CONTINUOUS
62
252
70
192
10
0.000000
20
0.051978
30
-0.244537
0
VERTEX
8
0
6
CONTINUOUS
62
252
70
192
10
0.000000
20
0.026132
30
-0.248630
0
VERTEX
8
0
6
CONTINUOUS
62
252
70
192
10
0.000000
20
-0.000000
30
-0.250000
0
VERTEX
8
0
6
CONTINUOUS
62
252
70
192
10
0.000000
20
-0.026132
30
-0.248630
0
VERTEX
8
0
6
CONTINUOUS
62
252
70
192
10
0.000000
20
-0.051978
30
-0.244537
0
VERTEX
8
0
6
CONTINUOUS
62
252
70
192
10
0.000000
20
-0.077254
30
-0.237764
0
VERTEX
8
0
6
CONTINUOUS
62
252
70
192
10
0.000000
20
-0.101684
30
-0.228386
0
VERTEX
8
0
6
CONTINUOUS
62
252
70
192
10
0.000000
20
-0.125000
30
-0.216506
0
VERTEX
8
0
6
CONTINUOUS
62
252
70
192
10
0.000000
20
-0.146946
30
-0.202254
0
VERTEX
8
0
6
CONTINUOUS
62
252
70
192
10
0.000000
20
-0.167283
30
-0.185786
0
VERTEX
8
0
6
CONTINUOUS
62
252
70
192
10
0.000000
20
-0.185786
30
-0.167283
0
VERTEX
8
0
6
CONTINUOUS
62
252
70
192
10
0.000000
20
-0.202254
30
-0.146946
0
VERTEX
8
0
6
CONTINUOUS
62
252
70
192
10
0.000000
20
-0.216506
30
-0.125000
0
VERTEX
8
0
6
CONTINUOUS
62
252
70
192
10
0.000000
20
-0.228386
30
-0.101684
0
VERTEX
8
0
6
CONTINUOUS
62
252
70
192
10
0.000000
20
-0.237764
30
-0.077254
0
VERTEX
8
0
6
CONTINUOUS
62
252
70
192
10
0.000000
20
-0.244537
30
-0.051978
0
VERTEX
8
0
6
CONTINUOUS
62
252
70
192
10
0.000000
20
-0.248630
30
-0.026132
0
VERTEX
8
0
6
CONTINUOUS
62
252
70
192
10
-0.000000
20
-0.250000
30
-0.000000
0
VERTEX
8
0
6
CONTINUOUS
62
252
70
192
10
-0.000000
20
-0.248630
30
0.026132
0
VERTEX
8
0
6
CONTINUOUS
62
252
70
192
10
-0.000000
20
-0.244537
30
0.051978
0
VERTEX
8
0
6
CONTINUOUS
62
252
70
192
10
-0.000000
20
-0.237764
30
0.077254
0
VERTEX
8
0
6
CONTINUOUS
62
252
70
192
10
-0.000000
20
-0.228386
30
0.101684
0
VERTEX
8
0
6
CONTINUOUS
62
252
70
192
10
-0.000000
20
-0.216506
30
0.125000
0
VERTEX
8
0
6
CONTINUOUS
62
252
70
192
10
-0.000000
20
-0.202254
30
0.146946
0
VERTEX
8
0
6
CONTINUOUS
62
252
70
192
10
-0.000000
20
-0.185786
30
0.167283
0
VERTEX
8
0
6
CONTINUOUS
62
252
70
192
10
-0.000000
20
-0.167283
30
0.185786
0
VERTEX
8
0
6
CONTINUOUS
62
252
70
192
10
-0.000000
20
-0.146946
30
0.202254
0
VERTEX
8
0
6
CONTINUOUS
62
252
70
192
10
-0.000000
20
-0.125000
30
0.216506
0
VERTEX
8
0
6
CONTINUOUS
62
252
70
192
10
-0.000000
20
-0.101684
30
0.228386
0
VERTEX
8
0
6
CONTINUOUS
62
252
70
192
10
-0.000000
20
-0.077254
30
0.237764
0
VERTEX
8
0
6
CONTINUOUS
62
252
70
192
10
-0.000000
20
-0.051978
30
0.244537
0
VERTEX
8
0
6
CONTINUOUS
62
252
70
192
10
-0.000000
20
-0.026132
30
0.248630
0
VERTEX
8
0
6
CONTINUOUS
62
252
70
128
10
0.000000
20
0.000000
30
0.000000
71
60
72
1
73
91
0
VERTEX
8
0
6
CONTINUOUS
62
252
70
128
10
0.000000
20
0.000000
30
0.000000
71
91
72
1
73
2
0
VERTEX
8
0
6
CONTINUOUS
62
252
70
128
10
0.000000
20
0.000000
30
0.000000
71
91
72
2
73
90
0
VERTEX
8
0
6
CONTINUOUS
62
252
70
128
10
0.000000
20
0.000000
30
0.000000
71
90
72
2
73
3
0
VERTEX
8
0
6
CONTINUOUS
62
252
70
128
10
0.000000
20
0.000000
30
0.000000
71
90
72
3
73
89
0
VERTEX
8
0
6
CONTINUOUS
62
252
70
128
10
0.000000
20
0.000000
30
0.000000
71
89
72
3
73
4
0
VERTEX
8
0
6
CONTINUOUS
62
252
70
128
10
0.000000
20
0.000000
30
0.000000
71
89
72
4
73
88
0
VERTEX
8
0
6
CONTINUOUS
62
252
70
128
10
0.000000
20
0.000000
30
0.000000
71
88
72
4
73
5
0
VERTEX
8
0
6
CONTINUOUS
62
252
70
128
10
0.000000
20
0.000000
30
0.000000
71
88
72
5
73
87
0
VERTEX
8
0
6
CONTINUOUS
62
252
70
128
10
0.000000
20
0.000000
30
0.000000
71
87
72
5
73
6
0
VERTEX
8
0
6
CONTINUOUS
62
252
70
128
10
0.000000
20
0.000000
30
0.000000
71
87
72
6
73
86
0
VERTEX
8
0
6
CONTINUOUS
62
252
70
128
10
0.000000
20
0.000000
30
0.000000
71
86
72
6
73
7
0
VERTEX
8
0
6
CONTINUOUS
62
252
70
128
10
0.000000
20
0.000000
30
0.000000
71
86
72
7
73
85
0
VERTEX
8
0
6
CONTINUOUS
62
252
70
128
10
0.000000
20
0.000000
30
0.000000
71
85
72
7
73
8
0
VERTEX
8
0
6
CONTINUOUS
62
252
70
128
10
0.000000
20
0.000000
30
0.000000
71
85
72
8
73
84
0
VERTEX
8
0
6
CONTINUOUS
62
252
70
128
10
0.000000
20
0.000000
30
0.000000
71
84
72
8
73
9
0
VERTEX
8
0
6
CONTINUOUS
62
252
70
128
10
0.000000
20
0.000000
30
0.000000
71
84
72
9
73
83
0
VERTEX
8
0
6
CONTINUOUS
62
252
70
128
10
0.000000
20
0.000000
30
0.000000
71
83
72
9
73
10
0
VERTEX
8
0
6
CONTINUOUS
62
252
70
128
10
0.000000
20
0.000000
30
0.000000
71
83
72
10
73
82
0
VERTEX
8
0
6
CONTINUOUS
62
252
70
128
10
0.000000
20
0.000000
30
0.000000
71
82
72
10
73
11
0
VERTEX
8
0
6
CONTINUOUS
62
252
70
128
10
0.000000
20
0.000000
30
0.000000
71
82
72
11
73
81
0
VERTEX
8
0
6
CONTINUOUS
62
252
70
128
10
0.000000
20
0.000000
30
0.000000
71
81
72
11
73
12
0
VERTEX
8
0
6
CONTINUOUS
62
252
70
128
10
0.000000
20
0.000000
30
0.000000
71
81
72
12
73
80
0
VERTEX
8
0
6
CONTINUOUS
62
252
70
128
10
0.000000
20
0.000000
30
0.000000
71
80
72
12
73
13
0
VERTEX
8
0
6
CONTINUOUS
62
252
70
128
10
0.000000
20
0.000000
30
0.000000
71
80
72
13
73
79
0
VERTEX
8
0
6
CONTINUOUS
62
252
70
128
10
0.000000
20
0.000000
30
0.000000
71
79
72
13
73
14
0
VERTEX
8
0
6
CONTINUOUS
62
252
70
128
10
0.000000
20
0.000000
30
0.000000
71
79
72
14
73
78
0
VERTEX
8
0
6
CONTINUOUS
62
252
70
128
10
0.000000
20
0.000000
30
0.000000
71
78
72
14
73
15
0
VERTEX
8
0
6
CONTINUOUS
62
252
70
128
10
0.000000
20
0.000000
30
0.000000
71
78
72
15
73
77
0
VERTEX
8
0
6
CONTINUOUS
62
252
70
128
10
0.000000
20
0.000000
30
0.000000
71
77
72
15
73
16
0
VERTEX
8
0
6
CONTINUOUS
62
252
70
128
10
0.000000
20
0.000000
30
0.000000
71
77
72
16
73
76
0
VERTEX
8
0
6
CONTINUOUS
62
252
70
128
10
0.000000
20
0.000000
30
0.000000
71
76
72
16
73
75
0
VERTEX
8
0
6
CONTINUOUS
62
252
70
128
10
0.000000
20
0.000000
30
0.000000
71
75
72
16
73
17
0
VERTEX
8
0
6
CONTINUOUS
62
252
70
128
10
0.000000
20
0.000000
30
0.000000
71
75
72
17
73
74
0
VERTEX
8
0
6
CONTINUOUS
62
252
70
128
10
0.000000
20
0.000000
30
0.000000
71
74
72
17
73
18
0
VERTEX
8
0
6
CONTINUOUS
62
252
70
128
10
0.000000
20
0.000000
30
0.000000
71
74
72
18
73
73
0
VERTEX
8
0
6
CONTINUOUS
62
252
70
128
10
0.000000
20
0.000000
30
0.000000
71
73
72
18
73
19
0
VERTEX
8
0
6
CONTINUOUS
62
252
70
128
10
0.000000
20
0.000000
30
0.000000
71
73
72
19
73
72
0
VERTEX
8
0
6
CONTINUOUS
62
252
70
128
10
0.000000
20
0.000000
30
0.000000
71
72
72
19
73
20
0
VERTEX
8
0
6
CONTINUOUS
62
252
70
128
10
0.000000
20
0.000000
30
0.000000
71
72
72
20
73
71
0
VERTEX
8
0
6
CONTINUOUS
62
252
70
128
10
0.000000
20
0.000000
30
0.000000
71
71
72
20
73
21
0
VERTEX
8
0
6
CONTINUOUS
62
252
70
128
10
0.000000
20
0.000000
30
0.000000
71
71
72
21
73
70
0
VERTEX
8
0
6
CONTINUOUS
62
252
70
128
10
0.000000
20
0.000000
30
0.000000
71
70
72
21
73
22
0
VERTEX
8
0
6
CONTINUOUS
62
252
70
128
10
0.000000
20
0.000000
30
0.000000
71
70
72
22
73
69
0
VERTEX
8
0
6
CONTINUOUS
62
252
70
128
10
0.000000
20
0.000000
30
0.000000
71
69
72
22
73
23
0
VERTEX
8
0
6
CONTINUOUS
62
252
70
128
10
0.000000
20
0.000000
30
0.000000
71
69
72
23
73
68
0
VERTEX
8
0
6
CONTINUOUS
62
252
70
128
10
0.000000
20
0.000000
30
0.000000
71
68
72
23
73
24
0
VERTEX
8
0
6
CONTINUOUS
62
252
70
128
10
0.000000
20
0.000000
30
0.000000
71
68
72
24
73
67
0
VERTEX
8
0
6
CONTINUOUS
62
252
70
128
10
0.000000
20
0.000000
30
0.000000
71
67
72
24
73
25
0
VERTEX
8
0
6
CONTINUOUS
62
252
70
128
10
0.000000
20
0.000000
30
0.000000
71
67
72
25
73
66
0
VERTEX
8
0
6
CONTINUOUS
62
252
70
128
10
0.000000
20
0.000000
30
0.000000
71
66
72
25
73
26
0
VERTEX
8
0
6
CONTINUOUS
62
252
70
128
10
0.000000
20
0.000000
30
0.000000
71
66
72
26
73
65
0
VERTEX
8
0
6
CONTINUOUS
62
252
70
128
10
0.000000
20
0.000000
30
0.000000
71
65
72
26
73
27
0
VERTEX
8
0
6
CONTINUOUS
62
252
70
128
10
0.000000
20
0.000000
30
0.000000
71
65
72
27
73
64
0
VERTEX
8
0
6
CONTINUOUS
62
252
70
128
10
0.000000
20
0.000000
30
0.000000
71
64
72
27
73
28
0
VERTEX
8
0
6
CONTINUOUS
62
252
70
128
10
0.000000
20
0.000000
30
0.000000
71
64
72
28
73
63
0
VERTEX
8
0
6
CONTINUOUS
62
252
70
128
10
0.000000
20
0.000000
30
0.000000
71
63
72
28
73
29
0
VERTEX
8
0
6
CONTINUOUS
62
252
70
128
10
0.000000
20
0.000000
30
0.000000
71
63
72
29
73
62
0
VERTEX
8
0
6
CONTINUOUS
62
252
70
128
10
0.000000
20
0.000000
30
0.000000
71
62
72
29
73
30
0
VERTEX
8
0
6
CONTINUOUS
62
252
70
128
10
0.000000
20
0.000000
30
0.000000
71
62
72
30
73
61
0
VERTEX
8
0
6
CONTINUOUS
62
252
70
128
10
0.000000
20
0.000000
30
0.000000
71
61
72
30
73
31
0
VERTEX
8
0
6
CONTINUOUS
62
252
70
128
10
0.000000
20
0.000000
30
0.000000
71
61
72
31
73
32
0
VERTEX
8
0
6
CONTINUOUS
62
252
70
128
10
0.000000
20
0.000000
30
0.000000
71
61
72
32
73
120
0
VERTEX
8
0
6
CONTINUOUS
62
252
70
128
10
0.000000
20
0.000000
30
0.000000
71
120
72
32
73
33
0
VERTEX
8
0
6
CONTINUOUS
62
252
70
128
10
0.000000
20
0.000000
30
0.000000
71
120
72
33
73
119
0
VERTEX
8
0
6
CONTINUOUS
62
252
70
128
10
0.000000
20
0.000000
30
0.000000
71
119
72
33
73
34
0
VERTEX
8
0
6
CONTINUOUS
62
252
70
128
10
0.000000
20
0.000000
30
0.000000
71
119
72
34
73
118
0
VERTEX
8
0
6
CONTINUOUS
62
252
70
128
10
0.000000
20
0.000000
30
0.000000
71
118
72
34
73
35
0
VERTEX
8
0
6
CONTINUOUS
62
252
70
128
10
0.000000
20
0.000000
30
0.000000
71
118
72
35
73
117
0
VERTEX
8
0
6
CONTINUOUS
62
252
70
128
10
0.000000
20
0.000000
30
0.000000
71
117
72
35
73
36
0
VERTEX
8
0
6
CONTINUOUS
62
252
70
128
10
0.000000
20
0.000000
30
0.000000
71
117
72
36
73
116
0
VERTEX
8
0
6
CONTINUOUS
62
252
70
128
10
0.000000
20
0.000000
30
0.000000
71
116
72
36
73
37
0
VERTEX
8
0
6
CONTINUOUS
62
252
70
128
10
0.000000
20
0.000000
30
0.000000
71
116
72
37
73
115
0
VERTEX
8
0
6
CONTINUOUS
62
252
70
128
10
0.000000
20
0.000000
30
0.000000
71
115
72
37
73
38
0
VERTEX
8
0
6
CONTINUOUS
62
252
70
128
10
0.000000
20
0.000000
30
0.000000
71
115
72
38
73
114
0
VERTEX
8
0
6
CONTINUOUS
62
252
70
128
10
0.000000
20
0.000000
30
0.000000
71
114
72
38
73
39
0
VERTEX
8
0
6
CONTINUOUS
62
252
70
128
10
0.000000
20
0.000000
30
0.000000
71
114
72
39
73
113
0
VERTEX
8
0
6
CONTINUOUS
62
252
70
128
10
0.000000
20
0.000000
30
0.000000
71
113
72
39
73
40
0
VERTEX
8
0
6
CONTINUOUS
62
252
70
128
10
0.000000
20
0.000000
30
0.000000
71
113
72
40
73
112
0
VERTEX
8
0
6
CONTINUOUS
62
252
70
128
10
0.000000
20
0.000000
30
0.000000
71
112
72
40
73
41
0
VERTEX
8
0
6
CONTINUOUS
62
252
70
128
10
0.000000
20
0.000000
30
0.000000
71
112
72
41
73
111
0
VERTEX
8
0
6
CONTINUOUS
62
252
70
128
10
0.000000
20
0.000000
30
0.000000
71
111
72
41
73
42
0
VERTEX
8
0
6
CONTINUOUS
62
252
70
128
10
0.000000
20
0.000000
30
0.000000
71
111
72
42
73
110
0
VERTEX
8
0
6
CONTINUOUS
62
252
70
128
10
0.000000
20
0.000000
30
0.000000
71
110
72
42
73
43
0
VERTEX
8
0
6
CONTINUOUS
62
252
70
128
10
0.000000
20
0.000000
30
0.000000
71
110
72
43
73
109
0
VERTEX
8
0
6
CONTINUOUS
62
252
70
128
10
0.000000
20
0.000000
30
0.000000
71
109
72
43
73
44
0
VERTEX
8
0
6
CONTINUOUS
62
252
70
128
10
0.000000
20
0.000000
30
0.000000
71
109
72
44
73
108
0
VERTEX
8
0
6
CONTINUOUS
62
252
70
128
10
0.000000
20
0.000000
30
0.000000
71
108
72
44
73
45
0
VERTEX
8
0
6
CONTINUOUS
62
252
70
128
10
0.000000
20
0.000000
30
0.000000
71
108
72
45
73
107
0
VERTEX
8
0
6
CONTINUOUS
62
252
70
128
10
0.000000
20
0.000000
30
0.000000
71
107
72
45
73
46
0
VERTEX
8
0
6
CONTINUOUS
62
252
70
128
10
0.000000
20
0.000000
30
0.000000
71
107
72
46
73
106
0
VERTEX
8
0
6
CONTINUOUS
62
252
70
128
10
0.000000
20
0.000000
30
0.000000
71
106
72
46
73
105
0
VERTEX
8
0
6
CONTINUOUS
62
252
70
128
10
0.000000
20
0.000000
30
0.000000
71
105
72
46
73
47
0
VERTEX
8
0
6
CONTINUOUS
62
252
70
128
10
0.000000
20
0.000000
30
0.000000
71
105
72
47
73
104
0
VERTEX
8
0
6
CONTINUOUS
62
252
70
128
10
0.000000
20
0.000000
30
0.000000
71
104
72
47
73
48
0
VERTEX
8
0
6
CONTINUOUS
62
252
70
128
10
0.000000
20
0.000000
30
0.000000
71
104
72
48
73
103
0
VERTEX
8
0
6
CONTINUOUS
62
252
70
128
10
0.000000
20
0.000000
30
0.000000
71
103
72
48
73
49
0
VERTEX
8
0
6
CONTINUOUS
62
252
70
128
10
0.000000
20
0.000000
30
0.000000
71
103
72
49
73
102
0
VERTEX
8
0
6
CONTINUOUS
62
252
70
128
10
0.000000
20
0.000000
30
0.000000
71
102
72
49
73
50
0
VERTEX
8
0
6
CONTINUOUS
62
252
70
128
10
0.000000
20
0.000000
30
0.000000
71
102
72
50
73
101
0
VERTEX
8
0
6
CONTINUOUS
62
252
70
128
10
0.000000
20
0.000000
30
0.000000
71
101
72
50
73
51
0
VERTEX
8
0
6
CONTINUOUS
62
252
70
128
10
0.000000
20
0.000000
30
0.000000
71
101
72
51
73
100
0
VERTEX
8
0
6
CONTINUOUS
62
252
70
128
10
0.000000
20
0.000000
30
0.000000
71
100
72
51
73
52
0
VERTEX
8
0
6
CONTINUOUS
62
252
70
128
10
0.000000
20
0.000000
30
0.000000
71
100
72
52
73
99
0
VERTEX
8
0
6
CONTINUOUS
62
252
70
128
10
0.000000
20
0.000000
30
0.000000
71
99
72
52
73
53
0
VERTEX
8
0
6
CONTINUOUS
62
252
70
128
10
0.000000
20
0.000000
30
0.000000
71
99
72
53
73
98
0
VERTEX
8
0
6
CONTINUOUS
62
252
70
128
10
0.000000
20
0.000000
30
0.000000
71
98
72
53
73
54
0
VERTEX
8
0
6
CONTINUOUS
62
252
70
128
10
0.000000
20
0.000000
30
0.000000
71
98
72
54
73
97
0
VERTEX
8
0
6
CONTINUOUS
62
252
70
128
10
0.000000
20
0.000000
30
0.000000
71
97
72
54
73
55
0
VERTEX
8
0
6
CONTINUOUS
62
252
70
128
10
0.000000
20
0.000000
30
0.000000
71
97
72
55
73
96
0
VERTEX
8
0
6
CONTINUOUS
62
252
70
128
10
0.000000
20
0.000000
30
0.000000
71
96
72
55
73
56
0
VERTEX
8
0
6
CONTINUOUS
62
252
70
128
10
0.000000
20
0.000000
30
0.000000
71
96
72
56
73
95
0
VERTEX
8
0
6
CONTINUOUS
62
252
70
128
10
0.000000
20
0.000000
30
0.000000
71
95
72
56
73
57
0
VERTEX
8
0
6
CONTINUOUS
62
252
70
128
10
0.000000
20
0.000000
30
0.000000
71
95
72
57
73
94
0
VERTEX
8
0
6
CONTINUOUS
62
252
70
128
10
0.000000
20
0.000000
30
0.000000
71
94
72
57
73
58
0
VERTEX
8
0
6
CONTINUOUS
62
252
70
128
10
0.000000
20
0.000000
30
0.000000
71
94
72
58
73
93
0
VERTEX
8
0
6
CONTINUOUS
62
252
70
128
10
0.000000
20
0.000000
30
0.000000
71
93
72
58
73
59
0
VERTEX
8
0
6
CONTINUOUS
62
252
70
128
10
0.000000
20
0.000000
30
0.000000
71
93
72
59
73
92
0
VERTEX
8
0
6
CONTINUOUS
62
252
70
128
10
0.000000
20
0.000000
30
0.000000
71
92
72
59
73
60
0
VERTEX
8
0
6
CONTINUOUS
62
252
70
128
10
0.000000
20
0.000000
30
0.000000
71
92
72
60
73
91
0
SEQEND
0
POLYLINE
66
1
8
0
6
CONTINUOUS
62
252
70
64
75
0
10
0.000000
20
0.000000
30
0.000000
0
VERTEX
8
0
6
CONTINUOUS
62
252
70
192
10
0.970000
20
0.000000
30
0.250000
0
VERTEX
8
0
6
CONTINUOUS
62
252
70
192
10
0.970000
20
0.026132
30
0.248630
0
VERTEX
8
0
6
CONTINUOUS
62
252
70
192
10
0.970000
20
0.051978
30
0.244537
0
VERTEX
8
0
6
CONTINUOUS
62
252
70
192
10
0.970000
20
0.077254
30
0.237764
0
VERTEX
8
0
6
CONTINUOUS
62
252
70
192
10
0.970000
20
0.101684
30
0.228386
0
VERTEX
8
0
6
CONTINUOUS
62
252
70
192
10
0.970000
20
0.125000
30
0.216506
0
VERTEX
8
0
6
CONTINUOUS
62
252
70
192
10
0.970000
20
0.146946
30
0.202254
0
VERTEX
8
0
6
CONTINUOUS
62
252
70
192
10
0.970000
20
0.167283
30
0.185786
0
VERTEX
8
0
6
CONTINUOUS
62
252
70
192
10
0.970000
20
0.185786
30
0.167283
0
VERTEX
8
0
6
CONTINUOUS
62
252
70
192
10
0.970000
20
0.202254
30
0.146946
0
VERTEX
8
0
6
CONTINUOUS
62
252
70
192
10
0.970000
20
0.216506
30
0.125000
0
VERTEX
8
0
6
CONTINUOUS
62
252
70
192
10
0.970000
20
0.228386
30
0.101684
0
VERTEX
8
0
6
CONTINUOUS
62
252
70
192
10
0.970000
20
0.237764
30
0.077254
0
VERTEX
8
0
6
CONTINUOUS
62
252
70
192
10
0.970000
20
0.244537
30
0.051978
0
VERTEX
8
0
6
CONTINUOUS
62
252
70
192
10
0.970000
20
0.248630
30
0.026132
0
VERTEX
8
0
6
CONTINUOUS
62
252
70
192
10
0.970000
20
0.250000
30
-0.000000
0
VERTEX
8
0
6
CONTINUOUS
62
252
70
192
10
0.970000
20
0.248630
30
-0.026132
0
VERTEX
8
0
6
CONTINUOUS
62
252
70
192
10
0.970000
20
0.244537
30
-0.051978
0
VERTEX
8
0
6
CONTINUOUS
62
252
70
192
10
0.970000
20
0.237764
30
-0.077254
0
VERTEX
8
0
6
CONTINUOUS
62
252
70
192
10
0.970000
20
0.228386
30
-0.101684
0
VERTEX
8
0
6
CONTINUOUS
62
252
70
192
10
0.970000
20
0.216506
30
-0.125000
0
VERTEX
8
0
6
CONTINUOUS
62
252
70
192
10
0.970000
20
0.202254
30
-0.146946
0
VERTEX
8
0
6
CONTINUOUS
62
252
70
192
10
0.970000
20
0.185786
30
-0.167283
0
VERTEX
8
0
6
CONTINUOUS
62
252
70
192
10
0.970000
20
0.167283
30
-0.185786
0
VERTEX
8
0
6
CONTINUOUS
62
252
70
192
10
0.970000
20
0.146946
30
-0.202254
0
VERTEX
8
0
6
CONTINUOUS
62
252
70
192
10
0.970000
20
0.125000
30
-0.216506
0
VERTEX
8
0
6
CONTINUOUS
62
252
70
192
10
0.970000
20
0.101684
30
-0.228386
0
VERTEX
8
0
6
CONTINUOUS
62
252
70
192
10
0.970000
20
0.077254
30
-0.237764
0
VERTEX
8
0
6
CONTINUOUS
62
252
70
192
10
0.970000
20
0.051978
30
-0.244537
0
VERTEX
8
0
6
CONTINUOUS
62
252
70
192
10
0.970000
20
0.026132
30
-0.248630
0
VERTEX
8
0
6
CONTINUOUS
62
252
70
192
10
0.970000
20
-0.000000
30
-0.250000
0
VERTEX
8
0
6
CONTINUOUS
62
252
70
192
10
0.970000
20
-0.026132
30
-0.248630
0
VERTEX
8
0
6
CONTINUOUS
62
252
70
192
10
0.970000
20
-0.051978
30
-0.244537
0
VERTEX
8
0
6
CONTINUOUS
62
252
70
192
10
0.970000
20
-0.077254
30
-0.237764
0
VERTEX
8
0
6
CONTINUOUS
62
252
70
192
10
0.970000
20
-0.101684
30
-0.228386
0
VERTEX
8
0
6
CONTINUOUS
62
252
70
192
10
0.970000
20
-0.125000
30
-0.216506
0
VERTEX
8
0
6
CONTINUOUS
62
252
70
192
10
0.970000
20
-0.146946
30
-0.202254
0
VERTEX
8
0
6
CONTINUOUS
62
252
70
192
10
0.970000
20
-0.167283
30
-0.185786
0
VERTEX
8
0
6
CONTINUOUS
62
252
70
192
10
0.970000
20
-0.185786
30
-0.167283
0
VERTEX
8
0
6
CONTINUOUS
62
252
70
192
10
0.970000
20
-0.202254
30
-0.146946
0
VERTEX
8
0
6
CONTINUOUS
62
252
70
192
10
0.970000
20
-0.216506
30
-0.125000
0
VERTEX
8
0
6
CONTINUOUS
62
252
70
192
10
0.970000
20
-0.228386
30
-0.101684
0
VERTEX
8
0
6
CONTINUOUS
62
252
70
192
10
0.970000
20
-0.237764
30
-0.077254
0
VERTEX
8
0
6
CONTINUOUS
62
252
70
192
10
0.970000
20
-0.244537
30
-0.051978
0
VERTEX
8
0
6
CONTINUOUS
62
252
70
192
10
0.970000
20
-0.248630
30
-0.026132
0
VERTEX
8
0
6
CONTINUOUS
62
252
70
192
10
0.970000
20
-0.250000
30
0.000000
0
VERTEX
8
0
6
CONTINUOUS
62
252
70
192
10
0.970000
20
-0.248630
30
0.026132
0
VERTEX
8
0
6
CONTINUOUS
62
252
70
192
10
0.970000
20
-0.244537
30
0.051978
0
VERTEX
8
0
6
CONTINUOUS
62
252
70
192
10
0.970000
20
-0.237764
30
0.077254
0
VERTEX
8
0
6
CONTINUOUS
62
252
70
192
10
0.970000
20
-0.228386
30
0.101684
0
VERTEX
8
0
6
CONTINUOUS
62
252
70
192
10
0.970000
20
-0.216506
30
0.125000
0
VERTEX
8
0
6
CONTINUOUS
62
252
70
192
10
0.970000
20
-0.202254
30
0.146946
0
VERTEX
8
0
6
CONTINUOUS
62
252
70
192
10
0.970000
20
-0.185786
30
0.167283
0
VERTEX
8
0
6
CONTINUOUS
62
252
70
192
10
0.970000
20
-0.167283
30
0.185786
0
VERTEX
8
0
6
CONTINUOUS
62
252
70
192
10
0.970000
20
-0.146946
30
0.202254
0
VERTEX
8
0
6
CONTINUOUS
62
252
70
192
10
0.970000
20
-0.125000
30
0.216506
0
VERTEX
8
0
6
CONTINUOUS
62
252
70
192
10
0.970000
20
-0.101684
30
0.228386
0
VERTEX
8
0
6
CONTINUOUS
62
252
70
192
10
0.970000
20
-0.077254
30
0.237764
0
VERTEX
8
0
6
CONTINUOUS
62
252
70
192
10
0.970000
20
-0.051978
30
0.244537
0
VERTEX
8
0
6
CONTINUOUS
62
252
70
192
10
0.970000
20
-0.026132
30
0.248630
0
VERTEX
8
0
6
CONTINUOUS
62
252
70
192
10
0.000000
20
0.000000
30
0.250000
0
VERTEX
8
0
6
CONTINUOUS
62
252
70
192
10
-0.000000
20
-0.026132
30
0.248630
0
VERTEX
8
0
6
CONTINUOUS
62
252
70
192
10
-0.000000
20
-0.051978
30
0.244537
0
VERTEX
8
0
6
CONTINUOUS
62
252
70
192
10
-0.000000
20
-0.077254
30
0.237764
0
VERTEX
8
0
6
CONTINUOUS
62
252
70
192
10
-0.000000
20
-0.101684
30
0.228386
0
VERTEX
8
0
6
CONTINUOUS
62
252
70
192
10
-0.000000
20
-0.125000
30
0.216506
0
VERTEX
8
0
6
CONTINUOUS
62
252
70
192
10
-0.000000
20
-0.146946
30
0.202254
0
VERTEX
8
0
6
CONTINUOUS
62
252
70
192
10
-0.000000
20
-0.167283
30
0.185786
0
VERTEX
8
0
6
CONTINUOUS
62
252
70
192
10
-0.000000
20
-0.185786
30
0.167283
0
VERTEX
8
0
6
CONTINUOUS
62
252
70
192
10
-0.000000
20
-0.202254
30
0.146946
0
VERTEX
8
0
6
CONTINUOUS
62
252
70
192
10
-0.000000
20
-0.216506
30
0.125000
0
VERTEX
8
0
6
CONTINUOUS
62
252
70
192
10
-0.000000
20
-0.228386
30
0.101684
0
VERTEX
8
0
6
CONTINUOUS
62
252
70
192
10
-0.000000
20
-0.237764
30
0.077254
0
VERTEX
8
0
6
CONTINUOUS
62
252
70
192
10
-0.000000
20
-0.244537
30
0.051978
0
VERTEX
8
0
6
CONTINUOUS
62
252
70
192
10
-0.000000
20
-0.248630
30
0.026132
0
VERTEX
8
0
6
CONTINUOUS
62
252
70
192
10
-0.000000
20
-0.250000
30
-0.000000
0
VERTEX
8
0
6
CONTINUOUS
62
252
70
192
10
0.000000
20
-0.248630
30
-0.026132
0
VERTEX
8
0
6
CONTINUOUS
62
252
70
192
10
0.000000
20
-0.244537
30
-0.051978
0
VERTEX
8
0
6
CONTINUOUS
62
252
70
192
10
0.000000
20
-0.237764
30
-0.077254
0
VERTEX
8
0
6
CONTINUOUS
62
252
70
192
10
0.000000
20
-0.228386
30
-0.101684
0
VERTEX
8
0
6
CONTINUOUS
62
252
70
192
10
0.000000
20
-0.216506
30
-0.125000
0
VERTEX
8
0
6
CONTINUOUS
62
252
70
192
10
0.000000
20
-0.202254
30
-0.146946
0
VERTEX
8
0
6
CONTINUOUS
62
252
70
192
10
0.000000
20
-0.185786
30
-0.167283
0
VERTEX
8
0
6
CONTINUOUS
62
252
70
192
10
0.000000
20
-0.167283
30
-0.185786
0
VERTEX
8
0
6
CONTINUOUS
62
252
70
192
10
0.000000
20
-0.146946
30
-0.202254
0
VERTEX
8
0
6
CONTINUOUS
62
252
70
192
10
0.000000
20
-0.125000
30
-0.216506
0
VERTEX
8
0
6
CONTINUOUS
62
252
70
192
10
0.000000
20
-0.101684
30
-0.228386
0
VERTEX
8
0
6
CONTINUOUS
62
252
70
192
10
0.000000
20
-0.077254
30
-0.237764
0
VERTEX
8
0
6
CONTINUOUS
62
252
70
192
10
0.000000
20
-0.051978
30
-0.244537
0
VERTEX
8
0
6
CONTINUOUS
62
252
70
192
10
0.000000
20
-0.026132
30
-0.248630
0
VERTEX
8
0
6
CONTINUOUS
62
252
70
192
10
0.000000
20
-0.000000
30
-0.250000
0
VERTEX
8
0
6
CONTINUOUS
62
252
70
192
10
0.000000
20
0.026132
30
-0.248630
0
VERTEX
8
0
6
CONTINUOUS
62
252
70
192
10
0.000000
20
0.051978
30
-0.244537
0
VERTEX
8
0
6
CONTINUOUS
62
252
70
192
10
0.000000
20
0.077254
30
-0.237764
0
VERTEX
8
0
6
CONTINUOUS
62
252
70
192
10
0.000000
20
0.101684
30
-0.228386
0
VERTEX
8
0
6
CONTINUOUS
62
252
70
192
10
0.000000
20
0.125000
30
-0.216506
0
VERTEX
8
0
6
CONTINUOUS
62
252
70
192
10
0.000000
20
0.146946
30
-0.202254
0
VERTEX
8
0
6
CONTINUOUS
62
252
70
192
10
0.000000
20
0.167283
30
-0.185786
0
VERTEX
8
0
6
CONTINUOUS
62
252
70
192
10
0.000000
20
0.185786
30
-0.167283
0
VERTEX
8
0
6
CONTINUOUS
62
252
70
192
10
0.000000
20
0.202254
30
-0.146946
0
VERTEX
8
0
6
CONTINUOUS
62
252
70
192
10
0.000000
20
0.216506
30
-0.125000
0
VERTEX
8
0
6
CONTINUOUS
62
252
70
192
10
0.000000
20
0.228386
30
-0.101684
0
VERTEX
8
0
6
CONTINUOUS
62
252
70
192
10
0.000000
20
0.237764
30
-0.077254
0
VERTEX
8
0
6
CONTINUOUS
62
252
70
192
10
0.000000
20
0.244537
30
-0.051978
0
VERTEX
8
0
6
CONTINUOUS
62
252
70
192
10
0.000000
20
0.248630
30
-0.026132
0
VERTEX
8
0
6
CONTINUOUS
62
252
70
192
10
0.000000
20
0.250000
30
-0.000000
0
VERTEX
8
0
6
CONTINUOUS
62
252
70
192
10
-0.000000
20
0.248630
30
0.026132
0
VERTEX
8
0
6
CONTINUOUS
62
252
70
192
10
-0.000000
20
0.244537
30
0.051978
0
VERTEX
8
0
6
CONTINUOUS
62
252
70
192
10
-0.000000
20
0.237764
30
0.077254
0
VERTEX
8
0
6
CONTINUOUS
62
252
70
192
10
-0.000000
20
0.228386
30
0.101684
0
VERTEX
8
0
6
CONTINUOUS
62
252
70
192
10
-0.000000
20
0.216506
30
0.125000
0
VERTEX
8
0
6
CONTINUOUS
62
252
70
192
10
-0.000000
20
0.202254
30
0.146946
0
VERTEX
8
0
6
CONTINUOUS
62
252
70
192
10
-0.000000
20
0.185786
30
0.167283
0
VERTEX
8
0
6
CONTINUOUS
62
252
70
192
10
-0.000000
20
0.167283
30
0.185786
0
VERTEX
8
0
6
CONTINUOUS
62
252
70
192
10
-0.000000
20
0.146946
30
0.202254
0
VERTEX
8
0
6
CONTINUOUS
62
252
70
192
10
-0.000000
20
0.125000
30
0.216506
0
VERTEX
8
0
6
CONTINUOUS
62
252
70
192
10
-0.000000
20
0.101684
30
0.228386
0
VERTEX
8
0
6
CONTINUOUS
62
252
70
192
10
-0.000000
20
0.077254
30
0.237764
0
VERTEX
8
0
6
CONTINUOUS
62
252
70
192
10
-0.000000
20
0.051978
30
0.244537
0
VERTEX
8
0
6
CONTINUOUS
62
252
70
192
10
-0.000000
20
0.026132
30
0.248630
0
VERTEX
8
0
6
CONTINUOUS
62
252
70
128
10
0.000000
20
0.000000
30
0.000000
71
2
72
61
73
1
0
VERTEX
8
0
6
CONTINUOUS
62
252
70
128
10
0.000000
20
0.000000
30
0.000000
71
1
72
61
73
62
0
VERTEX
8
0
6
CONTINUOUS
62
252
70
128
10
0.000000
20
0.000000
30
0.000000
71
1
72
62
73
60
0
VERTEX
8
0
6
CONTINUOUS
62
252
70
128
10
0.000000
20
0.000000
30
0.000000
71
60
72
62
73
63
0
VERTEX
8
0
6
CONTINUOUS
62
252
70
128
10
0.000000
20
0.000000
30
0.000000
71
60
72
63
73
59
0
VERTEX
8
0
6
CONTINUOUS
62
252
70
128
10
0.000000
20
0.000000
30
0.000000
71
59
72
63
73
64
0
VERTEX
8
0
6
CONTINUOUS
62
252
70
128
10
0.000000
20
0.000000
30
0.000000
71
59
72
64
73
58
0
VERTEX
8
0
6
CONTINUOUS
62
252
70
128
10
0.000000
20
0.000000
30
0.000000
71
58
72
64
73
65
0
VERTEX
8
0
6
CONTINUOUS
62
252
70
128
10
0.000000
20
0.000000
30
0.000000
71
58
72
65
73
57
0
VERTEX
8
0
6
CONTINUOUS
62
252
70
128
10
0.000000
20
0.000000
30
0.000000
71
57
72
65
73
66
0
VERTEX
8
0
6
CONTINUOUS
62
252
70
128
10
0.000000
20
0.000000
30
0.000000
71
57
72
66
73
56
0
VERTEX
8
0
6
CONTINUOUS
62
252
70
128
10
0.000000
20
0.000000
30
0.000000
71
56
72
66
73
67
0
VERTEX
8
0
6
CONTINUOUS
62
252
70
128
10
0.000000
20
0.000000
30
0.000000
71
56
72
67
73
55
0
VERTEX
8
0
6
CONTINUOUS
62
252
70
128
10
0.000000
20
0.000000
30
0.000000
71
55
72
67
73
68
0
VERTEX
8
0
6
CONTINUOUS
62
252
70
128
10
0.000000
20
0.000000
30
0.000000
71
55
72
68
73
54
0
VERTEX
8
0
6
CONTINUOUS
62
252
70
128
10
0.000000
20
0.000000
30
0.000000
71
54
72
68
73
69
0
VERTEX
8
0
6
CONTINUOUS
62
252
70
128
10
0.000000
20
0.000000
30
0.000000
71
54
72
69
73
53
0
VERTEX
8
0
6
CONTINUOUS
62
252
70
128
10
0.000000
20
0.000000
30
0.000000
71
53
72
69
73
70
0
VERTEX
8
0
6
CONTINUOUS
62
252
70
128
10
0.000000
20
0.000000
30
0.000000
71
53
72
70
73
52
0
VERTEX
8
0
6
CONTINUOUS
62
252
70
128
10
0.000000
20
0.000000
30
0.000000
71
52
72
70
73
71
0
VERTEX
8
0
6
CONTINUOUS
62
252
70
128
10
0.000000
20
0.000000
30
0.000000
71
52
72
71
73
51
0
VERTEX
8
0
6
CONTINUOUS
62
252
70
128
10
0.000000
20
0.000000
30
0.000000
71
51
72
71
73
72
0
VERTEX
8
0
6
CONTINUOUS
62
252
70
128
10
0.000000
20
0.000000
30
0.000000
71
51
72
72
73
50
0
VERTEX
8
0
6
CONTINUOUS
62
252
70
128
10
0.000000
20
0.000000
30
0.000000
71
50
72
72
73
73
0
VERTEX
8
0
6
CONTINUOUS
62
252
70
128
10
0.000000
20
0.000000
30
0.000000
71
50
72
73
73
49
0
VERTEX
8
0
6
CONTINUOUS
62
252
70
128
10
0.000000
20
0.000000
30
0.000000
71
49
72
73
73
74
0
VERTEX
8
0
6
CONTINUOUS
62
252
70
128
10
0.000000
20
0.000000
30
0.000000
71
49
72
74
73
48
0
VERTEX
8
0
6
CONTINUOUS
62
252
70
128
10
0.000000
20
0.000000
30
0.000000
71
48
72
74
73
75
0
VERTEX
8
0
6
CONTINUOUS
62
252
70
128
10
0.000000
20
0.000000
30
0.000000
71
48
72
75
73
47
0
VERTEX
8
0
6
CONTINUOUS
62
252
70
128
10
0.000000
20
0.000000
30
0.000000
71
47
72
75
73
76
0
VERTEX
8
0
6
CONTINUOUS
62
252
70
128
10
0.000000
20
0.000000
30
0.000000
71
47
72
76
73
46
0
VERTEX
8
0
6
CONTINUOUS
62
252
70
128
10
0.000000
20
0.000000
30
0.000000
71
46
72
76
73
77
0
VERTEX
8
0
6
CONTINUOUS
62
252
70
128
10
0.000000
20
0.000000
30
0.000000
71
46
72
77
73
45
0
VERTEX
8
0
6
CONTINUOUS
62
252
70
128
10
0.000000
20
0.000000
30
0.000000
71
45
72
77
73
78
0
VERTEX
8
0
6
CONTINUOUS
62
252
70
128
10
0.000000
20
0.000000
30
0.000000
71
45
72
78
73
44
0
VERTEX
8
0
6
CONTINUOUS
62
252
70
128
10
0.000000
20
0.000000
30
0.000000
71
44
72
78
73
79
0
VERTEX
8
0
6
CONTINUOUS
62
252
70
128
10
0.000000
20
0.000000
30
0.000000
71
44
72
79
73
43
0
VERTEX
8
0
6
CONTINUOUS
62
252
70
128
10
0.000000
20
0.000000
30
0.000000
71
43
72
79
73
80
0
VERTEX
8
0
6
CONTINUOUS
62
252
70
128
10
0.000000
20
0.000000
30
0.000000
71
43
72
80
73
42
0
VERTEX
8
0
6
CONTINUOUS
62
252
70
128
10
0.000000
20
0.000000
30
0.000000
71
42
72
80
73
81
0
VERTEX
8
0
6
CONTINUOUS
62
252
70
128
10
0.000000
20
0.000000
30
0.000000
71
42
72
81
73
41
0
VERTEX
8
0
6
CONTINUOUS
62
252
70
128
10
0.000000
20
0.000000
30
0.000000
71
41
72
81
73
82
0
VERTEX
8
0
6
CONTINUOUS
62
252
70
128
10
0.000000
20
0.000000
30
0.000000
71
41
72
82
73
40
0
VERTEX
8
0
6
CONTINUOUS
62
252
70
128
10
0.000000
20
0.000000
30
0.000000
71
40
72
82
73
83
0
VERTEX
8
0
6
CONTINUOUS
62
252
70
128
10
0.000000
20
0.000000
30
0.000000
71
40
72
83
73
39
0
VERTEX
8
0
6
CONTINUOUS
62
252
70
128
10
0.000000
20
0.000000
30
0.000000
71
39
72
83
73
84
0
VERTEX
8
0
6
CONTINUOUS
62
252
70
128
10
0.000000
20
0.000000
30
0.000000
71
39
72
84
73
38
0
VERTEX
8
0
6
CONTINUOUS
62
252
70
128
10
0.000000
20
0.000000
30
0.000000
71
38
72
84
73
85
0
VERTEX
8
0
6
CONTINUOUS
62
252
70
128
10
0.000000
20
0.000000
30
0.000000
71
38
72
85
73
37
0
VERTEX
8
0
6
CONTINUOUS
62
252
70
128
10
0.000000
20
0.000000
30
0.000000
71
37
72
85
73
86
0
VERTEX
8
0
6
CONTINUOUS
62
252
70
128
10
0.000000
20
0.000000
30
0.000000
71
37
72
86
73
36
0
VERTEX
8
0
6
CONTINUOUS
62
252
70
128
10
0.000000
20
0.000000
30
0.000000
71
36
72
86
73
87
0
VERTEX
8
0
6
CONTINUOUS
62
252
70
128
10
0.000000
20
0.000000
30
0.000000
71
36
72
87
73
35
0
VERTEX
8
0
6
CONTINUOUS
62
252
70
128
10
0.000000
20
0.000000
30
0.000000
71
35
72
87
73
88
0
VERTEX
8
0
6
CONTINUOUS
62
252
70
128
10
0.000000
20
0.000000
30
0.000000
71
35
72
88
73
34
0
VERTEX
8
0
6
CONTINUOUS
62
252
70
128
10
0.000000
20
0.000000
30
0.000000
71
34
72
88
73
89
0
VERTEX
8
0
6
CONTINUOUS
62
252
70
128
10
0.000000
20
0.000000
30
0.000000
71
34
72
89
73
33
0
VERTEX
8
0
6
CONTINUOUS
62
252
70
128
10
0.000000
20
0.000000
30
0.000000
71
33
72
89
73
90
0
VERTEX
8
0
6
CONTINUOUS
62
252
70
128
10
0.000000
20
0.000000
30
0.000000
71
33
72
90
73
32
0
VERTEX
8
0
6
CONTINUOUS
62
252
70
128
10
0.000000
20
0.000000
30
0.000000
71
32
72
90
73
91
0
VERTEX
8
0
6
CONTINUOUS
62
252
70
128
10
0.000000
20
0.000000
30
0.000000
71
32
72
91
73
31
0
VERTEX
8
0
6
CONTINUOUS
62
252
70
128
10
0.000000
20
0.000000
30
0.000000
71
31
72
91
73
92
0
VERTEX
8
0
6
CONTINUOUS
62
252
70
128
10
0.000000
20
0.000000
30
0.000000
71
31
72
92
73
30
0
VERTEX
8
0
6
CONTINUOUS
62
252
70
128
10
0.000000
20
0.000000
30
0.000000
71
30
72
92
73
93
0
VERTEX
8
0
6
CONTINUOUS
62
252
70
128
10
0.000000
20
0.000000
30
0.000000
71
30
72
93
73
29
0
VERTEX
8
0
6
CONTINUOUS
62
252
70
128
10
0.000000
20
0.000000
30
0.000000
71
29
72
93
73
94
0
VERTEX
8
0
6
CONTINUOUS
62
252
70
128
10
0.000000
20
0.000000
30
0.000000
71
29
72
94
73
28
0
VERTEX
8
0
6
CONTINUOUS
62
252
70
128
10
0.000000
20
0.000000
30
0.000000
71
28
72
94
73
95
0
VERTEX
8
0
6
CONTINUOUS
62
252
70
128
10
0.000000
20
0.000000
30
0.000000
71
28
72
95
73
27
0
VERTEX
8
0
6
CONTINUOUS
62
252
70
128
10
0.000000
20
0.000000
30
0.000000
71
27
72
95
73
96
0
VERTEX
8
0
6
CONTINUOUS
62
252
70
128
10
0.000000
20
0.000000
30
0.000000
71
27
72
96
73
26
0
VERTEX
8
0
6
CONTINUOUS
62
252
70
128
10
0.000000
20
0.000000
30
0.000000
71
26
72
96
73
97
0
VERTEX
8
0
6
CONTINUOUS
62
252
70
128
10
0.000000
20
0.000000
30
0.000000
71
26
72
97
73
25
0
VERTEX
8
0
6
CONTINUOUS
62
252
70
128
10
0.000000
20
0.000000
30
0.000000
71
25
72
97
73
24
0
VERTEX
8
0
6
CONTINUOUS
62
252
70
128
10
0.000000
20
0.000000
30
0.000000
71
24
72
97
73
98
0
VERTEX
8
0
6
CONTINUOUS
62
252
70
128
10
0.000000
20
0.000000
30
0.000000
71
24
72
98
73
99
0
VERTEX
8
0
6
CONTINUOUS
62
252
70
128
10
0.000000
20
0.000000
30
0.000000
71
3
72
119
73
2
0
VERTEX
8
0
6
CONTINUOUS
62
252
70
128
10
0.000000
20
0.000000
30
0.000000
71
2
72
119
73
120
0
VERTEX
8
0
6
CONTINUOUS
62
252
70
128
10
0.000000
20
0.000000
30
0.000000
71
2
72
120
73
61
0
VERTEX
8
0
6
CONTINUOUS
62
252
70
128
10
0.000000
20
0.000000
30
0.000000
71
119
72
3
73
118
0
VERTEX
8
0
6
CONTINUOUS
62
252
70
128
10
0.000000
20
0.000000
30
0.000000
71
118
72
3
73
4
0
VERTEX
8
0
6
CONTINUOUS
62
252
70
128
10
0.000000
20
0.000000
30
0.000000
71
118
72
4
73
117
0
VERTEX
8
0
6
CONTINUOUS
62
252
70
128
10
0.000000
20
0.000000
30
0.000000
71
117
72
4
73
5
0
VERTEX
8
0
6
CONTINUOUS
62
252
70
128
10
0.000000
20
0.000000
30
0.000000
71
117
72
5
73
116
0
VERTEX
8
0
6
CONTINUOUS
62
252
70
128
10
0.000000
20
0.000000
30
0.000000
71
116
72
5
73
6
0
VERTEX
8
0
6
CONTINUOUS
62
252
70
128
10
0.000000
20
0.000000
30
0.000000
71
116
72
6
73
115
0
VERTEX
8
0
6
CONTINUOUS
62
252
70
128
10
0.000000
20
0.000000
30
0.000000
71
115
72
6
73
7
0
VERTEX
8
0
6
CONTINUOUS
62
252
70
128
10
0.000000
20
0.000000
30
0.000000
71
115
72
7
73
114
0
VERTEX
8
0
6
CONTINUOUS
62
252
70
128
10
0.000000
20
0.000000
30
0.000000
71
114
72
7
73
8
0
VERTEX
8
0
6
CONTINUOUS
62
252
70
128
10
0.000000
20
0.000000
30
0.000000
71
114
72
8
73
113
0
VERTEX
8
0
6
CONTINUOUS
62
252
70
128
10
0.000000
20
0.000000
30
0.000000
71
113
72
8
73
9
0
VERTEX
8
0
6
CONTINUOUS
62
252
70
128
10
0.000000
20
0.000000
30
0.000000
71
113
72
9
73
112
0
VERTEX
8
0
6
CONTINUOUS
62
252
70
128
10
0.000000
20
0.000000
30
0.000000
71
112
72
9
73
10
0
VERTEX
8
0
6
CONTINUOUS
62
252
70
128
10
0.000000
20
0.000000
30
0.000000
71
112
72
10
73
111
0
VERTEX
8
0
6
CONTINUOUS
62
252
70
128
10
0.000000
20
0.000000
30
0.000000
71
111
72
10
73
11
0
VERTEX
8
0
6
CONTINUOUS
62
252
70
128
10
0.000000
20
0.000000
30
0.000000
71
111
72
11
73
110
0
VERTEX
8
0
6
CONTINUOUS
62
252
70
128
10
0.000000
20
0.000000
30
0.000000
71
110
72
11
73
12
0
VERTEX
8
0
6
CONTINUOUS
62
252
70
128
10
0.000000
20
0.000000
30
0.000000
71
110
72
12
73
109
0
VERTEX
8
0
6
CONTINUOUS
62
252
70
128
10
0.000000
20
0.000000
30
0.000000
71
109
72
12
73
13
0
VERTEX
8
0
6
CONTINUOUS
62
252
70
128
10
0.000000
20
0.000000
30
0.000000
71
109
72
13
73
108
0
VERTEX
8
0
6
CONTINUOUS
62
252
70
128
10
0.000000
20
0.000000
30
0.000000
71
108
72
13
73
14
0
VERTEX
8
0
6
CONTINUOUS
62
252
70
128
10
0.000000
20
0.000000
30
0.000000
71
108
72
14
73
107
0
VERTEX
8
0
6
CONTINUOUS
62
252
70
128
10
0.000000
20
0.000000
30
0.000000
71
107
72
14
73
15
0
VERTEX
8
0
6
CONTINUOUS
62
252
70
128
10
0.000000
20
0.000000
30
0.000000
71
107
72
15
73
106
0
VERTEX
8
0
6
CONTINUOUS
62
252
70
128
10
0.000000
20
0.000000
30
0.000000
71
106
72
15
73
16
0
VERTEX
8
0
6
CONTINUOUS
62
252
70
128
10
0.000000
20
0.000000
30
0.000000
71
106
72
16
73
105
0
VERTEX
8
0
6
CONTINUOUS
62
252
70
128
10
0.000000
20
0.000000
30
0.000000
71
105
72
16
73
17
0
VERTEX
8
0
6
CONTINUOUS
62
252
70
128
10
0.000000
20
0.000000
30
0.000000
71
105
72
17
73
104
0
VERTEX
8
0
6
CONTINUOUS
62
252
70
128
10
0.000000
20
0.000000
30
0.000000
71
104
72
17
73
18
0
VERTEX
8
0
6
CONTINUOUS
62
252
70
128
10
0.000000
20
0.000000
30
0.000000
71
104
72
18
73
103
0
VERTEX
8
0
6
CONTINUOUS
62
252
70
128
10
0.000000
20
0.000000
30
0.000000
71
103
72
18
73
19
0
VERTEX
8
0
6
CONTINUOUS
62
252
70
128
10
0.000000
20
0.000000
30
0.000000
71
103
72
19
73
102
0
VERTEX
8
0
6
CONTINUOUS
62
252
70
128
10
0.000000
20
0.000000
30
0.000000
71
102
72
19
73
20
0
VERTEX
8
0
6
CONTINUOUS
62
252
70
128
10
0.000000
20
0.000000
30
0.000000
71
102
72
20
73
101
0
VERTEX
8
0
6
CONTINUOUS
62
252
70
128
10
0.000000
20
0.000000
30
0.000000
71
101
72
20
73
21
0
VERTEX
8
0
6
CONTINUOUS
62
252
70
128
10
0.000000
20
0.000000
30
0.000000
71
101
72
21
73
100
0
VERTEX
8
0
6
CONTINUOUS
62
252
70
128
10
0.000000
20
0.000000
30
0.000000
71
100
72
21
73
22
0
VERTEX
8
0
6
CONTINUOUS
62
252
70
128
10
0.000000
20
0.000000
30
0.000000
71
100
72
22
73
23
0
VERTEX
8
0
6
CONTINUOUS
62
252
70
128
10
0.000000
20
0.000000
30
0.000000
71
100
72
23
73
99
0
VERTEX
8
0
6
CONTINUOUS
62
252
70
128
10
0.000000
20
0.000000
30
0.000000
71
99
72
23
73
24
0
SEQEND
0
POLYLINE
66
1
8
0
6
CONTINUOUS
62
252
70
64
75
0
10
0.000000
20
0.000000
30
0.000000
0
VERTEX
8
0
6
CONTINUOUS
62
252
70
192
10
1.852860
20
0.000000
30
-0.360645
0
VERTEX
8
0
6
CONTINUOUS
62
252
70
192
10
1.852860
20
0.037698
30
-0.358669
0
VERTEX
8
0
6
CONTINUOUS
62
252
70
192
10
1.852860
20
0.074982
30
-0.352764
0
VERTEX
8
0
6
CONTINUOUS
62
252
70
192
10
1.852860
20
0.111445
30
-0.342994
0
VERTEX
8
0
6
CONTINUOUS
62
252
70
192
10
1.852860
20
0.146688
30
-0.329466
0
VERTEX
8
0
6
CONTINUOUS
62
252
70
192
10
1.852860
20
0.180322
30
-0.312328
0
VERTEX
8
0
6
CONTINUOUS
62
252
70
192
10
1.852860
20
0.211982
30
-0.291768
0
VERTEX
8
0
6
CONTINUOUS
62
252
70
192
10
1.852860
20
0.241319
30
-0.268011
0
VERTEX
8
0
6
CONTINUOUS
62
252
70
192
10
1.852860
20
0.268011
30
-0.241319
0
VERTEX
8
0
6
CONTINUOUS
62
252
70
192
10
1.852860
20
0.291768
30
-0.211982
0
VERTEX
8
0
6
CONTINUOUS
62
252
70
192
10
1.852860
20
0.312328
30
-0.180323
0
VERTEX
8
0
6
CONTINUOUS
62
252
70
192
10
1.852860
20
0.329466
30
-0.146688
0
VERTEX
8
0
6
CONTINUOUS
62
252
70
192
10
1.852860
20
0.342994
30
-0.111445
0
VERTEX
8
0
6
CONTINUOUS
62
252
70
192
10
1.852860
20
0.352764
30
-0.074982
0
VERTEX
8
0
6
CONTINUOUS
62
252
70
192
10
1.852860
20
0.358669
30
-0.037698
0
VERTEX
8
0
6
CONTINUOUS
62
252
70
192
10
1.852860
20
0.360645
30
-0.000000
0
VERTEX
8
0
6
CONTINUOUS
62
252
70
192
10
1.852860
20
0.358669
30
0.037698
0
VERTEX
8
0
6
CONTINUOUS
62
252
70
192
10
1.852860
20
0.352764
30
0.074982
0
VERTEX
8
0
6
CONTINUOUS
62
252
70
192
10
1.852860
20
0.342994
30
0.111445
0
VERTEX
8
0
6
CONTINUOUS
62
252
70
192
10
1.852860
20
0.329466
30
0.146688
0
VERTEX
8
0
6
CONTINUOUS
62
252
70
192
10
1.852860
20
0.312328
30
0.180322
0
VERTEX
8
0
6
CONTINUOUS
62
252
70
192
10
1.852860
20
0.291768
30
0.211982
0
VERTEX
8
0
6
CONTINUOUS
62
252
70
192
10
1.852860
20
0.268011
30
0.241319
0
VERTEX
8
0
6
CONTINUOUS
62
252
70
192
10
1.852860
20
0.241319
30
0.268011
0
VERTEX
8
0
6
CONTINUOUS
62
252
70
192
10
1.852860
20
0.211982
30
0.291768
0
VERTEX
8
0
6
CONTINUOUS
62
252
70
192
10
1.852860
20
0.180323
30
0.312328
0
VERTEX
8
0
6
CONTINUOUS
62
252
70
192
10
1.852860
20
0.146688
30
0.329466
0
VERTEX
8
0
6
CONTINUOUS
62
252
70
192
10
1.852860
20
0.111445
30
0.342994
0
VERTEX
8
0
6
CONTINUOUS
62
252
70
192
10
1.852860
20
0.074982
30
0.352764
0
VERTEX
8
0
6
CONTINUOUS
62
252
70
192
10
1.852860
20
0.037698
30
0.358669
0
VERTEX
8
0
6
CONTINUOUS
62
252
70
192
10
1.852860
20
0.000000
30
0.360645
0
VERTEX
8
0
6
CONTINUOUS
62
252
70
192
10
1.852860
20
-0.037698
30
0.358669
0
VERTEX
8
0
6
CONTINUOUS
62
252
70
192
10
1.852860
20
-0.074982
30
0.352764
0
VERTEX
8
0
6
CONTINUOUS
62
252
70
192
10
1.852860
20
-0.111445
30
0.342994
0
VERTEX
8
0
6
CONTINUOUS
62
252
70
192
10
1.852860
20
-0.146688
30
0.329466
0
VERTEX
8
0
6
CONTINUOUS
62
252
70
192
10
1.852860
20
-0.180322
30
0.312328
0
VERTEX
8
0
6
CONTINUOUS
62
252
70
192
10
1.852860
20
-0.211982
30
0.291768
0
VERTEX
8
0
6
CONTINUOUS
62
252
70
192
10
1.852860
20
-0.241319
30
0.268011
0
VERTEX
8
0
6
CONTINUOUS
62
252
70
192
10
1.852860
20
-0.268011
30
0.241319
0
VERTEX
8
0
6
CONTINUOUS
62
252
70
192
10
1.852860
20
-0.291768
30
0.211982
0
VERTEX
8
0
6
CONTINUOUS
62
252
70
192
10
1.852860
20
-0.312328
30
0.180323
0
VERTEX
8
0
6
CONTINUOUS
62
252
70
192
10
1.852860
20
-0.329466
30
0.146688
0
VERTEX
8
0
6
CONTINUOUS
62
252
70
192
10
1.852860
20
-0.342994
30
0.111445
0
VERTEX
8
0
6
CONTINUOUS
62
252
70
192
10
1.852860
20
-0.352764
30
0.074982
0
VERTEX
8
0
6
CONTINUOUS
62
252
70
192
10
1.852860
20
-0.358669
30
0.037698
0
VERTEX
8
0
6
CONTINUOUS
62
252
70
192
10
1.852860
20
-0.360645
30
0.000000
0
VERTEX
8
0
6
CONTINUOUS
62
252
70
192
10
1.852860
20
-0.358669
30
-0.037698
0
VERTEX
8
0
6
CONTINUOUS
62
252
70
192
10
1.852860
20
-0.352764
30
-0.074982
0
VERTEX
8
0
6
CONTINUOUS
62
252
70
192
10
1.852860
20
-0.342994
30
-0.111445
0
VERTEX
8
0
6
CONTINUOUS
62
252
70
192
10
1.852860
20
-0.329466
30
-0.146688
0
VERTEX
8
0
6
CONTINUOUS
62
252
70
192
10
1.852860
20
-0.312328
30
-0.180322
0
VERTEX
8
0
6
CONTINUOUS
62
252
70
192
10
1.852860
20
-0.291768
30
-0.211982
0
VERTEX
8
0
6
CONTINUOUS
62
252
70
192
10
1.852860
20
-0.268011
30
-0.241319
0
VERTEX
8
0
6
CONTINUOUS
62
252
70
192
10
1.852860
20
-0.241319
30
-0.268011
0
VERTEX
8
0
6
CONTINUOUS
62
252
70
192
10
1.852860
20
-0.211982
30
-0.291768
0
VERTEX
8
0
6
CONTINUOUS
62
252
70
192
10
1.852860
20
-0.180323
30
-0.312328
0
VERTEX
8
0
6
CONTINUOUS
62
252
70
192
10
1.852860
20
-0.146688
30
-0.329466
0
VERTEX
8
0
6
CONTINUOUS
62
252
70
192
10
1.852860
20
-0.111445
30
-0.342994
0
VERTEX
8
0
6
CONTINUOUS
62
252
70
192
10
1.852860
20
-0.074982
30
-0.352764
0
VERTEX
8
0
6
CONTINUOUS
62
252
70
192
10
1.852860
20
-0.037698
30
-0.358669
0
VERTEX
8
0
6
CONTINUOUS
62
252
70
192
10
1.375700
20
0.000000
30
-0.348400
0
VERTEX
8
0
6
CONTINUOUS
62
252
70
192
10
1.375700
20
-0.036418
30
-0.346492
0
VERTEX
8
0
6
CONTINUOUS
62
252
70
192
10
1.375700
20
-0.072436
30
-0.340787
0
VERTEX
8
0
6
CONTINUOUS
62
252
70
192
10
1.375700
20
-0.107662
30
-0.331348
0
VERTEX
8
0
6
CONTINUOUS
62
252
70
192
10
1.375700
20
-0.141707
30
-0.318279
0
VERTEX
8
0
6
CONTINUOUS
62
252
70
192
10
1.375700
20
-0.174200
30
-0.301723
0
VERTEX
8
0
6
CONTINUOUS
62
252
70
192
10
1.375700
20
-0.204784
30
-0.281862
0
VERTEX
8
0
6
CONTINUOUS
62
252
70
192
10
1.375700
20
-0.233125
30
-0.258912
0
VERTEX
8
0
6
CONTINUOUS
62
252
70
192
10
1.375700
20
-0.258912
30
-0.233125
0
VERTEX
8
0
6
CONTINUOUS
62
252
70
192
10
1.375700
20
-0.281862
30
-0.204784
0
VERTEX
8
0
6
CONTINUOUS
62
252
70
192
10
1.375700
20
-0.301723
30
-0.174200
0
VERTEX
8
0
6
CONTINUOUS
62
252
70
192
10
1.375700
20
-0.318279
30
-0.141707
0
VERTEX
8
0
6
CONTINUOUS
62
252
70
192
10
1.375700
20
-0.331348
30
-0.107662
0
VERTEX
8
0
6
CONTINUOUS
62
252
70
192
10
1.375700
20
-0.340787
30
-0.072436
0
VERTEX
8
0
6
CONTINUOUS
62
252
70
192
10
1.375700
20
-0.346492
30
-0.036418
0
VERTEX
8
0
6
CONTINUOUS
62
252
70
192
10
1.375700
20
-0.348400
30
0.000000
0
VERTEX
8
0
6
CONTINUOUS
62
252
70
192
10
1.375700
20
-0.346492
30
0.036418
0
VERTEX
8
0
6
CONTINUOUS
62
252
70
192
10
1.375700
20
-0.340787
30
0.072436
0
VERTEX
8
0
6
CONTINUOUS
62
252
70
192
10
1.375700
20
-0.331348
30
0.107662
0
VERTEX
8
0
6
CONTINUOUS
62
252
70
192
10
1.375700
20
-0.318279
30
0.141707
0
VERTEX
8
0
6
CONTINUOUS
62
252
70
192
10
1.375700
20
-0.301723
30
0.174200
0
VERTEX
8
0
6
CONTINUOUS
62
252
70
192
10
1.375700
20
-0.281862
30
0.204784
0
VERTEX
8
0
6
CONTINUOUS
62
252
70
192
10
1.375700
20
-0.258912
30
0.233125
0
VERTEX
8
0
6
CONTINUOUS
62
252
70
192
10
1.375700
20
-0.233125
30
0.258912
0
VERTEX
8
0
6
CONTINUOUS
62
252
70
192
10
1.375700
20
-0.204784
30
0.281862
0
VERTEX
8
0
6
CONTINUOUS
62
252
70
192
10
1.375700
20
-0.174200
30
0.301723
0
VERTEX
8
0
6
CONTINUOUS
62
252
70
192
10
1.375700
20
-0.141707
30
0.318279
0
VERTEX
8
0
6
CONTINUOUS
62
252
70
192
10
1.375700
20
-0.107662
30
0.331348
0
VERTEX
8
0
6
CONTINUOUS
62
252
70
192
10
1.375700
20
-0.072436
30
0.340787
0
VERTEX
8
0
6
CONTINUOUS
62
252
70
192
10
1.375700
20
-0.036418
30
0.346492
0
VERTEX
8
0
6
CONTINUOUS
62
252
70
192
10
1.375700
20
0.000000
30
0.348400
0
VERTEX
8
0
6
CONTINUOUS
62
252
70
192
10
1.375700
20
0.036418
30
0.346492
0
VERTEX
8
0
6
CONTINUOUS
62
252
70
192
10
1.375700
20
0.072436
30
0.340787
0
VERTEX
8
0
6
CONTINUOUS
62
252
70
192
10
1.375700
20
0.107662
30
0.331348
0
VERTEX
8
0
6
CONTINUOUS
62
252
70
192
10
1.375700
20
0.141707
30
0.318279
0
VERTEX
8
0
6
CONTINUOUS
62
252
70
192
10
1.375700
20
0.174200
30
0.301723
0
VERTEX
8
0
6
CONTINUOUS
62
252
70
192
10
1.375700
20
0.204784
30
0.281862
0
VERTEX
8
0
6
CONTINUOUS
62
252
70
192
10
1.375700
20
0.233125
30
0.258912
0
VERTEX
8
0
6
CONTINUOUS
62
252
70
192
10
1.375700
20
0.258912
30
0.233125
0
VERTEX
8
0
6
CONTINUOUS
62
252
70
192
10
1.375700
20
0.281862
30
0.204784
0
VERTEX
8
0
6
CONTINUOUS
62
252
70
192
10
1.375700
20
0.301723
30
0.174200
0
VERTEX
8
0
6
CONTINUOUS
62
252
70
192
10
1.375700
20
0.318279
30
0.141707
0
VERTEX
8
0
6
CONTINUOUS
62
252
70
192
10
1.375700
20
0.331348
30
0.107662
0
VERTEX
8
0
6
CONTINUOUS
62
252
70
192
10
1.375700
20
0.340787
30
0.072436
0
VERTEX
8
0
6
CONTINUOUS
62
252
70
192
10
1.375700
20
0.346492
30
0.036418
0
VERTEX
8
0
6
CONTINUOUS
62
252
70
192
10
1.375700
20
0.348400
30
-0.000000
0
VERTEX
8
0
6
CONTINUOUS
62
252
70
192
10
1.375700
20
0.346492
30
-0.036418
0
VERTEX
8
0
6
CONTINUOUS
62
252
70
192
10
1.375700
20
0.340787
30
-0.072436
0
VERTEX
8
0
6
CONTINUOUS
62
252
70
192
10
1.375700
20
0.331348
30
-0.107662
0
VERTEX
8
0
6
CONTINUOUS
62
252
70
192
10
1.375700
20
0.318279
30
-0.141707
0
VERTEX
8
0
6
CONTINUOUS
62
252
70
192
10
1.375700
20
0.301723
30
-0.174200
0
VERTEX
8
0
6
CONTINUOUS
62
252
70
192
10
1.375700
20
0.281862
30
-0.204784
0
VERTEX
8
0
6
CONTINUOUS
62
252
70
192
10
1.375700
20
0.258912
30
-0.233125
0
VERTEX
8
0
6
CONTINUOUS
62
252
70
192
10
1.375700
20
0.233125
30
-0.258912
0
VERTEX
8
0
6
CONTINUOUS
62
252
70
192
10
1.375700
20
0.204784
30
-0.281862
0
VERTEX
8
0
6
CONTINUOUS
62
252
70
192
10
1.375700
20
0.174200
30
-0.301723
0
VERTEX
8
0
6
CONTINUOUS
62
252
70
192
10
1.375700
20
0.141707
30
-0.318279
0
VERTEX
8
0
6
CONTINUOUS
62
252
70
192
10
1.375700
20
0.107662
30
-0.331348
0
VERTEX
8
0
6
CONTINUOUS
62
252
70
192
10
1.375700
20
0.072436
30
-0.340787
0
VERTEX
8
0
6
CONTINUOUS
62
252
70
192
10
1.375700
20
0.036418
30
-0.346492
0
VERTEX
8
0
6
CONTINUOUS
62
252
70
128
10
0.000000
20
0.000000
30
0.000000
71
2
72
120
73
1
0
VERTEX
8
0
6
CONTINUOUS
62
252
70
128
10
0.000000
20
0.000000
30
0.000000
71
1
72
120
73
61
0
VERTEX
8
0
6
CONTINUOUS
62
252
70
128
10
0.000000
20
0.000000
30
0.000000
71
1
72
61
73
60
0
VERTEX
8
0
6
CONTINUOUS
62
252
70
128
10
0.000000
20
0.000000
30
0.000000
71
60
72
61
73
62
0
VERTEX
8
0
6
CONTINUOUS
62
252
70
128
10
0.000000
20
0.000000
30
0.000000
71
60
72
62
73
59
0
VERTEX
8
0
6
CONTINUOUS
62
252
70
128
10
0.000000
20
0.000000
30
0.000000
71
59
72
62
73
63
0
VERTEX
8
0
6
CONTINUOUS
62
252
70
128
10
0.000000
20
0.000000
30
0.000000
71
59
72
63
73
58
0
VERTEX
8
0
6
CONTINUOUS
62
252
70
128
10
0.000000
20
0.000000
30
0.000000
71
58
72
63
73
64
0
VERTEX
8
0
6
CONTINUOUS
62
252
70
128
10
0.000000
20
0.000000
30
0.000000
71
58
72
64
73
65
0
VERTEX
8
0
6
CONTINUOUS
62
252
70
128
10
0.000000
20
0.000000
30
0.000000
71
120
72
2
73
119
0
VERTEX
8
0
6
CONTINUOUS
62
252
70
128
10
0.000000
20
0.000000
30
0.000000
71
119
72
2
73
3
0
VERTEX
8
0
6
CONTINUOUS
62
252
70
128
10
0.000000
20
0.000000
30
0.000000
71
119
72
3
73
118
0
VERTEX
8
0
6
CONTINUOUS
62
252
70
128
10
0.000000
20
0.000000
30
0.000000
71
118
72
3
73
4
0
VERTEX
8
0
6
CONTINUOUS
62
252
70
128
10
0.000000
20
0.000000
30
0.000000
71
118
72
4
73
117
0
VERTEX
8
0
6
CONTINUOUS
62
252
70
128
10
0.000000
20
0.000000
30
0.000000
71
117
72
4
73
5
0
VERTEX
8
0
6
CONTINUOUS
62
252
70
128
10
0.000000
20
0.000000
30
0.000000
71
117
72
5
73
116
0
VERTEX
8
0
6
CONTINUOUS
62
252
70
128
10
0.000000
20
0.000000
30
0.000000
71
116
72
5
73
6
0
VERTEX
8
0
6
CONTINUOUS
62
252
70
128
10
0.000000
20
0.000000
30
0.000000
71
116
72
6
73
7
0
VERTEX
8
0
6
CONTINUOUS
62
252
70
128
10
0.000000
20
0.000000
30
0.000000
71
116
72
7
73
115
0
VERTEX
8
0
6
CONTINUOUS
62
252
70
128
10
0.000000
20
0.000000
30
0.000000
71
115
72
7
73
8
0
VERTEX
8
0
6
CONTINUOUS
62
252
70
128
10
0.000000
20
0.000000
30
0.000000
71
115
72
8
73
114
0
VERTEX
8
0
6
CONTINUOUS
62
252
70
128
10
0.000000
20
0.000000
30
0.000000
71
114
72
8
73
113
0
VERTEX
8
0
6
CONTINUOUS
62
252
70
128
10
0.000000
20
0.000000
30
0.000000
71
113
72
8
73
9
0
VERTEX
8
0
6
CONTINUOUS
62
252
70
128
10
0.000000
20
0.000000
30
0.000000
71
113
72
9
73
112
0
VERTEX
8
0
6
CONTINUOUS
62
252
70
128
10
0.000000
20
0.000000
30
0.000000
71
112
72
9
73
10
0
VERTEX
8
0
6
CONTINUOUS
62
252
70
128
10
0.000000
20
0.000000
30
0.000000
71
112
72
10
73
111
0
VERTEX
8
0
6
CONTINUOUS
62
252
70
128
10
0.000000
20
0.000000
30
0.000000
71
111
72
10
73
11
0
VERTEX
8
0
6
CONTINUOUS
62
252
70
128
10
0.000000
20
0.000000
30
0.000000
71
111
72
11
73
110
0
VERTEX
8
0
6
CONTINUOUS
62
252
70
128
10
0.000000
20
0.000000
30
0.000000
71
110
72
11
73
12
0
VERTEX
8
0
6
CONTINUOUS
62
252
70
128
10
0.000000
20
0.000000
30
0.000000
71
110
72
12
73
109
0
VERTEX
8
0
6
CONTINUOUS
62
252
70
128
10
0.000000
20
0.000000
30
0.000000
71
109
72
12
73
13
0
VERTEX
8
0
6
CONTINUOUS
62
252
70
128
10
0.000000
20
0.000000
30
0.000000
71
109
72
13
73
108
0
VERTEX
8
0
6
CONTINUOUS
62
252
70
128
10
0.000000
20
0.000000
30
0.000000
71
108
72
13
73
14
0
VERTEX
8
0
6
CONTINUOUS
62
252
70
128
10
0.000000
20
0.000000
30
0.000000
71
108
72
14
73
107
0
VERTEX
8
0
6
CONTINUOUS
62
252
70
128
10
0.000000
20
0.000000
30
0.000000
71
107
72
14
73
15
0
VERTEX
8
0
6
CONTINUOUS
62
252
70
128
10
0.000000
20
0.000000
30
0.000000
71
107
72
15
73
106
0
VERTEX
8
0
6
CONTINUOUS
62
252
70
128
10
0.000000
20
0.000000
30
0.000000
71
106
72
15
73
16
0
VERTEX
8
0
6
CONTINUOUS
62
252
70
128
10
0.000000
20
0.000000
30
0.000000
71
106
72
16
73
105
0
VERTEX
8
0
6
CONTINUOUS
62
252
70
128
10
0.000000
20
0.000000
30
0.000000
71
105
72
16
73
17
0
VERTEX
8
0
6
CONTINUOUS
62
252
70
128
10
0.000000
20
0.000000
30
0.000000
71
105
72
17
73
104
0
VERTEX
8
0
6
CONTINUOUS
62
252
70
128
10
0.000000
20
0.000000
30
0.000000
71
104
72
17
73
18
0
VERTEX
8
0
6
CONTINUOUS
62
252
70
128
10
0.000000
20
0.000000
30
0.000000
71
104
72
18
73
103
0
VERTEX
8
0
6
CONTINUOUS
62
252
70
128
10
0.000000
20
0.000000
30
0.000000
71
103
72
18
73
19
0
VERTEX
8
0
6
CONTINUOUS
62
252
70
128
10
0.000000
20
0.000000
30
0.000000
71
103
72
19
73
102
0
VERTEX
8
0
6
CONTINUOUS
62
252
70
128
10
0.000000
20
0.000000
30
0.000000
71
102
72
19
73
20
0
VERTEX
8
0
6
CONTINUOUS
62
252
70
128
10
0.000000
20
0.000000
30
0.000000
71
102
72
20
73
101
0
VERTEX
8
0
6
CONTINUOUS
62
252
70
128
10
0.000000
20
0.000000
30
0.000000
71
101
72
20
73
21
0
VERTEX
8
0
6
CONTINUOUS
62
252
70
128
10
0.000000
20
0.000000
30
0.000000
71
101
72
21
73
100
0
VERTEX
8
0
6
CONTINUOUS
62
252
70
128
10
0.000000
20
0.000000
30
0.000000
71
100
72
21
73
22
0
VERTEX
8
0
6
CONTINUOUS
62
252
70
128
10
0.000000
20
0.000000
30
0.000000
71
100
72
22
73
99
0
VERTEX
8
0
6
CONTINUOUS
62
252
70
128
10
0.000000
20
0.000000
30
0.000000
71
99
72
22
73
23
0
VERTEX
8
0
6
CONTINUOUS
62
252
70
128
10
0.000000
20
0.000000
30
0.000000
71
99
72
23
73
98
0
VERTEX
8
0
6
CONTINUOUS
62
252
70
128
10
0.000000
20
0.000000
30
0.000000
71
98
72
23
73
24
0
VERTEX
8
0
6
CONTINUOUS
62
252
70
128
10
0.000000
20
0.000000
30
0.000000
71
98
72
24
73
97
0
VERTEX
8
0
6
CONTINUOUS
62
252
70
128
10
0.000000
20
0.000000
30
0.000000
71
97
72
24
73
25
0
VERTEX
8
0
6
CONTINUOUS
62
252
70
128
10
0.000000
20
0.000000
30
0.000000
71
97
72
25
73
96
0
VERTEX
8
0
6
CONTINUOUS
62
252
70
128
10
0.000000
20
0.000000
30
0.000000
71
96
72
25
73
26
0
VERTEX
8
0
6
CONTINUOUS
62
252
70
128
10
0.000000
20
0.000000
30
0.000000
71
96
72
26
73
95
0
VERTEX
8
0
6
CONTINUOUS
62
252
70
128
10
0.000000
20
0.000000
30
0.000000
71
95
72
26
73
27
0
VERTEX
8
0
6
CONTINUOUS
62
252
70
128
10
0.000000
20
0.000000
30
0.000000
71
95
72
27
73
94
0
VERTEX
8
0
6
CONTINUOUS
62
252
70
128
10
0.000000
20
0.000000
30
0.000000
71
94
72
27
73
28
0
VERTEX
8
0
6
CONTINUOUS
62
252
70
128
10
0.000000
20
0.000000
30
0.000000
71
94
72
28
73
93
0
VERTEX
8
0
6
CONTINUOUS
62
252
70
128
10
0.000000
20
0.000000
30
0.000000
71
93
72
28
73
29
0
VERTEX
8
0
6
CONTINUOUS
62
252
70
128
10
0.000000
20
0.000000
30
0.000000
71
93
72
29
73
92
0
VERTEX
8
0
6
CONTINUOUS
62
252
70
128
10
0.000000
20
0.000000
30
0.000000
71
92
72
29
73
30
0
VERTEX
8
0
6
CONTINUOUS
62
252
70
128
10
0.000000
20
0.000000
30
0.000000
71
92
72
30
73
91
0
VERTEX
8
0
6
CONTINUOUS
62
252
70
128
10
0.000000
20
0.000000
30
0.000000
71
91
72
30
73
31
0
VERTEX
8
0
6
CONTINUOUS
62
252
70
128
10
0.000000
20
0.000000
30
0.000000
71
91
72
31
73
90
0
VERTEX
8
0
6
CONTINUOUS
62
252
70
128
10
0.000000
20
0.000000
30
0.000000
71
90
72
31
73
32
0
VERTEX
8
0
6
CONTINUOUS
62
252
70
128
10
0.000000
20
0.000000
30
0.000000
71
90
72
32
73
89
0
VERTEX
8
0
6
CONTINUOUS
62
252
70
128
10
0.000000
20
0.000000
30
0.000000
71
89
72
32
73
33
0
VERTEX
8
0
6
CONTINUOUS
62
252
70
128
10
0.000000
20
0.000000
30
0.000000
71
89
72
33
73
88
0
VERTEX
8
0
6
CONTINUOUS
62
252
70
128
10
0.000000
20
0.000000
30
0.000000
71
88
72
33
73
34
0
VERTEX
8
0
6
CONTINUOUS
62
252
70
128
10
0.000000
20
0.000000
30
0.000000
71
88
72
34
73
87
0
VERTEX
8
0
6
CONTINUOUS
62
252
70
128
10
0.000000
20
0.000000
30
0.000000
71
87
72
34
73
35
0
VERTEX
8
0
6
CONTINUOUS
62
252
70
128
10
0.000000
20
0.000000
30
0.000000
71
87
72
35
73
86
0
VERTEX
8
0
6
CONTINUOUS
62
252
70
128
10
0.000000
20
0.000000
30
0.000000
71
86
72
35
73
36
0
VERTEX
8
0
6
CONTINUOUS
62
252
70
128
10
0.000000
20
0.000000
30
0.000000
71
86
72
36
73
85
0
VERTEX
8
0
6
CONTINUOUS
62
252
70
128
10
0.000000
20
0.000000
30
0.000000
71
85
72
36
73
37
0
VERTEX
8
0
6
CONTINUOUS
62
252
70
128
10
0.000000
20
0.000000
30
0.000000
71
85
72
37
73
84
0
VERTEX
8
0
6
CONTINUOUS
62
252
70
128
10
0.000000
20
0.000000
30
0.000000
71
84
72
37
73
38
0
VERTEX
8
0
6
CONTINUOUS
62
252
70
128
10
0.000000
20
0.000000
30
0.000000
71
84
72
38
73
83
0
VERTEX
8
0
6
CONTINUOUS
62
252
70
128
10
0.000000
20
0.000000
30
0.000000
71
83
72
38
73
39
0
VERTEX
8
0
6
CONTINUOUS
62
252
70
128
10
0.000000
20
0.000000
30
0.000000
71
83
72
39
73
82
0
VERTEX
8
0
6
CONTINUOUS
62
252
70
128
10
0.000000
20
0.000000
30
0.000000
71
82
72
39
73
40
0
VERTEX
8
0
6
CONTINUOUS
62
252
70
128
10
0.000000
20
0.000000
30
0.000000
71
82
72
40
73
41
0
VERTEX
8
0
6
CONTINUOUS
62
252
70
128
10
0.000000
20
0.000000
30
0.000000
71
42
72
80
73
41
0
VERTEX
8
0
6
CONTINUOUS
62
252
70
128
10
0.000000
20
0.000000
30
0.000000
71
41
72
80
73
81
0
VERTEX
8
0
6
CONTINUOUS
62
252
70
128
10
0.000000
20
0.000000
30
0.000000
71
41
72
81
73
82
0
VERTEX
8
0
6
CONTINUOUS
62
252
70
128
10
0.000000
20
0.000000
30
0.000000
71
80
72
42
73
79
0
VERTEX
8
0
6
CONTINUOUS
62
252
70
128
10
0.000000
20
0.000000
30
0.000000
71
79
72
42
73
43
0
VERTEX
8
0
6
CONTINUOUS
62
252
70
128
10
0.000000
20
0.000000
30
0.000000
71
79
72
43
73
78
0
VERTEX
8
0
6
CONTINUOUS
62
252
70
128
10
0.000000
20
0.000000
30
0.000000
71
78
72
43
73
44
0
VERTEX
8
0
6
CONTINUOUS
62
252
70
128
10
0.000000
20
0.000000
30
0.000000
71
78
72
44
73
77
0
VERTEX
8
0
6
CONTINUOUS
62
252
70
128
10
0.000000
20
0.000000
30
0.000000
71
77
72
44
73
45
0
VERTEX
8
0
6
CONTINUOUS
62
252
70
128
10
0.000000
20
0.000000
30
0.000000
71
77
72
45
73
76
0
VERTEX
8
0
6
CONTINUOUS
62
252
70
128
10
0.000000
20
0.000000
30
0.000000
71
76
72
45
73
46
0
VERTEX
8
0
6
CONTINUOUS
62
252
70
128
10
0.000000
20
0.000000
30
0.000000
71
76
72
46
73
75
0
VERTEX
8
0
6
CONTINUOUS
62
252
70
128
10
0.000000
20
0.000000
30
0.000000
71
75
72
46
73
47
0
VERTEX
8
0
6
CONTINUOUS
62
252
70
128
10
0.000000
20
0.000000
30
0.000000
71
75
72
47
73
74
0
VERTEX
8
0
6
CONTINUOUS
62
252
70
128
10
0.000000
20
0.000000
30
0.000000
71
74
72
47
73
48
0
VERTEX
8
0
6
CONTINUOUS
62
252
70
128
10
0.000000
20
0.000000
30
0.000000
71
74
72
48
73
73
0
VERTEX
8
0
6
CONTINUOUS
62
252
70
128
10
0.000000
20
0.000000
30
0.000000
71
73
72
48
73
49
0
VERTEX
8
0
6
CONTINUOUS
62
252
70
128
10
0.000000
20
0.000000
30
0.000000
71
73
72
49
73
72
0
VERTEX
8
0
6
CONTINUOUS
62
252
70
128
10
0.000000
20
0.000000
30
0.000000
71
72
72
49
73
50
0
VERTEX
8
0
6
CONTINUOUS
62
252
70
128
10
0.000000
20
0.000000
30
0.000000
71
72
72
50
73
71
0
VERTEX
8
0
6
CONTINUOUS
62
252
70
128
10
0.000000
20
0.000000
30
0.000000
71
71
72
50
73
51
0
VERTEX
8
0
6
CONTINUOUS
62
252
70
128
10
0.000000
20
0.000000
30
0.000000
71
71
72
51
73
52
0
VERTEX
8
0
6
CONTINUOUS
62
252
70
128
10
0.000000
20
0.000000
30
0.000000
71
53
72
69
73
52
0
VERTEX
8
0
6
CONTINUOUS
62
252
70
128
10
0.000000
20
0.000000
30
0.000000
71
52
72
69
73
70
0
VERTEX
8
0
6
CONTINUOUS
62
252
70
128
10
0.000000
20
0.000000
30
0.000000
71
52
72
70
73
71
0
VERTEX
8
0
6
CONTINUOUS
62
252
70
128
10
0.000000
20
0.000000
30
0.000000
71
69
72
53
73
68
0
VERTEX
8
0
6
CONTINUOUS
62
252
70
128
10
0.000000
20
0.000000
30
0.000000
71
68
72
53
73
54
0
VERTEX
8
0
6
CONTINUOUS
62
252
70
128
10
0.000000
20
0.000000
30
0.000000
71
68
72
54
73
67
0
VERTEX
8
0
6
CONTINUOUS
62
252
70
128
10
0.000000
20
0.000000
30
0.000000
71
67
72
54
73
55
0
VERTEX
8
0
6
CONTINUOUS
62
252
70
128
10
0.000000
20
0.000000
30
0.000000
71
67
72
55
73
66
0
VERTEX
8
0
6
CONTINUOUS
62
252
70
128
10
0.000000
20
0.000000
30
0.000000
71
66
72
55
73
56
0
VERTEX
8
0
6
CONTINUOUS
62
252
70
128
10
0.000000
20
0.000000
30
0.000000
71
66
72
56
73
57
0
VERTEX
8
0
6
CONTINUOUS
62
252
70
128
10
0.000000
20
0.000000
30
0.000000
71
66
72
57
73
65
0
VERTEX
8
0
6
CONTINUOUS
62
252
70
128
10
0.000000
20
0.000000
30
0.000000
71
65
72
57
73
58
0
SEQEND
0
POLYLINE
66
1
8
0
6
CONTINUOUS
62
252
70
64
75
0
10
0.000000
20
0.000000
30
0.000000
0
VERTEX
8
0
6
CONTINUOUS
62
252
70
192
10
1.910000
20
0.000000
30
-0.417785
0
VERTEX
8
0
6
CONTINUOUS
62
252
70
192
10
1.910000
20
0.043670
30
-0.415496
0
VERTEX
8
0
6
CONTINUOUS
62
252
70
192
10
1.910000
20
0.086862
30
-0.408655
0
VERTEX
8
0
6
CONTINUOUS
62
252
70
192
10
1.910000
20
0.129103
30
-0.397337
0
VERTEX
8
0
6
CONTINUOUS
62
252
70
192
10
1.910000
20
0.169928
30
-0.381666
0
VERTEX
8
0
6
CONTINUOUS
62
252
70
192
10
1.910000
20
0.208893
30
-0.361812
0
VERTEX
8
0
6
CONTINUOUS
62
252
70
192
10
1.910000
20
0.245568
30
-0.337995
0
VERTEX
8
0
6
CONTINUOUS
62
252
70
192
10
1.910000
20
0.279553
30
-0.310475
0
VERTEX
8
0
6
CONTINUOUS
62
252
70
192
10
1.910000
20
0.310475
30
-0.279553
0
VERTEX
8
0
6
CONTINUOUS
62
252
70
192
10
1.910000
20
0.337995
30
-0.245568
0
VERTEX
8
0
6
CONTINUOUS
62
252
70
192
10
1.910000
20
0.361812
30
-0.208892
0
VERTEX
8
0
6
CONTINUOUS
62
252
70
192
10
1.910000
20
0.381666
30
-0.169928
0
VERTEX
8
0
6
CONTINUOUS
62
252
70
192
10
1.910000
20
0.397337
30
-0.129103
0
VERTEX
8
0
6
CONTINUOUS
62
252
70
192
10
1.910000
20
0.408655
30
-0.086862
0
VERTEX
8
0
6
CONTINUOUS
62
252
70
192
10
1.910000
20
0.415496
30
-0.043670
0
VERTEX
8
0
6
CONTINUOUS
62
252
70
192
10
1.910000
20
0.417785
30
0.000000
0
VERTEX
8
0
6
CONTINUOUS
62
252
70
192
10
1.910000
20
0.415496
30
0.043670
0
VERTEX
8
0
6
CONTINUOUS
62
252
70
192
10
1.910000
20
0.408655
30
0.086862
0
VERTEX
8
0
6
CONTINUOUS
62
252
70
192
10
1.910000
20
0.397337
30
0.129103
0
VERTEX
8
0
6
CONTINUOUS
62
252
70
192
10
1.910000
20
0.381666
30
0.169928
0
VERTEX
8
0
6
CONTINUOUS
62
252
70
192
10
1.910000
20
0.361812
30
0.208893
0
VERTEX
8
0
6
CONTINUOUS
62
252
70
192
10
1.910000
20
0.337995
30
0.245568
0
VERTEX
8
0
6
CONTINUOUS
62
252
70
192
10
1.910000
20
0.310475
30
0.279553
0
VERTEX
8
0
6
CONTINUOUS
62
252
70
192
10
1.910000
20
0.279553
30
0.310475
0
VERTEX
8
0
6
CONTINUOUS
62
252
70
192
10
1.910000
20
0.245568
30
0.337995
0
VERTEX
8
0
6
CONTINUOUS
62
252
70
192
10
1.910000
20
0.208892
30
0.361812
0
VERTEX
8
0
6
CONTINUOUS
62
252
70
192
10
1.910000
20
0.169928
30
0.381666
0
VERTEX
8
0
6
CONTINUOUS
62
252
70
192
10
1.910000
20
0.129103
30
0.397337
0
VERTEX
8
0
6
CONTINUOUS
62
252
70
192
10
1.910000
20
0.086862
30
0.408655
0
VERTEX
8
0
6
CONTINUOUS
62
252
70
192
10
1.910000
20
0.043670
30
0.415496
0
VERTEX
8
0
6
CONTINUOUS
62
252
70
192
10
1.910000
20
-0.000000
30
0.417785
0
VERTEX
8
0
6
CONTINUOUS
62
252
70
192
10
1.910000
20
-0.043670
30
0.415496
0
VERTEX
8
0
6
CONTINUOUS
62
252
70
192
10
1.910000
20
-0.086862
30
0.408655
0
VERTEX
8
0
6
CONTINUOUS
62
252
70
192
10
1.910000
20
-0.129103
30
0.397337
0
VERTEX
8
0
6
CONTINUOUS
62
252
70
192
10
1.910000
20
-0.169928
30
0.381666
0
VERTEX
8
0
6
CONTINUOUS
62
252
70
192
10
1.910000
20
-0.208893
30
0.361812
0
VERTEX
8
0
6
CONTINUOUS
62
252
70
192
10
1.910000
20
-0.245568
30
0.337995
0
VERTEX
8
0
6
CONTINUOUS
62
252
70
192
10
1.910000
20
-0.279553
30
0.310475
0
VERTEX
8
0
6
CONTINUOUS
62
252
70
192
10
1.910000
20
-0.310475
30
0.279553
0
VERTEX
8
0
6
CONTINUOUS
62
252
70
192
10
1.910000
20
-0.337995
30
0.245568
0
VERTEX
8
0
6
CONTINUOUS
62
252
70
192
10
1.910000
20
-0.361812
30
0.208892
0
VERTEX
8
0
6
CONTINUOUS
62
252
70
192
10
1.910000
20
-0.381666
30
0.169928
0
VERTEX
8
0
6
CONTINUOUS
62
252
70
192
10
1.910000
20
-0.397337
30
0.129103
0
VERTEX
8
0
6
CONTINUOUS
62
252
70
192
10
1.910000
20
-0.408655
30
0.086862
0
VERTEX
8
0
6
CONTINUOUS
62
252
70
192
10
1.910000
20
-0.415496
30
0.043670
0
VERTEX
8
0
6
CONTINUOUS
62
252
70
192
10
1.910000
20
-0.417785
30
-0.000000
0
VERTEX
8
0
6
CONTINUOUS
62
252
70
192
10
1.910000
20
-0.415496
30
-0.043670
0
VERTEX
8
0
6
CONTINUOUS
62
252
70
192
10
1.910000
20
-0.408655
30
-0.086862
0
VERTEX
8
0
6
CONTINUOUS
62
252
70
192
10
1.910000
20
-0.397337
30
-0.129103
0
VERTEX
8
0
6
CONTINUOUS
62
252
70
192
10
1.910000
20
-0.381666
30
-0.169928
0
VERTEX
8
0
6
CONTINUOUS
62
252
70
192
10
1.910000
20
-0.361812
30
-0.208893
0
VERTEX
8
0
6
CONTINUOUS
62
252
70
192
10
1.910000
20
-0.337995
30
-0.245568
0
VERTEX
8
0
6
CONTINUOUS
62
252
70
192
10
1.910000
20
-0.310475
30
-0.279553
0
VERTEX
8
0
6
CONTINUOUS
62
252
70
192
10
1.910000
20
-0.279553
30
-0.310475
0
VERTEX
8
0
6
CONTINUOUS
62
252
70
192
10
1.910000
20
-0.245568
30
-0.337995
0
VERTEX
8
0
6
CONTINUOUS
62
252
70
192
10
1.910000
20
-0.208892
30
-0.361812
0
VERTEX
8
0
6
CONTINUOUS
62
252
70
192
10
1.910000
20
-0.169928
30
-0.381666
0
VERTEX
8
0
6
CONTINUOUS
62
252
70
192
10
1.910000
20
-0.129103
30
-0.397337
0
VERTEX
8
0
6
CONTINUOUS
62
252
70
192
10
1.910000
20
-0.086862
30
-0.408655
0
VERTEX
8
0
6
CONTINUOUS
62
252
70
192
10
1.910000
20
-0.043670
30
-0.415496
0
VERTEX
8
0
6
CONTINUOUS
62
252
70
192
10
1.852860
20
0.000000
30
-0.360645
0
VERTEX
8
0
6
CONTINUOUS
62
252
70
192
10
1.852860
20
-0.037698
30
-0.358669
0
VERTEX
8
0
6
CONTINUOUS
62
252
70
192
10
1.852860
20
-0.074982
30
-0.352764
0
VERTEX
8
0
6
CONTINUOUS
62
252
70
192
10
1.852860
20
-0.111445
30
-0.342994
0
VERTEX
8
0
6
CONTINUOUS
62
252
70
192
10
1.852860
20
-0.146688
30
-0.329466
0
VERTEX
8
0
6
CONTINUOUS
62
252
70
192
10
1.852860
20
-0.180323
30
-0.312328
0
VERTEX
8
0
6
CONTINUOUS
62
252
70
192
10
1.852860
20
-0.211982
30
-0.291768
0
VERTEX
8
0
6
CONTINUOUS
62
252
70
192
10
1.852860
20
-0.241319
30
-0.268011
0
VERTEX
8
0
6
CONTINUOUS
62
252
70
192
10
1.852860
20
-0.268011
30
-0.241319
0
VERTEX
8
0
6
CONTINUOUS
62
252
70
192
10
1.852860
20
-0.291768
30
-0.211982
0
VERTEX
8
0
6
CONTINUOUS
62
252
70
192
10
1.852860
20
-0.312328
30
-0.180322
0
VERTEX
8
0
6
CONTINUOUS
62
252
70
192
10
1.852860
20
-0.329466
30
-0.146688
0
VERTEX
8
0
6
CONTINUOUS
62
252
70
192
10
1.852860
20
-0.342994
30
-0.111445
0
VERTEX
8
0
6
CONTINUOUS
62
252
70
192
10
1.852860
20
-0.352764
30
-0.074982
0
VERTEX
8
0
6
CONTINUOUS
62
252
70
192
10
1.852860
20
-0.358669
30
-0.037698
0
VERTEX
8
0
6
CONTINUOUS
62
252
70
192
10
1.852860
20
-0.360645
30
0.000000
0
VERTEX
8
0
6
CONTINUOUS
62
252
70
192
10
1.852860
20
-0.358669
30
0.037698
0
VERTEX
8
0
6
CONTINUOUS
62
252
70
192
10
1.852860
20
-0.352764
30
0.074982
0
VERTEX
8
0
6
CONTINUOUS
62
252
70
192
10
1.852860
20
-0.342994
30
0.111445
0
VERTEX
8
0
6
CONTINUOUS
62
252
70
192
10
1.852860
20
-0.329466
30
0.146688
0
VERTEX
8
0
6
CONTINUOUS
62
252
70
192
10
1.852860
20
-0.312328
30
0.180323
0
VERTEX
8
0
6
CONTINUOUS
62
252
70
192
10
1.852860
20
-0.291768
30
0.211982
0
VERTEX
8
0
6
CONTINUOUS
62
252
70
192
10
1.852860
20
-0.268011
30
0.241319
0
VERTEX
8
0
6
CONTINUOUS
62
252
70
192
10
1.852860
20
-0.241319
30
0.268011
0
VERTEX
8
0
6
CONTINUOUS
62
252
70
192
10
1.852860
20
-0.211982
30
0.291768
0
VERTEX
8
0
6
CONTINUOUS
62
252
70
192
10
1.852860
20
-0.180322
30
0.312328
0
VERTEX
8
0
6
CONTINUOUS
62
252
70
192
10
1.852860
20
-0.146688
30
0.329466
0
VERTEX
8
0
6
CONTINUOUS
62
252
70
192
10
1.852860
20
-0.111445
30
0.342994
0
VERTEX
8
0
6
CONTINUOUS
62
252
70
192
10
1.852860
20
-0.074982
30
0.352764
0
VERTEX
8
0
6
CONTINUOUS
62
252
70
192
10
1.852860
20
-0.037698
30
0.358669
0
VERTEX
8
0
6
CONTINUOUS
62
252
70
192
10
1.852860
20
0.000000
30
0.360645
0
VERTEX
8
0
6
CONTINUOUS
62
252
70
192
10
1.852860
20
0.037698
30
0.358669
0
VERTEX
8
0
6
CONTINUOUS
62
252
70
192
10
1.852860
20
0.074982
30
0.352764
0
VERTEX
8
0
6
CONTINUOUS
62
252
70
192
10
1.852860
20
0.111445
30
0.342994
0
VERTEX
8
0
6
CONTINUOUS
62
252
70
192
10
1.852860
20
0.146688
30
0.329466
0
VERTEX
8
0
6
CONTINUOUS
62
252
70
192
10
1.852860
20
0.180323
30
0.312328
0
VERTEX
8
0
6
CONTINUOUS
62
252
70
192
10
1.852860
20
0.211982
30
0.291768
0
VERTEX
8
0
6
CONTINUOUS
62
252
70
192
10
1.852860
20
0.241319
30
0.268011
0
VERTEX
8
0
6
CONTINUOUS
62
252
70
192
10
1.852860
20
0.268011
30
0.241319
0
VERTEX
8
0
6
CONTINUOUS
62
252
70
192
10
1.852860
20
0.291768
30
0.211982
0
VERTEX
8
0
6
CONTINUOUS
62
252
70
192
10
1.852860
20
0.312328
30
0.180322
0
VERTEX
8
0
6
CONTINUOUS
62
252
70
192
10
1.852860
20
0.329466
30
0.146688
0
VERTEX
8
0
6
CONTINUOUS
62
252
70
192
10
1.852860
20
0.342994
30
0.111445
0
VERTEX
8
0
6
CONTINUOUS
62
252
70
192
10
1.852860
20
0.352764
30
0.074982
0
VERTEX
8
0
6
CONTINUOUS
62
252
70
192
10
1.852860
20
0.358669
30
0.037698
0
VERTEX
8
0
6
CONTINUOUS
62
252
70
192
10
1.852860
20
0.360645
30
-0.000000
0
VERTEX
8
0
6
CONTINUOUS
62
252
70
192
10
1.852860
20
0.358669
30
-0.037698
0
VERTEX
8
0
6
CONTINUOUS
62
252
70
192
10
1.852860
20
0.352764
30
-0.074982
0
VERTEX
8
0
6
CONTINUOUS
62
252
70
192
10
1.852860
20
0.342994
30
-0.111445
0
VERTEX
8
0
6
CONTINUOUS
62
252
70
192
10
1.852860
20
0.329466
30
-0.146688
0
VERTEX
8
0
6
CONTINUOUS
62
252
70
192
10
1.852860
20
0.312328
30
-0.180323
0
VERTEX
8
0
6
CONTINUOUS
62
252
70
192
10
1.852860
20
0.291768
30
-0.211982
0
VERTEX
8
0
6
CONTINUOUS
62
252
70
192
10
1.852860
20
0.268011
30
-0.241319
0
VERTEX
8
0
6
CONTINUOUS
62
252
70
192
10
1.852860
20
0.241319
30
-0.268011
0
VERTEX
8
0
6
CONTINUOUS
62
252
70
192
10
1.852860
20
0.211982
30
-0.291768
0
VERTEX
8
0
6
CONTINUOUS
62
252
70
192
10
1.852860
20
0.180322
30
-0.312328
0
VERTEX
8
0
6
CONTINUOUS
62
252
70
192
10
1.852860
20
0.146688
30
-0.329466
0
VERTEX
8
0
6
CONTINUOUS
62
252
70
192
10
1.852860
20
0.111445
30
-0.342994
0
VERTEX
8
0
6
CONTINUOUS
62
252
70
192
10
1.852860
20
0.074982
30
-0.352764
0
VERTEX
8
0
6
CONTINUOUS
62
252
70
192
10
1.852860
20
0.037698
30
-0.358669
0
VERTEX
8
0
6
CONTINUOUS
62
252
70
128
10
0.000000
20
0.000000
30
0.000000
71
2
72
120
73
1
0
VERTEX
8
0
6
CONTINUOUS
62
252
70
128
10
0.000000
20
0.000000
30
0.000000
71
1
72
120
73
61
0
VERTEX
8
0
6
CONTINUOUS
62
252
70
128
10
0.000000
20
0.000000
30
0.000000
71
1
72
61
73
60
0
VERTEX
8
0
6
CONTINUOUS
62
252
70
128
10
0.000000
20
0.000000
30
0.000000
71
60
72
61
73
62
0
VERTEX
8
0
6
CONTINUOUS
62
252
70
128
10
0.000000
20
0.000000
30
0.000000
71
60
72
62
73
59
0
VERTEX
8
0
6
CONTINUOUS
62
252
70
128
10
0.000000
20
0.000000
30
0.000000
71
59
72
62
73
63
0
VERTEX
8
0
6
CONTINUOUS
62
252
70
128
10
0.000000
20
0.000000
30
0.000000
71
59
72
63
73
58
0
VERTEX
8
0
6
CONTINUOUS
62
252
70
128
10
0.000000
20
0.000000
30
0.000000
71
58
72
63
73
64
0
VERTEX
8
0
6
CONTINUOUS
62
252
70
128
10
0.000000
20
0.000000
30
0.000000
71
58
72
64
73
57
0
VERTEX
8
0
6
CONTINUOUS
62
252
70
128
10
0.000000
20
0.000000
30
0.000000
71
57
72
64
73
65
0
VERTEX
8
0
6
CONTINUOUS
62
252
70
128
10
0.000000
20
0.000000
30
0.000000
71
57
72
65
73
56
0
VERTEX
8
0
6
CONTINUOUS
62
252
70
128
10
0.000000
20
0.000000
30
0.000000
71
56
72
65
73
66
0
VERTEX
8
0
6
CONTINUOUS
62
252
70
128
10
0.000000
20
0.000000
30
0.000000
71
56
72
66
73
55
0
VERTEX
8
0
6
CONTINUOUS
62
252
70
128
10
0.000000
20
0.000000
30
0.000000
71
55
72
66
73
67
0
VERTEX
8
0
6
CONTINUOUS
62
252
70
128
10
0.000000
20
0.000000
30
0.000000
71
55
72
67
73
54
0
VERTEX
8
0
6
CONTINUOUS
62
252
70
128
10
0.000000
20
0.000000
30
0.000000
71
54
72
67
73
68
0
VERTEX
8
0
6
CONTINUOUS
62
252
70
128
10
0.000000
20
0.000000
30
0.000000
71
54
72
68
73
53
0
VERTEX
8
0
6
CONTINUOUS
62
252
70
128
10
0.000000
20
0.000000
30
0.000000
71
53
72
68
73
69
0
VERTEX
8
0
6
CONTINUOUS
62
252
70
128
10
0.000000
20
0.000000
30
0.000000
71
53
72
69
73
52
0
VERTEX
8
0
6
CONTINUOUS
62
252
70
128
10
0.000000
20
0.000000
30
0.000000
71
52
72
69
73
70
0
VERTEX
8
0
6
CONTINUOUS
62
252
70
128
10
0.000000
20
0.000000
30
0.000000
71
52
72
70
73
51
0
VERTEX
8
0
6
CONTINUOUS
62
252
70
128
10
0.000000
20
0.000000
30
0.000000
71
51
72
70
73
71
0
VERTEX
8
0
6
CONTINUOUS
62
252
70
128
10
0.000000
20
0.000000
30
0.000000
71
51
72
71
73
50
0
VERTEX
8
0
6
CONTINUOUS
62
252
70
128
10
0.000000
20
0.000000
30
0.000000
71
50
72
71
73
72
0
VERTEX
8
0
6
CONTINUOUS
62
252
70
128
10
0.000000
20
0.000000
30
0.000000
71
50
72
72
73
49
0
VERTEX
8
0
6
CONTINUOUS
62
252
70
128
10
0.000000
20
0.000000
30
0.000000
71
49
72
72
73
73
0
VERTEX
8
0
6
CONTINUOUS
62
252
70
128
10
0.000000
20
0.000000
30
0.000000
71
49
72
73
73
48
0
VERTEX
8
0
6
CONTINUOUS
62
252
70
128
10
0.000000
20
0.000000
30
0.000000
71
48
72
73
73
74
0
VERTEX
8
0
6
CONTINUOUS
62
252
70
128
10
0.000000
20
0.000000
30
0.000000
71
48
72
74
73
47
0
VERTEX
8
0
6
CONTINUOUS
62
252
70
128
10
0.000000
20
0.000000
30
0.000000
71
47
72
74
73
75
0
VERTEX
8
0
6
CONTINUOUS
62
252
70
128
10
0.000000
20
0.000000
30
0.000000
71
47
72
75
73
46
0
VERTEX
8
0
6
CONTINUOUS
62
252
70
128
10
0.000000
20
0.000000
30
0.000000
71
46
72
75
73
76
0
VERTEX
8
0
6
CONTINUOUS
62
252
70
128
10
0.000000
20
0.000000
30
0.000000
71
46
72
76
73
45
0
VERTEX
8
0
6
CONTINUOUS
62
252
70
128
10
0.000000
20
0.000000
30
0.000000
71
45
72
76
73
77
0
VERTEX
8
0
6
CONTINUOUS
62
252
70
128
10
0.000000
20
0.000000
30
0.000000
71
45
72
77
73
44
0
VERTEX
8
0
6
CONTINUOUS
62
252
70
128
10
0.000000
20
0.000000
30
0.000000
71
44
72
77
73
78
0
VERTEX
8
0
6
CONTINUOUS
62
252
70
128
10
0.000000
20
0.000000
30
0.000000
71
44
72
78
73
43
0
VERTEX
8
0
6
CONTINUOUS
62
252
70
128
10
0.000000
20
0.000000
30
0.000000
71
43
72
78
73
79
0
VERTEX
8
0
6
CONTINUOUS
62
252
70
128
10
0.000000
20
0.000000
30
0.000000
71
43
72
79
73
42
0
VERTEX
8
0
6
CONTINUOUS
62
252
70
128
10
0.000000
20
0.000000
30
0.000000
71
42
72
79
73
80
0
VERTEX
8
0
6
CONTINUOUS
62
252
70
128
10
0.000000
20
0.000000
30
0.000000
71
42
72
80
73
41
0
VERTEX
8
0
6
CONTINUOUS
62
252
70
128
10
0.000000
20
0.000000
30
0.000000
71
41
72
80
73
81
0
VERTEX
8
0
6
CONTINUOUS
62
252
70
128
10
0.000000
20
0.000000
30
0.000000
71
41
72
81
73
40
0
VERTEX
8
0
6
CONTINUOUS
62
252
70
128
10
0.000000
20
0.000000
30
0.000000
71
40
72
81
73
82
0
VERTEX
8
0
6
CONTINUOUS
62
252
70
128
10
0.000000
20
0.000000
30
0.000000
71
40
72
82
73
39
0
VERTEX
8
0
6
CONTINUOUS
62
252
70
128
10
0.000000
20
0.000000
30
0.000000
71
39
72
82
73
83
0
VERTEX
8
0
6
CONTINUOUS
62
252
70
128
10
0.000000
20
0.000000
30
0.000000
71
39
72
83
73
38
0
VERTEX
8
0
6
CONTINUOUS
62
252
70
128
10
0.000000
20
0.000000
30
0.000000
71
38
72
83
73
84
0
VERTEX
8
0
6
CONTINUOUS
62
252
70
128
10
0.000000
20
0.000000
30
0.000000
71
38
72
84
73
37
0
VERTEX
8
0
6
CONTINUOUS
62
252
70
128
10
0.000000
20
0.000000
30
0.000000
71
37
72
84
73
85
0
VERTEX
8
0
6
CONTINUOUS
62
252
70
128
10
0.000000
20
0.000000
30
0.000000
71
37
72
85
73
36
0
VERTEX
8
0
6
CONTINUOUS
62
252
70
128
10
0.000000
20
0.000000
30
0.000000
71
36
72
85
73
86
0
VERTEX
8
0
6
CONTINUOUS
62
252
70
128
10
0.000000
20
0.000000
30
0.000000
71
36
72
86
73
35
0
VERTEX
8
0
6
CONTINUOUS
62
252
70
128
10
0.000000
20
0.000000
30
0.000000
71
35
72
86
73
87
0
VERTEX
8
0
6
CONTINUOUS
62
252
70
128
10
0.000000
20
0.000000
30
0.000000
71
35
72
87
73
34
0
VERTEX
8
0
6
CONTINUOUS
62
252
70
128
10
0.000000
20
0.000000
30
0.000000
71
34
72
87
73
88
0
VERTEX
8
0
6
CONTINUOUS
62
252
70
128
10
0.000000
20
0.000000
30
0.000000
71
34
72
88
73
33
0
VERTEX
8
0
6
CONTINUOUS
62
252
70
128
10
0.000000
20
0.000000
30
0.000000
71
33
72
88
73
89
0
VERTEX
8
0
6
CONTINUOUS
62
252
70
128
10
0.000000
20
0.000000
30
0.000000
71
33
72
89
73
32
0
VERTEX
8
0
6
CONTINUOUS
62
252
70
128
10
0.000000
20
0.000000
30
0.000000
71
32
72
89
73
90
0
VERTEX
8
0
6
CONTINUOUS
62
252
70
128
10
0.000000
20
0.000000
30
0.000000
71
32
72
90
73
31
0
VERTEX
8
0
6
CONTINUOUS
62
252
70
128
10
0.000000
20
0.000000
30
0.000000
71
31
72
90
73
91
0
VERTEX
8
0
6
CONTINUOUS
62
252
70
128
10
0.000000
20
0.000000
30
0.000000
71
31
72
91
73
30
0
VERTEX
8
0
6
CONTINUOUS
62
252
70
128
10
0.000000
20
0.000000
30
0.000000
71
30
72
91
73
92
0
VERTEX
8
0
6
CONTINUOUS
62
252
70
128
10
0.000000
20
0.000000
30
0.000000
71
30
72
92
73
29
0
VERTEX
8
0
6
CONTINUOUS
62
252
70
128
10
0.000000
20
0.000000
30
0.000000
71
29
72
92
73
93
0
VERTEX
8
0
6
CONTINUOUS
62
252
70
128
10
0.000000
20
0.000000
30
0.000000
71
29
72
93
73
28
0
VERTEX
8
0
6
CONTINUOUS
62
252
70
128
10
0.000000
20
0.000000
30
0.000000
71
28
72
93
73
94
0
VERTEX
8
0
6
CONTINUOUS
62
252
70
128
10
0.000000
20
0.000000
30
0.000000
71
28
72
94
73
27
0
VERTEX
8
0
6
CONTINUOUS
62
252
70
128
10
0.000000
20
0.000000
30
0.000000
71
27
72
94
73
95
0
VERTEX
8
0
6
CONTINUOUS
62
252
70
128
10
0.000000
20
0.000000
30
0.000000
71
27
72
95
73
26
0
VERTEX
8
0
6
CONTINUOUS
62
252
70
128
10
0.000000
20
0.000000
30
0.000000
71
26
72
95
73
96
0
VERTEX
8
0
6
CONTINUOUS
62
252
70
128
10
0.000000
20
0.000000
30
0.000000
71
26
72
96
73
25
0
VERTEX
8
0
6
CONTINUOUS
62
252
70
128
10
0.000000
20
0.000000
30
0.000000
71
25
72
96
73
97
0
VERTEX
8
0
6
CONTINUOUS
62
252
70
128
10
0.000000
20
0.000000
30
0.000000
71
25
72
97
73
24
0
VERTEX
8
0
6
CONTINUOUS
62
252
70
128
10
0.000000
20
0.000000
30
0.000000
71
24
72
97
73
98
0
VERTEX
8
0
6
CONTINUOUS
62
252
70
128
10
0.000000
20
0.000000
30
0.000000
71
24
72
98
73
23
0
VERTEX
8
0
6
CONTINUOUS
62
252
70
128
10
0.000000
20
0.000000
30
0.000000
71
23
72
98
73
99
0
VERTEX
8
0
6
CONTINUOUS
62
252
70
128
10
0.000000
20
0.000000
30
0.000000
71
23
72
99
73
22
0
VERTEX
8
0
6
CONTINUOUS
62
252
70
128
10
0.000000
20
0.000000
30
0.000000
71
22
72
99
73
100
0
VERTEX
8
0
6
CONTINUOUS
62
252
70
128
10
0.000000
20
0.000000
30
0.000000
71
22
72
100
73
21
0
VERTEX
8
0
6
CONTINUOUS
62
252
70
128
10
0.000000
20
0.000000
30
0.000000
71
21
72
100
73
101
0
VERTEX
8
0
6
CONTINUOUS
62
252
70
128
10
0.000000
20
0.000000
30
0.000000
71
21
72
101
73
20
0
VERTEX
8
0
6
CONTINUOUS
62
252
70
128
10
0.000000
20
0.000000
30
0.000000
71
20
72
101
73
102
0
VERTEX
8
0
6
CONTINUOUS
62
252
70
128
10
0.000000
20
0.000000
30
0.000000
71
20
72
102
73
19
0
VERTEX
8
0
6
CONTINUOUS
62
252
70
128
10
0.000000
20
0.000000
30
0.000000
71
19
72
102
73
103
0
VERTEX
8
0
6
CONTINUOUS
62
252
70
128
10
0.000000
20
0.000000
30
0.000000
71
19
72
103
73
18
0
VERTEX
8
0
6
CONTINUOUS
62
252
70
128
10
0.000000
20
0.000000
30
0.000000
71
18
72
103
73
104
0
VERTEX
8
0
6
CONTINUOUS
62
252
70
128
10
0.000000
20
0.000000
30
0.000000
71
18
72
104
73
17
0
VERTEX
8
0
6
CONTINUOUS
62
252
70
128
10
0.000000
20
0.000000
30
0.000000
71
17
72
104
73
105
0
VERTEX
8
0
6
CONTINUOUS
62
252
70
128
10
0.000000
20
0.000000
30
0.000000
71
17
72
105
73
16
0
VERTEX
8
0
6
CONTINUOUS
62
252
70
128
10
0.000000
20
0.000000
30
0.000000
71
16
72
105
73
106
0
VERTEX
8
0
6
CONTINUOUS
62
252
70
128
10
0.000000
20
0.000000
30
0.000000
71
16
72
106
73
15
0
VERTEX
8
0
6
CONTINUOUS
62
252
70
128
10
0.000000
20
0.000000
30
0.000000
71
15
72
106
73
107
0
VERTEX
8
0
6
CONTINUOUS
62
252
70
128
10
0.000000
20
0.000000
30
0.000000
71
15
72
107
73
14
0
VERTEX
8
0
6
CONTINUOUS
62
252
70
128
10
0.000000
20
0.000000
30
0.000000
71
14
72
107
73
108
0
VERTEX
8
0
6
CONTINUOUS
62
252
70
128
10
0.000000
20
0.000000
30
0.000000
71
14
72
108
73
13
0
VERTEX
8
0
6
CONTINUOUS
62
252
70
128
10
0.000000
20
0.000000
30
0.000000
71
13
72
108
73
109
0
VERTEX
8
0
6
CONTINUOUS
62
252
70
128
10
0.000000
20
0.000000
30
0.000000
71
13
72
109
73
12
0
VERTEX
8
0
6
CONTINUOUS
62
252
70
128
10
0.000000
20
0.000000
30
0.000000
71
12
72
109
73
110
0
VERTEX
8
0
6
CONTINUOUS
62
252
70
128
10
0.000000
20
0.000000
30
0.000000
71
12
72
110
73
11
0
VERTEX
8
0
6
CONTINUOUS
62
252
70
128
10
0.000000
20
0.000000
30
0.000000
71
11
72
110
73
111
0
VERTEX
8
0
6
CONTINUOUS
62
252
70
128
10
0.000000
20
0.000000
30
0.000000
71
11
72
111
73
10
0
VERTEX
8
0
6
CONTINUOUS
62
252
70
128
10
0.000000
20
0.000000
30
0.000000
71
10
72
111
73
112
0
VERTEX
8
0
6
CONTINUOUS
62
252
70
128
10
0.000000
20
0.000000
30
0.000000
71
10
72
112
73
9
0
VERTEX
8
0
6
CONTINUOUS
62
252
70
128
10
0.000000
20
0.000000
30
0.000000
71
9
72
112
73
113
0
VERTEX
8
0
6
CONTINUOUS
62
252
70
128
10
0.000000
20
0.000000
30
0.000000
71
9
72
113
73
8
0
VERTEX
8
0
6
CONTINUOUS
62
252
70
128
10
0.000000
20
0.000000
30
0.000000
71
8
72
113
73
114
0
VERTEX
8
0
6
CONTINUOUS
62
252
70
128
10
0.000000
20
0.000000
30
0.000000
71
8
72
114
73
7
0
VERTEX
8
0
6
CONTINUOUS
62
252
70
128
10
0.000000
20
0.000000
30
0.000000
71
7
72
114
73
115
0
VERTEX
8
0
6
CONTINUOUS
62
252
70
128
10
0.000000
20
0.000000
30
0.000000
71
7
72
115
73
6
0
VERTEX
8
0
6
CONTINUOUS
62
252
70
128
10
0.000000
20
0.000000
30
0.000000
71
6
72
115
73
116
0
VERTEX
8
0
6
CONTINUOUS
62
252
70
128
10
0.000000
20
0.000000
30
0.000000
71
6
72
116
73
5
0
VERTEX
8
0
6
CONTINUOUS
62
252
70
128
10
0.000000
20
0.000000
30
0.000000
71
5
72
116
73
117
0
VERTEX
8
0
6
CONTINUOUS
62
252
70
128
10
0.000000
20
0.000000
30
0.000000
71
5
72
117
73
4
0
VERTEX
8
0
6
CONTINUOUS
62
252
70
128
10
0.000000
20
0.000000
30
0.000000
71
4
72
117
73
118
0
VERTEX
8
0
6
CONTINUOUS
62
252
70
128
10
0.000000
20
0.000000
30
0.000000
71
4
72
118
73
3
0
VERTEX
8
0
6
CONTINUOUS
62
252
70
128
10
0.000000
20
0.000000
30
0.000000
71
3
72
118
73
119
0
VERTEX
8
0
6
CONTINUOUS
62
252
70
128
10
0.000000
20
0.000000
30
0.000000
71
3
72
119
73
2
0
VERTEX
8
0
6
CONTINUOUS
62
252
70
128
10
0.000000
20
0.000000
30
0.000000
71
2
72
119
73
120
0
SEQEND
0
POLYLINE
66
1
8
0
6
CONTINUOUS
62
252
70
64
75
0
10
0.000000
20
0.000000
30
0.000000
0
VERTEX
8
0
6
CONTINUOUS
62
252
70
192
10
1.375700
20
0.000000
30
-0.348400
0
VERTEX
8
0
6
CONTINUOUS
62
252
70
192
10
1.375700
20
0.036418
30
-0.346492
0
VERTEX
8
0
6
CONTINUOUS
62
252
70
192
10
1.375700
20
0.072436
30
-0.340787
0
VERTEX
8
0
6
CONTINUOUS
62
252
70
192
10
1.375700
20
0.107662
30
-0.331348
0
VERTEX
8
0
6
CONTINUOUS
62
252
70
192
10
1.375700
20
0.141707
30
-0.318279
0
VERTEX
8
0
6
CONTINUOUS
62
252
70
192
10
1.375700
20
0.174200
30
-0.301723
0
VERTEX
8
0
6
CONTINUOUS
62
252
70
192
10
1.375700
20
0.204784
30
-0.281862
0
VERTEX
8
0
6
CONTINUOUS
62
252
70
192
10
1.375700
20
0.233125
30
-0.258912
0
VERTEX
8
0
6
CONTINUOUS
62
252
70
192
10
1.375700
20
0.258912
30
-0.233125
0
VERTEX
8
0
6
CONTINUOUS
62
252
70
192
10
1.375700
20
0.281862
30
-0.204784
0
VERTEX
8
0
6
CONTINUOUS
62
252
70
192
10
1.375700
20
0.301723
30
-0.174200
0
VERTEX
8
0
6
CONTINUOUS
62
252
70
192
10
1.375700
20
0.318279
30
-0.141707
0
VERTEX
8
0
6
CONTINUOUS
62
252
70
192
10
1.375700
20
0.331348
30
-0.107662
0
VERTEX
8
0
6
CONTINUOUS
62
252
70
192
10
1.375700
20
0.340787
30
-0.072436
0
VERTEX
8
0
6
CONTINUOUS
62
252
70
192
10
1.375700
20
0.346492
30
-0.036418
0
VERTEX
8
0
6
CONTINUOUS
62
252
70
192
10
1.375700
20
0.348400
30
-0.000000
0
VERTEX
8
0
6
CONTINUOUS
62
252
70
192
10
1.375700
20
0.346492
30
0.036418
0
VERTEX
8
0
6
CONTINUOUS
62
252
70
192
10
1.375700
20
0.340787
30
0.072436
0
VERTEX
8
0
6
CONTINUOUS
62
252
70
192
10
1.375700
20
0.331348
30
0.107662
0
VERTEX
8
0
6
CONTINUOUS
62
252
70
192
10
1.375700
20
0.318279
30
0.141707
0
VERTEX
8
0
6
CONTINUOUS
62
252
70
192
10
1.375700
20
0.301723
30
0.174200
0
VERTEX
8
0
6
CONTINUOUS
62
252
70
192
10
1.375700
20
0.281862
30
0.204784
0
VERTEX
8
0
6
CONTINUOUS
62
252
70
192
10
1.375700
20
0.258912
30
0.233125
0
VERTEX
8
0
6
CONTINUOUS
62
252
70
192
10
1.375700
20
0.233125
30
0.258912
0
VERTEX
8
0
6
CONTINUOUS
62
252
70
192
10
1.375700
20
0.204784
30
0.281862
0
VERTEX
8
0
6
CONTINUOUS
62
252
70
192
10
1.375700
20
0.174200
30
0.301723
0
VERTEX
8
0
6
CONTINUOUS
62
252
70
192
10
1.375700
20
0.141707
30
0.318279
0
VERTEX
8
0
6
CONTINUOUS
62
252
70
192
10
1.375700
20
0.107662
30
0.331348
0
VERTEX
8
0
6
CONTINUOUS
62
252
70
192
10
1.375700
20
0.072436
30
0.340787
0
VERTEX
8
0
6
CONTINUOUS
62
252
70
192
10
1.375700
20
0.036418
30
0.346492
0
VERTEX
8
0
6
CONTINUOUS
62
252
70
192
10
1.375700
20
0.000000
30
0.348400
0
VERTEX
8
0
6
CONTINUOUS
62
252
70
192
10
1.375700
20
-0.036418
30
0.346492
0
VERTEX
8
0
6
CONTINUOUS
62
252
70
192
10
1.375700
20
-0.072436
30
0.340787
0
VERTEX
8
0
6
CONTINUOUS
62
252
70
192
10
1.375700
20
-0.107662
30
0.331348
0
VERTEX
8
0
6
CONTINUOUS
62
252
70
192
10
1.375700
20
-0.141707
30
0.318279
0
VERTEX
8
0
6
CONTINUOUS
62
252
70
192
10
1.375700
20
-0.174200
30
0.301723
0
VERTEX
8
0
6
CONTINUOUS
62
252
70
192
10
1.375700
20
-0.204784
30
0.281862
0
VERTEX
8
0
6
CONTINUOUS
62
252
70
192
10
1.375700
20
-0.233125
30
0.258912
0
VERTEX
8
0
6
CONTINUOUS
62
252
70
192
10
1.375700
20
-0.258912
30
0.233125
0
VERTEX
8
0
6
CONTINUOUS
62
252
70
192
10
1.375700
20
-0.281862
30
0.204784
0
VERTEX
8
0
6
CONTINUOUS
62
252
70
192
10
1.375700
20
-0.301723
30
0.174200
0
VERTEX
8
0
6
CONTINUOUS
62
252
70
192
10
1.375700
20
-0.318279
30
0.141707
0
VERTEX
8
0
6
CONTINUOUS
62
252
70
192
10
1.375700
20
-0.331348
30
0.107662
0
VERTEX
8
0
6
CONTINUOUS
62
252
70
192
10
1.375700
20
-0.340787
30
0.072436
0
VERTEX
8
0
6
CONTINUOUS
62
252
70
192
10
1.375700
20
-0.346492
30
0.036418
0
VERTEX
8
0
6
CONTINUOUS
62
252
70
192
10
1.375700
20
-0.348400
30
0.000000
0
VERTEX
8
0
6
CONTINUOUS
62
252
70
192
10
1.375700
20
-0.346492
30
-0.036418
0
VERTEX
8
0
6
CONTINUOUS
62
252
70
192
10
1.375700
20
-0.340787
30
-0.072436
0
VERTEX
8
0
6
CONTINUOUS
62
252
70
192
10
1.375700
20
-0.331348
30
-0.107662
0
VERTEX
8
0
6
CONTINUOUS
62
252
70
192
10
1.375700
20
-0.318279
30
-0.141707
0
VERTEX
8
0
6
CONTINUOUS
62
252
70
192
10
1.375700
20
-0.301723
30
-0.174200
0
VERTEX
8
0
6
CONTINUOUS
62
252
70
192
10
1.375700
20
-0.281862
30
-0.204784
0
VERTEX
8
0
6
CONTINUOUS
62
252
70
192
10
1.375700
20
-0.258912
30
-0.233125
0
VERTEX
8
0
6
CONTINUOUS
62
252
70
192
10
1.375700
20
-0.233125
30
-0.258912
0
VERTEX
8
0
6
CONTINUOUS
62
252
70
192
10
1.375700
20
-0.204784
30
-0.281862
0
VERTEX
8
0
6
CONTINUOUS
62
252
70
192
10
1.375700
20
-0.174200
30
-0.301723
0
VERTEX
8
0
6
CONTINUOUS
62
252
70
192
10
1.375700
20
-0.141707
30
-0.318279
0
VERTEX
8
0
6
CONTINUOUS
62
252
70
192
10
1.375700
20
-0.107662
30
-0.331348
0
VERTEX
8
0
6
CONTINUOUS
62
252
70
192
10
1.375700
20
-0.072436
30
-0.340787
0
VERTEX
8
0
6
CONTINUOUS
62
252
70
192
10
1.375700
20
-0.036418
30
-0.346492
0
VERTEX
8
0
6
CONTINUOUS
62
252
70
192
10
1.375700
20
0.000000
30
0.344010
0
VERTEX
8
0
6
CONTINUOUS
62
252
70
192
10
1.375700
20
0.035959
30
0.342125
0
VERTEX
8
0
6
CONTINUOUS
62
252
70
192
10
1.375700
20
0.071524
30
0.336492
0
VERTEX
8
0
6
CONTINUOUS
62
252
70
192
10
1.375700
20
0.106305
30
0.327172
0
VERTEX
8
0
6
CONTINUOUS
62
252
70
192
10
1.375700
20
0.139921
30
0.314268
0
VERTEX
8
0
6
CONTINUOUS
62
252
70
192
10
1.375700
20
0.172005
30
0.297921
0
VERTEX
8
0
6
CONTINUOUS
62
252
70
192
10
1.375700
20
0.202204
30
0.278310
0
VERTEX
8
0
6
CONTINUOUS
62
252
70
192
10
1.375700
20
0.230187
30
0.255649
0
VERTEX
8
0
6
CONTINUOUS
62
252
70
192
10
1.375700
20
0.255649
30
0.230187
0
VERTEX
8
0
6
CONTINUOUS
62
252
70
192
10
1.375700
20
0.278310
30
0.202204
0
VERTEX
8
0
6
CONTINUOUS
62
252
70
192
10
1.375700
20
0.297921
30
0.172005
0
VERTEX
8
0
6
CONTINUOUS
62
252
70
192
10
1.375700
20
0.314268
30
0.139921
0
VERTEX
8
0
6
CONTINUOUS
62
252
70
192
10
1.375700
20
0.327172
30
0.106305
0
VERTEX
8
0
6
CONTINUOUS
62
252
70
192
10
1.375700
20
0.336492
30
0.071524
0
VERTEX
8
0
6
CONTINUOUS
62
252
70
192
10
1.375700
20
0.342125
30
0.035959
0
VERTEX
8
0
6
CONTINUOUS
62
252
70
192
10
1.375700
20
0.344010
30
-0.000000
0
VERTEX
8
0
6
CONTINUOUS
62
252
70
192
10
1.375700
20
0.342125
30
-0.035959
0
VERTEX
8
0
6
CONTINUOUS
62
252
70
192
10
1.375700
20
0.336492
30
-0.071524
0
VERTEX
8
0
6
CONTINUOUS
62
252
70
192
10
1.375700
20
0.327172
30
-0.106305
0
VERTEX
8
0
6
CONTINUOUS
62
252
70
192
10
1.375700
20
0.314268
30
-0.139921
0
VERTEX
8
0
6
CONTINUOUS
62
252
70
192
10
1.375700
20
0.297921
30
-0.172005
0
VERTEX
8
0
6
CONTINUOUS
62
252
70
192
10
1.375700
20
0.278310
30
-0.202204
0
VERTEX
8
0
6
CONTINUOUS
62
252
70
192
10
1.375700
20
0.255649
30
-0.230187
0
VERTEX
8
0
6
CONTINUOUS
62
252
70
192
10
1.375700
20
0.230187
30
-0.255649
0
VERTEX
8
0
6
CONTINUOUS
62
252
70
192
10
1.375700
20
0.202204
30
-0.278310
0
VERTEX
8
0
6
CONTINUOUS
62
252
70
192
10
1.375700
20
0.172005
30
-0.297921
0
VERTEX
8
0
6
CONTINUOUS
62
252
70
192
10
1.375700
20
0.139921
30
-0.314268
0
VERTEX
8
0
6
CONTINUOUS
62
252
70
192
10
1.375700
20
0.106305
30
-0.327172
0
VERTEX
8
0
6
CONTINUOUS
62
252
70
192
10
1.375700
20
0.071524
30
-0.336492
0
VERTEX
8
0
6
CONTINUOUS
62
252
70
192
10
1.375700
20
0.035959
30
-0.342125
0
VERTEX
8
0
6
CONTINUOUS
62
252
70
192
10
1.375700
20
-0.000000
30
-0.344010
0
VERTEX
8
0
6
CONTINUOUS
62
252
70
192
10
1.375700
20
-0.035959
30
-0.342125
0
VERTEX
8
0
6
CONTINUOUS
62
252
70
192
10
1.375700
20
-0.071524
30
-0.336492
0
VERTEX
8
0
6
CONTINUOUS
62
252
70
192
10
1.375700
20
-0.106305
30
-0.327172
0
VERTEX
8
0
6
CONTINUOUS
62
252
70
192
10
1.375700
20
-0.139921
30
-0.314268
0
VERTEX
8
0
6
CONTINUOUS
62
252
70
192
10
1.375700
20
-0.172005
30
-0.297921
0
VERTEX
8
0
6
CONTINUOUS
62
252
70
192
10
1.375700
20
-0.202204
30
-0.278310
0
VERTEX
8
0
6
CONTINUOUS
62
252
70
192
10
1.375700
20
-0.230187
30
-0.255649
0
VERTEX
8
0
6
CONTINUOUS
62
252
70
192
10
1.375700
20
-0.255649
30
-0.230187
0
VERTEX
8
0
6
CONTINUOUS
62
252
70
192
10
1.375700
20
-0.278310
30
-0.202204
0
VERTEX
8
0
6
CONTINUOUS
62
252
70
192
10
1.375700
20
-0.297921
30
-0.172005
0
VERTEX
8
0
6
CONTINUOUS
62
252
70
192
10
1.375700
20
-0.314268
30
-0.139921
0
VERTEX
8
0
6
CONTINUOUS
62
252
70
192
10
1.375700
20
-0.327172
30
-0.106305
0
VERTEX
8
0
6
CONTINUOUS
62
252
70
192
10
1.375700
20
-0.336492
30
-0.071524
0
VERTEX
8
0
6
CONTINUOUS
62
252
70
192
10
1.375700
20
-0.342125
30
-0.035959
0
VERTEX
8
0
6
CONTINUOUS
62
252
70
192
10
1.375700
20
-0.344010
30
0.000000
0
VERTEX
8
0
6
CONTINUOUS
62
252
70
192
10
1.375700
20
-0.342125
30
0.035959
0
VERTEX
8
0
6
CONTINUOUS
62
252
70
192
10
1.375700
20
-0.336492
30
0.071524
0
VERTEX
8
0
6
CONTINUOUS
62
252
70
192
10
1.375700
20
-0.327172
30
0.106305
0
VERTEX
8
0
6
CONTINUOUS
62
252
70
192
10
1.375700
20
-0.314268
30
0.139921
0
VERTEX
8
0
6
CONTINUOUS
62
252
70
192
10
1.375700
20
-0.297921
30
0.172005
0
VERTEX
8
0
6
CONTINUOUS
62
252
70
192
10
1.375700
20
-0.278310
30
0.202204
0
VERTEX
8
0
6
CONTINUOUS
62
252
70
192
10
1.375700
20
-0.255649
30
0.230187
0
VERTEX
8
0
6
CONTINUOUS
62
252
70
192
10
1.375700
20
-0.230187
30
0.255649
0
VERTEX
8
0
6
CONTINUOUS
62
252
70
192
10
1.375700
20
-0.202204
30
0.278310
0
VERTEX
8
0
6
CONTINUOUS
62
252
70
192
10
1.375700
20
-0.172005
30
0.297921
0
VERTEX
8
0
6
CONTINUOUS
62
252
70
192
10
1.375700
20
-0.139921
30
0.314268
0
VERTEX
8
0
6
CONTINUOUS
62
252
70
192
10
1.375700
20
-0.106305
30
0.327172
0
VERTEX
8
0
6
CONTINUOUS
62
252
70
192
10
1.375700
20
-0.071524
30
0.336492
0
VERTEX
8
0
6
CONTINUOUS
62
252
70
192
10
1.375700
20
-0.035959
30
0.342125
0
VERTEX
8
0
6
CONTINUOUS
62
252
70
128
10
0.000000
20
0.000000
30
0.000000
71
2
72
90
73
1
0
VERTEX
8
0
6
CONTINUOUS
62
252
70
128
10
0.000000
20
0.000000
30
0.000000
71
1
72
90
73
91
0
VERTEX
8
0
6
CONTINUOUS
62
252
70
128
10
0.000000
20
0.000000
30
0.000000
71
1
72
91
73
60
0
VERTEX
8
0
6
CONTINUOUS
62
252
70
128
10
0.000000
20
0.000000
30
0.000000
71
60
72
91
73
92
0
VERTEX
8
0
6
CONTINUOUS
62
252
70
128
10
0.000000
20
0.000000
30
0.000000
71
60
72
92
73
59
0
VERTEX
8
0
6
CONTINUOUS
62
252
70
128
10
0.000000
20
0.000000
30
0.000000
71
59
72
92
73
93
0
VERTEX
8
0
6
CONTINUOUS
62
252
70
128
10
0.000000
20
0.000000
30
0.000000
71
59
72
93
73
58
0
VERTEX
8
0
6
CONTINUOUS
62
252
70
128
10
0.000000
20
0.000000
30
0.000000
71
58
72
93
73
94
0
VERTEX
8
0
6
CONTINUOUS
62
252
70
128
10
0.000000
20
0.000000
30
0.000000
71
58
72
94
73
57
0
VERTEX
8
0
6
CONTINUOUS
62
252
70
128
10
0.000000
20
0.000000
30
0.000000
71
57
72
94
73
95
0
VERTEX
8
0
6
CONTINUOUS
62
252
70
128
10
0.000000
20
0.000000
30
0.000000
71
57
72
95
73
56
0
VERTEX
8
0
6
CONTINUOUS
62
252
70
128
10
0.000000
20
0.000000
30
0.000000
71
56
72
95
73
96
0
VERTEX
8
0
6
CONTINUOUS
62
252
70
128
10
0.000000
20
0.000000
30
0.000000
71
56
72
96
73
55
0
VERTEX
8
0
6
CONTINUOUS
62
252
70
128
10
0.000000
20
0.000000
30
0.000000
71
55
72
96
73
97
0
VERTEX
8
0
6
CONTINUOUS
62
252
70
128
10
0.000000
20
0.000000
30
0.000000
71
55
72
97
73
54
0
VERTEX
8
0
6
CONTINUOUS
62
252
70
128
10
0.000000
20
0.000000
30
0.000000
71
54
72
97
73
98
0
VERTEX
8
0
6
CONTINUOUS
62
252
70
128
10
0.000000
20
0.000000
30
0.000000
71
54
72
98
73
53
0
VERTEX
8
0
6
CONTINUOUS
62
252
70
128
10
0.000000
20
0.000000
30
0.000000
71
53
72
98
73
99
0
VERTEX
8
0
6
CONTINUOUS
62
252
70
128
10
0.000000
20
0.000000
30
0.000000
71
53
72
99
73
52
0
VERTEX
8
0
6
CONTINUOUS
62
252
70
128
10
0.000000
20
0.000000
30
0.000000
71
52
72
99
73
100
0
VERTEX
8
0
6
CONTINUOUS
62
252
70
128
10
0.000000
20
0.000000
30
0.000000
71
52
72
100
73
51
0
VERTEX
8
0
6
CONTINUOUS
62
252
70
128
10
0.000000
20
0.000000
30
0.000000
71
51
72
100
73
101
0
VERTEX
8
0
6
CONTINUOUS
62
252
70
128
10
0.000000
20
0.000000
30
0.000000
71
51
72
101
73
50
0
VERTEX
8
0
6
CONTINUOUS
62
252
70
128
10
0.000000
20
0.000000
30
0.000000
71
50
72
101
73
102
0
VERTEX
8
0
6
CONTINUOUS
62
252
70
128
10
0.000000
20
0.000000
30
0.000000
71
50
72
102
73
49
0
VERTEX
8
0
6
CONTINUOUS
62
252
70
128
10
0.000000
20
0.000000
30
0.000000
71
49
72
102
73
103
0
VERTEX
8
0
6
CONTINUOUS
62
252
70
128
10
0.000000
20
0.000000
30
0.000000
71
49
72
103
73
48
0
VERTEX
8
0
6
CONTINUOUS
62
252
70
128
10
0.000000
20
0.000000
30
0.000000
71
48
72
103
73
104
0
VERTEX
8
0
6
CONTINUOUS
62
252
70
128
10
0.000000
20
0.000000
30
0.000000
71
48
72
104
73
47
0
VERTEX
8
0
6
CONTINUOUS
62
252
70
128
10
0.000000
20
0.000000
30
0.000000
71
47
72
104
73
105
0
VERTEX
8
0
6
CONTINUOUS
62
252
70
128
10
0.000000
20
0.000000
30
0.000000
71
47
72
105
73
46
0
VERTEX
8
0
6
CONTINUOUS
62
252
70
128
10
0.000000
20
0.000000
30
0.000000
71
46
72
105
73
106
0
VERTEX
8
0
6
CONTINUOUS
62
252
70
128
10
0.000000
20
0.000000
30
0.000000
71
46
72
106
73
45
0
VERTEX
8
0
6
CONTINUOUS
62
252
70
128
10
0.000000
20
0.000000
30
0.000000
71
45
72
106
73
107
0
VERTEX
8
0
6
CONTINUOUS
62
252
70
128
10
0.000000
20
0.000000
30
0.000000
71
45
72
107
73
44
0
VERTEX
8
0
6
CONTINUOUS
62
252
70
128
10
0.000000
20
0.000000
30
0.000000
71
44
72
107
73
108
0
VERTEX
8
0
6
CONTINUOUS
62
252
70
128
10
0.000000
20
0.000000
30
0.000000
71
44
72
108
73
43
0
VERTEX
8
0
6
CONTINUOUS
62
252
70
128
10
0.000000
20
0.000000
30
0.000000
71
43
72
108
73
109
0
VERTEX
8
0
6
CONTINUOUS
62
252
70
128
10
0.000000
20
0.000000
30
0.000000
71
43
72
109
73
42
0
VERTEX
8
0
6
CONTINUOUS
62
252
70
128
10
0.000000
20
0.000000
30
0.000000
71
42
72
109
73
110
0
VERTEX
8
0
6
CONTINUOUS
62
252
70
128
10
0.000000
20
0.000000
30
0.000000
71
42
72
110
73
41
0
VERTEX
8
0
6
CONTINUOUS
62
252
70
128
10
0.000000
20
0.000000
30
0.000000
71
41
72
110
73
111
0
VERTEX
8
0
6
CONTINUOUS
62
252
70
128
10
0.000000
20
0.000000
30
0.000000
71
41
72
111
73
40
0
VERTEX
8
0
6
CONTINUOUS
62
252
70
128
10
0.000000
20
0.000000
30
0.000000
71
40
72
111
73
112
0
VERTEX
8
0
6
CONTINUOUS
62
252
70
128
10
0.000000
20
0.000000
30
0.000000
71
40
72
112
73
39
0
VERTEX
8
0
6
CONTINUOUS
62
252
70
128
10
0.000000
20
0.000000
30
0.000000
71
39
72
112
73
113
0
VERTEX
8
0
6
CONTINUOUS
62
252
70
128
10
0.000000
20
0.000000
30
0.000000
71
39
72
113
73
38
0
VERTEX
8
0
6
CONTINUOUS
62
252
70
128
10
0.000000
20
0.000000
30
0.000000
71
38
72
113
73
114
0
VERTEX
8
0
6
CONTINUOUS
62
252
70
128
10
0.000000
20
0.000000
30
0.000000
71
38
72
114
73
37
0
VERTEX
8
0
6
CONTINUOUS
62
252
70
128
10
0.000000
20
0.000000
30
0.000000
71
37
72
114
73
115
0
VERTEX
8
0
6
CONTINUOUS
62
252
70
128
10
0.000000
20
0.000000
30
0.000000
71
37
72
115
73
36
0
VERTEX
8
0
6
CONTINUOUS
62
252
70
128
10
0.000000
20
0.000000
30
0.000000
71
36
72
115
73
116
0
VERTEX
8
0
6
CONTINUOUS
62
252
70
128
10
0.000000
20
0.000000
30
0.000000
71
36
72
116
73
35
0
VERTEX
8
0
6
CONTINUOUS
62
252
70
128
10
0.000000
20
0.000000
30
0.000000
71
35
72
116
73
117
0
VERTEX
8
0
6
CONTINUOUS
62
252
70
128
10
0.000000
20
0.000000
30
0.000000
71
35
72
117
73
34
0
VERTEX
8
0
6
CONTINUOUS
62
252
70
128
10
0.000000
20
0.000000
30
0.000000
71
34
72
117
73
118
0
VERTEX
8
0
6
CONTINUOUS
62
252
70
128
10
0.000000
20
0.000000
30
0.000000
71
34
72
118
73
33
0
VERTEX
8
0
6
CONTINUOUS
62
252
70
128
10
0.000000
20
0.000000
30
0.000000
71
33
72
118
73
119
0
VERTEX
8
0
6
CONTINUOUS
62
252
70
128
10
0.000000
20
0.000000
30
0.000000
71
33
72
119
73
32
0
VERTEX
8
0
6
CONTINUOUS
62
252
70
128
10
0.000000
20
0.000000
30
0.000000
71
32
72
119
73
120
0
VERTEX
8
0
6
CONTINUOUS
62
252
70
128
10
0.000000
20
0.000000
30
0.000000
71
32
72
120
73
31
0
VERTEX
8
0
6
CONTINUOUS
62
252
70
128
10
0.000000
20
0.000000
30
0.000000
71
31
72
120
73
61
0
VERTEX
8
0
6
CONTINUOUS
62
252
70
128
10
0.000000
20
0.000000
30
0.000000
71
31
72
61
73
30
0
VERTEX
8
0
6
CONTINUOUS
62
252
70
128
10
0.000000
20
0.000000
30
0.000000
71
30
72
61
73
62
0
VERTEX
8
0
6
CONTINUOUS
62
252
70
128
10
0.000000
20
0.000000
30
0.000000
71
30
72
62
73
29
0
VERTEX
8
0
6
CONTINUOUS
62
252
70
128
10
0.000000
20
0.000000
30
0.000000
71
29
72
62
73
63
0
VERTEX
8
0
6
CONTINUOUS
62
252
70
128
10
0.000000
20
0.000000
30
0.000000
71
29
72
63
73
28
0
VERTEX
8
0
6
CONTINUOUS
62
252
70
128
10
0.000000
20
0.000000
30
0.000000
71
28
72
63
73
64
0
VERTEX
8
0
6
CONTINUOUS
62
252
70
128
10
0.000000
20
0.000000
30
0.000000
71
28
72
64
73
27
0
VERTEX
8
0
6
CONTINUOUS
62
252
70
128
10
0.000000
20
0.000000
30
0.000000
71
27
72
64
73
65
0
VERTEX
8
0
6
CONTINUOUS
62
252
70
128
10
0.000000
20
0.000000
30
0.000000
71
27
72
65
73
26
0
VERTEX
8
0
6
CONTINUOUS
62
252
70
128
10
0.000000
20
0.000000
30
0.000000
71
26
72
65
73
66
0
VERTEX
8
0
6
CONTINUOUS
62
252
70
128
10
0.000000
20
0.000000
30
0.000000
71
26
72
66
73
25
0
VERTEX
8
0
6
CONTINUOUS
62
252
70
128
10
0.000000
20
0.000000
30
0.000000
71
25
72
66
73
67
0
VERTEX
8
0
6
CONTINUOUS
62
252
70
128
10
0.000000
20
0.000000
30
0.000000
71
25
72
67
73
24
0
VERTEX
8
0
6
CONTINUOUS
62
252
70
128
10
0.000000
20
0.000000
30
0.000000
71
24
72
67
73
68
0
VERTEX
8
0
6
CONTINUOUS
62
252
70
128
10
0.000000
20
0.000000
30
0.000000
71
24
72
68
73
23
0
VERTEX
8
0
6
CONTINUOUS
62
252
70
128
10
0.000000
20
0.000000
30
0.000000
71
23
72
68
73
69
0
VERTEX
8
0
6
CONTINUOUS
62
252
70
128
10
0.000000
20
0.000000
30
0.000000
71
23
72
69
73
22
0
VERTEX
8
0
6
CONTINUOUS
62
252
70
128
10
0.000000
20
0.000000
30
0.000000
71
22
72
69
73
70
0
VERTEX
8
0
6
CONTINUOUS
62
252
70
128
10
0.000000
20
0.000000
30
0.000000
71
22
72
70
73
21
0
VERTEX
8
0
6
CONTINUOUS
62
252
70
128
10
0.000000
20
0.000000
30
0.000000
71
21
72
70
73
71
0
VERTEX
8
0
6
CONTINUOUS
62
252
70
128
10
0.000000
20
0.000000
30
0.000000
71
21
72
71
73
20
0
VERTEX
8
0
6
CONTINUOUS
62
252
70
128
10
0.000000
20
0.000000
30
0.000000
71
20
72
71
73
72
0
VERTEX
8
0
6
CONTINUOUS
62
252
70
128
10
0.000000
20
0.000000
30
0.000000
71
20
72
72
73
19
0
VERTEX
8
0
6
CONTINUOUS
62
252
70
128
10
0.000000
20
0.000000
30
0.000000
71
19
72
72
73
73
0
VERTEX
8
0
6
CONTINUOUS
62
252
70
128
10
0.000000
20
0.000000
30
0.000000
71
19
72
73
73
18
0
VERTEX
8
0
6
CONTINUOUS
62
252
70
128
10
0.000000
20
0.000000
30
0.000000
71
18
72
73
73
74
0
VERTEX
8
0
6
CONTINUOUS
62
252
70
128
10
0.000000
20
0.000000
30
0.000000
71
18
72
74
73
17
0
VERTEX
8
0
6
CONTINUOUS
62
252
70
128
10
0.000000
20
0.000000
30
0.000000
71
17
72
74
73
75
0
VERTEX
8
0
6
CONTINUOUS
62
252
70
128
10
0.000000
20
0.000000
30
0.000000
71
17
72
75
73
16
0
VERTEX
8
0
6
CONTINUOUS
62
252
70
128
10
0.000000
20
0.000000
30
0.000000
71
16
72
75
73
76
0
VERTEX
8
0
6
CONTINUOUS
62
252
70
128
10
0.000000
20
0.000000
30
0.000000
71
16
72
76
73
15
0
VERTEX
8
0
6
CONTINUOUS
62
252
70
128
10
0.000000
20
0.000000
30
0.000000
71
15
72
76
73
77
0
VERTEX
8
0
6
CONTINUOUS
62
252
70
128
10
0.000000
20
0.000000
30
0.000000
71
15
72
77
73
14
0
VERTEX
8
0
6
CONTINUOUS
62
252
70
128
10
0.000000
20
0.000000
30
0.000000
71
14
72
77
73
78
0
VERTEX
8
0
6
CONTINUOUS
62
252
70
128
10
0.000000
20
0.000000
30
0.000000
71
14
72
78
73
13
0
VERTEX
8
0
6
CONTINUOUS
62
252
70
128
10
0.000000
20
0.000000
30
0.000000
71
13
72
78
73
79
0
VERTEX
8
0
6
CONTINUOUS
62
252
70
128
10
0.000000
20
0.000000
30
0.000000
71
13
72
79
73
12
0
VERTEX
8
0
6
CONTINUOUS
62
252
70
128
10
0.000000
20
0.000000
30
0.000000
71
12
72
79
73
80
0
VERTEX
8
0
6
CONTINUOUS
62
252
70
128
10
0.000000
20
0.000000
30
0.000000
71
12
72
80
73
11
0
VERTEX
8
0
6
CONTINUOUS
62
252
70
128
10
0.000000
20
0.000000
30
0.000000
71
11
72
80
73
81
0
VERTEX
8
0
6
CONTINUOUS
62
252
70
128
10
0.000000
20
0.000000
30
0.000000
71
11
72
81
73
10
0
VERTEX
8
0
6
CONTINUOUS
62
252
70
128
10
0.000000
20
0.000000
30
0.000000
71
10
72
81
73
82
0
VERTEX
8
0
6
CONTINUOUS
62
252
70
128
10
0.000000
20
0.000000
30
0.000000
71
10
72
82
73
9
0
VERTEX
8
0
6
CONTINUOUS
62
252
70
128
10
0.000000
20
0.000000
30
0.000000
71
9
72
82
73
83
0
VERTEX
8
0
6
CONTINUOUS
62
252
70
128
10
0.000000
20
0.000000
30
0.000000
71
9
72
83
73
8
0
VERTEX
8
0
6
CONTINUOUS
62
252
70
128
10
0.000000
20
0.000000
30
0.000000
71
8
72
83
73
84
0
VERTEX
8
0
6
CONTINUOUS
62
252
70
128
10
0.000000
20
0.000000
30
0.000000
71
8
72
84
73
7
0
VERTEX
8
0
6
CONTINUOUS
62
252
70
128
10
0.000000
20
0.000000
30
0.000000
71
7
72
84
73
85
0
VERTEX
8
0
6
CONTINUOUS
62
252
70
128
10
0.000000
20
0.000000
30
0.000000
71
7
72
85
73
6
0
VERTEX
8
0
6
CONTINUOUS
62
252
70
128
10
0.000000
20
0.000000
30
0.000000
71
6
72
85
73
86
0
VERTEX
8
0
6
CONTINUOUS
62
252
70
128
10
0.000000
20
0.000000
30
0.000000
71
6
72
86
73
5
0
VERTEX
8
0
6
CONTINUOUS
62
252
70
128
10
0.000000
20
0.000000
30
0.000000
71
5
72
86
73
87
0
VERTEX
8
0
6
CONTINUOUS
62
252
70
128
10
0.000000
20
0.000000
30
0.000000
71
5
72
87
73
4
0
VERTEX
8
0
6
CONTINUOUS
62
252
70
128
10
0.000000
20
0.000000
30
0.000000
71
4
72
87
73
88
0
VERTEX
8
0
6
CONTINUOUS
62
252
70
128
10
0.000000
20
0.000000
30
0.000000
71
4
72
88
73
3
0
VERTEX
8
0
6
CONTINUOUS
62
252
70
128
10
0.000000
20
0.000000
30
0.000000
71
3
72
88
73
89
0
VERTEX
8
0
6
CONTINUOUS
62
252
70
128
10
0.000000
20
0.000000
30
0.000000
71
3
72
89
73
2
0
VERTEX
8
0
6
CONTINUOUS
62
252
70
128
10
0.000000
20
0.000000
30
0.000000
71
2
72
89
73
90
0
SEQEND
0
POLYLINE
66
1
8
0
6
CONTINUOUS
62
252
70
64
75
0
10
0.000000
20
0.000000
30
0.000000
0
VERTEX
8
0
6
CONTINUOUS
62
252
70
192
10
0.000000
20
0.000000
30
-0.195000
0
VERTEX
8
0
6
CONTINUOUS
62
252
70
192
10
0.000000
20
-0.020383
30
-0.193932
0
VERTEX
8
0
6
CONTINUOUS
62
252
70
192
10
0.000000
20
-0.040543
30
-0.190739
0
VERTEX
8
0
6
CONTINUOUS
62
252
70
192
10
0.000000
20
-0.060258
30
-0.185456
0
VERTEX
8
0
6
CONTINUOUS
62
252
70
192
10
0.000000
20
-0.079314
30
-0.178141
0
VERTEX
8
0
6
CONTINUOUS
62
252
70
192
10
0.000000
20
-0.097500
30
-0.168875
0
VERTEX
8
0
6
CONTINUOUS
62
252
70
192
10
0.000000
20
-0.114618
30
-0.157758
0
VERTEX
8
0
6
CONTINUOUS
62
252
70
192
10
0.000000
20
-0.130480
30
-0.144913
0
VERTEX
8
0
6
CONTINUOUS
62
252
70
192
10
0.000000
20
-0.144913
30
-0.130480
0
VERTEX
8
0
6
CONTINUOUS
62
252
70
192
10
0.000000
20
-0.157758
30
-0.114618
0
VERTEX
8
0
6
CONTINUOUS
62
252
70
192
10
0.000000
20
-0.168875
30
-0.097500
0
VERTEX
8
0
6
CONTINUOUS
62
252
70
192
10
0.000000
20
-0.178141
30
-0.079314
0
VERTEX
8
0
6
CONTINUOUS
62
252
70
192
10
0.000000
20
-0.185456
30
-0.060258
0
VERTEX
8
0
6
CONTINUOUS
62
252
70
192
10
0.000000
20
-0.190739
30
-0.040543
0
VERTEX
8
0
6
CONTINUOUS
62
252
70
192
10
0.000000
20
-0.193932
30
-0.020383
0
VERTEX
8
0
6
CONTINUOUS
62
252
70
192
10
-0.000000
20
-0.195000
30
0.000000
0
VERTEX
8
0
6
CONTINUOUS
62
252
70
192
10
-0.000000
20
-0.193932
30
0.020383
0
VERTEX
8
0
6
CONTINUOUS
62
252
70
192
10
-0.000000
20
-0.190739
30
0.040543
0
VERTEX
8
0
6
CONTINUOUS
62
252
70
192
10
-0.000000
20
-0.185456
30
0.060258
0
VERTEX
8
0
6
CONTINUOUS
62
252
70
192
10
-0.000000
20
-0.178141
30
0.079314
0
VERTEX
8
0
6
CONTINUOUS
62
252
70
192
10
-0.000000
20
-0.168875
30
0.097500
0
VERTEX
8
0
6
CONTINUOUS
62
252
70
192
10
-0.000000
20
-0.157758
30
0.114618
0
VERTEX
8
0
6
CONTINUOUS
62
252
70
192
10
-0.000000
20
-0.144913
30
0.130480
0
VERTEX
8
0
6
CONTINUOUS
62
252
70
192
10
-0.000000
20
-0.130480
30
0.144913
0
VERTEX
8
0
6
CONTINUOUS
62
252
70
192
10
-0.000000
20
-0.114618
30
0.157758
0
VERTEX
8
0
6
CONTINUOUS
62
252
70
192
10
-0.000000
20
-0.097500
30
0.168875
0
VERTEX
8
0
6
CONTINUOUS
62
252
70
192
10
-0.000000
20
-0.079314
30
0.178141
0
VERTEX
8
0
6
CONTINUOUS
62
252
70
192
10
-0.000000
20
-0.060258
30
0.185456
0
VERTEX
8
0
6
CONTINUOUS
62
252
70
192
10
-0.000000
20
-0.040543
30
0.190739
0
VERTEX
8
0
6
CONTINUOUS
62
252
70
192
10
-0.000000
20
-0.020383
30
0.193932
0
VERTEX
8
0
6
CONTINUOUS
62
252
70
192
10
-0.000000
20
0.000000
30
0.195000
0
VERTEX
8
0
6
CONTINUOUS
62
252
70
192
10
-0.000000
20
0.020383
30
0.193932
0
VERTEX
8
0
6
CONTINUOUS
62
252
70
192
10
-0.000000
20
0.040543
30
0.190739
0
VERTEX
8
0
6
CONTINUOUS
62
252
70
192
10
-0.000000
20
0.060258
30
0.185456
0
VERTEX
8
0
6
CONTINUOUS
62
252
70
192
10
-0.000000
20
0.079314
30
0.178141
0
VERTEX
8
0
6
CONTINUOUS
62
252
70
192
10
-0.000000
20
0.097500
30
0.168875
0
VERTEX
8
0
6
CONTINUOUS
62
252
70
192
10
-0.000000
20
0.114618
30
0.157758
0
VERTEX
8
0
6
CONTINUOUS
62
252
70
192
10
-0.000000
20
0.130480
30
0.144913
0
VERTEX
8
0
6
CONTINUOUS
62
252
70
192
10
-0.000000
20
0.144913
30
0.130480
0
VERTEX
8
0
6
CONTINUOUS
62
252
70
192
10
-0.000000
20
0.157758
30
0.114618
0
VERTEX
8
0
6
CONTINUOUS
62
252
70
192
10
-0.000000
20
0.168875
30
0.097500
0
VERTEX
8
0
6
CONTINUOUS
62
252
70
192
10
-0.000000
20
0.178141
30
0.079314
0
VERTEX
8
0
6
CONTINUOUS
62
252
70
192
10
-0.000000
20
0.185456
30
0.060258
0
VERTEX
8
0
6
CONTINUOUS
62
252
70
192
10
-0.000000
20
0.190739
30
0.040543
0
VERTEX
8
0
6
CONTINUOUS
62
252
70
192
10
-0.000000
20
0.193932
30
0.020383
0
VERTEX
8
0
6
CONTINUOUS
62
252
70
192
10
0.000000
20
0.195000
30
-0.000000
0
VERTEX
8
0
6
CONTINUOUS
62
252
70
192
10
0.000000
20
0.193932
30
-0.020383
0
VERTEX
8
0
6
CONTINUOUS
62
252
70
192
10
0.000000
20
0.190739
30
-0.040543
0
VERTEX
8
0
6
CONTINUOUS
62
252
70
192
10
0.000000
20
0.185456
30
-0.060258
0
VERTEX
8
0
6
CONTINUOUS
62
252
70
192
10
0.000000
20
0.178141
30
-0.079314
0
VERTEX
8
0
6
CONTINUOUS
62
252
70
192
10
0.000000
20
0.168875
30
-0.097500
0
VERTEX
8
0
6
CONTINUOUS
62
252
70
192
10
0.000000
20
0.157758
30
-0.114618
0
VERTEX
8
0
6
CONTINUOUS
62
252
70
192
10
0.000000
20
0.144913
30
-0.130480
0
VERTEX
8
0
6
CONTINUOUS
62
252
70
192
10
0.000000
20
0.130480
30
-0.144913
0
VERTEX
8
0
6
CONTINUOUS
62
252
70
192
10
0.000000
20
0.114618
30
-0.157758
0
VERTEX
8
0
6
CONTINUOUS
62
252
70
192
10
0.000000
20
0.097500
30
-0.168875
0
VERTEX
8
0
6
CONTINUOUS
62
252
70
192
10
0.000000
20
0.079314
30
-0.178141
0
VERTEX
8
0
6
CONTINUOUS
62
252
70
192
10
0.000000
20
0.060258
30
-0.185456
0
VERTEX
8
0
6
CONTINUOUS
62
252
70
192
10
0.000000
20
0.040543
30
-0.190739
0
VERTEX
8
0
6
CONTINUOUS
62
252
70
192
10
0.000000
20
0.020383
30
-0.193932
0
VERTEX
8
0
6
CONTINUOUS
62
252
70
192
10
1.146545
20
0.000000
30
-0.195000
0
VERTEX
8
0
6
CONTINUOUS
62
252
70
192
10
1.146545
20
0.020383
30
-0.193932
0
VERTEX
8
0
6
CONTINUOUS
62
252
70
192
10
1.146545
20
0.040543
30
-0.190739
0
VERTEX
8
0
6
CONTINUOUS
62
252
70
192
10
1.146545
20
0.060258
30
-0.185456
0
VERTEX
8
0
6
CONTINUOUS
62
252
70
192
10
1.146545
20
0.079314
30
-0.178141
0
VERTEX
8
0
6
CONTINUOUS
62
252
70
192
10
1.146545
20
0.097500
30
-0.168875
0
VERTEX
8
0
6
CONTINUOUS
62
252
70
192
10
1.146545
20
0.114618
30
-0.157758
0
VERTEX
8
0
6
CONTINUOUS
62
252
70
192
10
1.146545
20
0.130480
30
-0.144913
0
VERTEX
8
0
6
CONTINUOUS
62
252
70
192
10
1.146545
20
0.144913
30
-0.130480
0
VERTEX
8
0
6
CONTINUOUS
62
252
70
192
10
1.146545
20
0.157758
30
-0.114618
0
VERTEX
8
0
6
CONTINUOUS
62
252
70
192
10
1.146545
20
0.168875
30
-0.097500
0
VERTEX
8
0
6
CONTINUOUS
62
252
70
192
10
1.146545
20
0.178141
30
-0.079314
0
VERTEX
8
0
6
CONTINUOUS
62
252
70
192
10
1.146545
20
0.185456
30
-0.060258
0
VERTEX
8
0
6
CONTINUOUS
62
252
70
192
10
1.146545
20
0.190739
30
-0.040543
0
VERTEX
8
0
6
CONTINUOUS
62
252
70
192
10
1.146545
20
0.193932
30
-0.020383
0
VERTEX
8
0
6
CONTINUOUS
62
252
70
192
10
1.146545
20
0.195000
30
-0.000000
0
VERTEX
8
0
6
CONTINUOUS
62
252
70
192
10
1.146545
20
0.193932
30
0.020383
0
VERTEX
8
0
6
CONTINUOUS
62
252
70
192
10
1.146545
20
0.190739
30
0.040543
0
VERTEX
8
0
6
CONTINUOUS
62
252
70
192
10
1.146545
20
0.185456
30
0.060258
0
VERTEX
8
0
6
CONTINUOUS
62
252
70
192
10
1.146545
20
0.178141
30
0.079314
0
VERTEX
8
0
6
CONTINUOUS
62
252
70
192
10
1.146545
20
0.168875
30
0.097500
0
VERTEX
8
0
6
CONTINUOUS
62
252
70
192
10
1.146545
20
0.157758
30
0.114618
0
VERTEX
8
0
6
CONTINUOUS
62
252
70
192
10
1.146545
20
0.144913
30
0.130480
0
VERTEX
8
0
6
CONTINUOUS
62
252
70
192
10
1.146545
20
0.130480
30
0.144913
0
VERTEX
8
0
6
CONTINUOUS
62
252
70
192
10
1.146545
20
0.114618
30
0.157758
0
VERTEX
8
0
6
CONTINUOUS
62
252
70
192
10
1.146545
20
0.097500
30
0.168875
0
VERTEX
8
0
6
CONTINUOUS
62
252
70
192
10
1.146545
20
0.079314
30
0.178141
0
VERTEX
8
0
6
CONTINUOUS
62
252
70
192
10
1.146545
20
0.060258
30
0.185456
0
VERTEX
8
0
6
CONTINUOUS
62
252
70
192
10
1.146545
20
0.040543
30
0.190739
0
VERTEX
8
0
6
CONTINUOUS
62
252
70
192
10
1.146545
20
0.020383
30
0.193932
0
VERTEX
8
0
6
CONTINUOUS
62
252
70
192
10
1.146545
20
0.000000
30
0.195000
0
VERTEX
8
0
6
CONTINUOUS
62
252
70
192
10
1.146545
20
-0.020383
30
0.193932
0
VERTEX
8
0
6
CONTINUOUS
62
252
70
192
10
1.146545
20
-0.040543
30
0.190739
0
VERTEX
8
0
6
CONTINUOUS
62
252
70
192
10
1.146545
20
-0.060258
30
0.185456
0
VERTEX
8
0
6
CONTINUOUS
62
252
70
192
10
1.146545
20
-0.079314
30
0.178141
0
VERTEX
8
0
6
CONTINUOUS
62
252
70
192
10
1.146545
20
-0.097500
30
0.168875
0
VERTEX
8
0
6
CONTINUOUS
62
252
70
192
10
1.146545
20
-0.114618
30
0.157758
0
VERTEX
8
0
6
CONTINUOUS
62
252
70
192
10
1.146545
20
-0.130480
30
0.144913
0
VERTEX
8
0
6
CONTINUOUS
62
252
70
192
10
1.146545
20
-0.144913
30
0.130480
0
VERTEX
8
0
6
CONTINUOUS
62
252
70
192
10
1.146545
20
-0.157758
30
0.114618
0
VERTEX
8
0
6
CONTINUOUS
62
252
70
192
10
1.146545
20
-0.168875
30
0.097500
0
VERTEX
8
0
6
CONTINUOUS
62
252
70
192
10
1.146545
20
-0.178141
30
0.079314
0
VERTEX
8
0
6
CONTINUOUS
62
252
70
192
10
1.146545
20
-0.185456
30
0.060258
0
VERTEX
8
0
6
CONTINUOUS
62
252
70
192
10
1.146545
20
-0.190739
30
0.040543
0
VERTEX
8
0
6
CONTINUOUS
62
252
70
192
10
1.146545
20
-0.193932
30
0.020383
0
VERTEX
8
0
6
CONTINUOUS
62
252
70
192
10
1.146545
20
-0.195000
30
-0.000000
0
VERTEX
8
0
6
CONTINUOUS
62
252
70
192
10
1.146545
20
-0.193932
30
-0.020383
0
VERTEX
8
0
6
CONTINUOUS
62
252
70
192
10
1.146545
20
-0.190739
30
-0.040543
0
VERTEX
8
0
6
CONTINUOUS
62
252
70
192
10
1.146545
20
-0.185456
30
-0.060258
0
VERTEX
8
0
6
CONTINUOUS
62
252
70
192
10
1.146545
20
-0.178141
30
-0.079314
0
VERTEX
8
0
6
CONTINUOUS
62
252
70
192
10
1.146545
20
-0.168875
30
-0.097500
0
VERTEX
8
0
6
CONTINUOUS
62
252
70
192
10
1.146545
20
-0.157758
30
-0.114618
0
VERTEX
8
0
6
CONTINUOUS
62
252
70
192
10
1.146545
20
-0.144913
30
-0.130480
0
VERTEX
8
0
6
CONTINUOUS
62
252
70
192
10
1.146545
20
-0.130480
30
-0.144913
0
VERTEX
8
0
6
CONTINUOUS
62
252
70
192
10
1.146545
20
-0.114618
30
-0.157758
0
VERTEX
8
0
6
CONTINUOUS
62
252
70
192
10
1.146545
20
-0.097500
30
-0.168875
0
VERTEX
8
0
6
CONTINUOUS
62
252
70
192
10
1.146545
20
-0.079314
30
-0.178141
0
VERTEX
8
0
6
CONTINUOUS
62
252
70
192
10
1.146545
20
-0.060258
30
-0.185456
0
VERTEX
8
0
6
CONTINUOUS
62
252
70
192
10
1.146545
20
-0.040543
30
-0.190739
0
VERTEX
8
0
6
CONTINUOUS
62
252
70
192
10
1.146545
20
-0.020383
30
-0.193932
0
VERTEX
8
0
6
CONTINUOUS
62
252
70
128
10
0.000000
20
0.000000
30
0.000000
71
2
72
120
73
1
0
VERTEX
8
0
6
CONTINUOUS
62
252
70
128
10
0.000000
20
0.000000
30
0.000000
71
1
72
120
73
61
0
VERTEX
8
0
6
CONTINUOUS
62
252
70
128
10
0.000000
20
0.000000
30
0.000000
71
1
72
61
73
60
0
VERTEX
8
0
6
CONTINUOUS
62
252
70
128
10
0.000000
20
0.000000
30
0.000000
71
60
72
61
73
62
0
VERTEX
8
0
6
CONTINUOUS
62
252
70
128
10
0.000000
20
0.000000
30
0.000000
71
60
72
62
73
59
0
VERTEX
8
0
6
CONTINUOUS
62
252
70
128
10
0.000000
20
0.000000
30
0.000000
71
59
72
62
73
63
0
VERTEX
8
0
6
CONTINUOUS
62
252
70
128
10
0.000000
20
0.000000
30
0.000000
71
59
72
63
73
58
0
VERTEX
8
0
6
CONTINUOUS
62
252
70
128
10
0.000000
20
0.000000
30
0.000000
71
58
72
63
73
64
0
VERTEX
8
0
6
CONTINUOUS
62
252
70
128
10
0.000000
20
0.000000
30
0.000000
71
58
72
64
73
57
0
VERTEX
8
0
6
CONTINUOUS
62
252
70
128
10
0.000000
20
0.000000
30
0.000000
71
57
72
64
73
65
0
VERTEX
8
0
6
CONTINUOUS
62
252
70
128
10
0.000000
20
0.000000
30
0.000000
71
57
72
65
73
56
0
VERTEX
8
0
6
CONTINUOUS
62
252
70
128
10
0.000000
20
0.000000
30
0.000000
71
56
72
65
73
66
0
VERTEX
8
0
6
CONTINUOUS
62
252
70
128
10
0.000000
20
0.000000
30
0.000000
71
56
72
66
73
55
0
VERTEX
8
0
6
CONTINUOUS
62
252
70
128
10
0.000000
20
0.000000
30
0.000000
71
55
72
66
73
67
0
VERTEX
8
0
6
CONTINUOUS
62
252
70
128
10
0.000000
20
0.000000
30
0.000000
71
55
72
67
73
54
0
VERTEX
8
0
6
CONTINUOUS
62
252
70
128
10
0.000000
20
0.000000
30
0.000000
71
54
72
67
73
68
0
VERTEX
8
0
6
CONTINUOUS
62
252
70
128
10
0.000000
20
0.000000
30
0.000000
71
54
72
68
73
53
0
VERTEX
8
0
6
CONTINUOUS
62
252
70
128
10
0.000000
20
0.000000
30
0.000000
71
53
72
68
73
69
0
VERTEX
8
0
6
CONTINUOUS
62
252
70
128
10
0.000000
20
0.000000
30
0.000000
71
53
72
69
73
52
0
VERTEX
8
0
6
CONTINUOUS
62
252
70
128
10
0.000000
20
0.000000
30
0.000000
71
52
72
69
73
70
0
VERTEX
8
0
6
CONTINUOUS
62
252
70
128
10
0.000000
20
0.000000
30
0.000000
71
52
72
70
73
51
0
VERTEX
8
0
6
CONTINUOUS
62
252
70
128
10
0.000000
20
0.000000
30
0.000000
71
51
72
70
73
71
0
VERTEX
8
0
6
CONTINUOUS
62
252
70
128
10
0.000000
20
0.000000
30
0.000000
71
51
72
71
73
50
0
VERTEX
8
0
6
CONTINUOUS
62
252
70
128
10
0.000000
20
0.000000
30
0.000000
71
50
72
71
73
72
0
VERTEX
8
0
6
CONTINUOUS
62
252
70
128
10
0.000000
20
0.000000
30
0.000000
71
50
72
72
73
49
0
VERTEX
8
0
6
CONTINUOUS
62
252
70
128
10
0.000000
20
0.000000
30
0.000000
71
49
72
72
73
73
0
VERTEX
8
0
6
CONTINUOUS
62
252
70
128
10
0.000000
20
0.000000
30
0.000000
71
49
72
73
73
48
0
VERTEX
8
0
6
CONTINUOUS
62
252
70
128
10
0.000000
20
0.000000
30
0.000000
71
48
72
73
73
74
0
VERTEX
8
0
6
CONTINUOUS
62
252
70
128
10
0.000000
20
0.000000
30
0.000000
71
48
72
74
73
47
0
VERTEX
8
0
6
CONTINUOUS
62
252
70
128
10
0.000000
20
0.000000
30
0.000000
71
47
72
74
73
75
0
VERTEX
8
0
6
CONTINUOUS
62
252
70
128
10
0.000000
20
0.000000
30
0.000000
71
47
72
75
73
76
0
VERTEX
8
0
6
CONTINUOUS
62
252
70
128
10
0.000000
20
0.000000
30
0.000000
71
120
72
2
73
119
0
VERTEX
8
0
6
CONTINUOUS
62
252
70
128
10
0.000000
20
0.000000
30
0.000000
71
119
72
2
73
3
0
VERTEX
8
0
6
CONTINUOUS
62
252
70
128
10
0.000000
20
0.000000
30
0.000000
71
119
72
3
73
118
0
VERTEX
8
0
6
CONTINUOUS
62
252
70
128
10
0.000000
20
0.000000
30
0.000000
71
118
72
3
73
4
0
VERTEX
8
0
6
CONTINUOUS
62
252
70
128
10
0.000000
20
0.000000
30
0.000000
71
118
72
4
73
117
0
VERTEX
8
0
6
CONTINUOUS
62
252
70
128
10
0.000000
20
0.000000
30
0.000000
71
117
72
4
73
5
0
VERTEX
8
0
6
CONTINUOUS
62
252
70
128
10
0.000000
20
0.000000
30
0.000000
71
117
72
5
73
116
0
VERTEX
8
0
6
CONTINUOUS
62
252
70
128
10
0.000000
20
0.000000
30
0.000000
71
116
72
5
73
6
0
VERTEX
8
0
6
CONTINUOUS
62
252
70
128
10
0.000000
20
0.000000
30
0.000000
71
116
72
6
73
115
0
VERTEX
8
0
6
CONTINUOUS
62
252
70
128
10
0.000000
20
0.000000
30
0.000000
71
115
72
6
73
7
0
VERTEX
8
0
6
CONTINUOUS
62
252
70
128
10
0.000000
20
0.000000
30
0.000000
71
115
72
7
73
114
0
VERTEX
8
0
6
CONTINUOUS
62
252
70
128
10
0.000000
20
0.000000
30
0.000000
71
114
72
7
73
8
0
VERTEX
8
0
6
CONTINUOUS
62
252
70
128
10
0.000000
20
0.000000
30
0.000000
71
114
72
8
73
113
0
VERTEX
8
0
6
CONTINUOUS
62
252
70
128
10
0.000000
20
0.000000
30
0.000000
71
113
72
8
73
9
0
VERTEX
8
0
6
CONTINUOUS
62
252
70
128
10
0.000000
20
0.000000
30
0.000000
71
113
72
9
73
112
0
VERTEX
8
0
6
CONTINUOUS
62
252
70
128
10
0.000000
20
0.000000
30
0.000000
71
112
72
9
73
10
0
VERTEX
8
0
6
CONTINUOUS
62
252
70
128
10
0.000000
20
0.000000
30
0.000000
71
112
72
10
73
111
0
VERTEX
8
0
6
CONTINUOUS
62
252
70
128
10
0.000000
20
0.000000
30
0.000000
71
111
72
10
73
11
0
VERTEX
8
0
6
CONTINUOUS
62
252
70
128
10
0.000000
20
0.000000
30
0.000000
71
111
72
11
73
110
0
VERTEX
8
0
6
CONTINUOUS
62
252
70
128
10
0.000000
20
0.000000
30
0.000000
71
110
72
11
73
12
0
VERTEX
8
0
6
CONTINUOUS
62
252
70
128
10
0.000000
20
0.000000
30
0.000000
71
110
72
12
73
109
0
VERTEX
8
0
6
CONTINUOUS
62
252
70
128
10
0.000000
20
0.000000
30
0.000000
71
109
72
12
73
13
0
VERTEX
8
0
6
CONTINUOUS
62
252
70
128
10
0.000000
20
0.000000
30
0.000000
71
109
72
13
73
108
0
VERTEX
8
0
6
CONTINUOUS
62
252
70
128
10
0.000000
20
0.000000
30
0.000000
71
108
72
13
73
14
0
VERTEX
8
0
6
CONTINUOUS
62
252
70
128
10
0.000000
20
0.000000
30
0.000000
71
108
72
14
73
107
0
VERTEX
8
0
6
CONTINUOUS
62
252
70
128
10
0.000000
20
0.000000
30
0.000000
71
107
72
14
73
15
0
VERTEX
8
0
6
CONTINUOUS
62
252
70
128
10
0.000000
20
0.000000
30
0.000000
71
107
72
15
73
106
0
VERTEX
8
0
6
CONTINUOUS
62
252
70
128
10
0.000000
20
0.000000
30
0.000000
71
106
72
15
73
16
0
VERTEX
8
0
6
CONTINUOUS
62
252
70
128
10
0.000000
20
0.000000
30
0.000000
71
106
72
16
73
105
0
VERTEX
8
0
6
CONTINUOUS
62
252
70
128
10
0.000000
20
0.000000
30
0.000000
71
105
72
16
73
17
0
VERTEX
8
0
6
CONTINUOUS
62
252
70
128
10
0.000000
20
0.000000
30
0.000000
71
105
72
17
73
18
0
VERTEX
8
0
6
CONTINUOUS
62
252
70
128
10
0.000000
20
0.000000
30
0.000000
71
105
72
18
73
104
0
VERTEX
8
0
6
CONTINUOUS
62
252
70
128
10
0.000000
20
0.000000
30
0.000000
71
104
72
18
73
19
0
VERTEX
8
0
6
CONTINUOUS
62
252
70
128
10
0.000000
20
0.000000
30
0.000000
71
104
72
19
73
103
0
VERTEX
8
0
6
CONTINUOUS
62
252
70
128
10
0.000000
20
0.000000
30
0.000000
71
103
72
19
73
20
0
VERTEX
8
0
6
CONTINUOUS
62
252
70
128
10
0.000000
20
0.000000
30
0.000000
71
103
72
20
73
102
0
VERTEX
8
0
6
CONTINUOUS
62
252
70
128
10
0.000000
20
0.000000
30
0.000000
71
102
72
20
73
21
0
VERTEX
8
0
6
CONTINUOUS
62
252
70
128
10
0.000000
20
0.000000
30
0.000000
71
102
72
21
73
101
0
VERTEX
8
0
6
CONTINUOUS
62
252
70
128
10
0.000000
20
0.000000
30
0.000000
71
101
72
21
73
22
0
VERTEX
8
0
6
CONTINUOUS
62
252
70
128
10
0.000000
20
0.000000
30
0.000000
71
101
72
22
73
100
0
VERTEX
8
0
6
CONTINUOUS
62
252
70
128
10
0.000000
20
0.000000
30
0.000000
71
100
72
22
73
23
0
VERTEX
8
0
6
CONTINUOUS
62
252
70
128
10
0.000000
20
0.000000
30
0.000000
71
100
72
23
73
99
0
VERTEX
8
0
6
CONTINUOUS
62
252
70
128
10
0.000000
20
0.000000
30
0.000000
71
99
72
23
73
24
0
VERTEX
8
0
6
CONTINUOUS
62
252
70
128
10
0.000000
20
0.000000
30
0.000000
71
99
72
24
73
98
0
VERTEX
8
0
6
CONTINUOUS
62
252
70
128
10
0.000000
20
0.000000
30
0.000000
71
98
72
24
73
25
0
VERTEX
8
0
6
CONTINUOUS
62
252
70
128
10
0.000000
20
0.000000
30
0.000000
71
98
72
25
73
97
0
VERTEX
8
0
6
CONTINUOUS
62
252
70
128
10
0.000000
20
0.000000
30
0.000000
71
97
72
25
73
26
0
VERTEX
8
0
6
CONTINUOUS
62
252
70
128
10
0.000000
20
0.000000
30
0.000000
71
97
72
26
73
96
0
VERTEX
8
0
6
CONTINUOUS
62
252
70
128
10
0.000000
20
0.000000
30
0.000000
71
96
72
26
73
27
0
VERTEX
8
0
6
CONTINUOUS
62
252
70
128
10
0.000000
20
0.000000
30
0.000000
71
96
72
27
73
95
0
VERTEX
8
0
6
CONTINUOUS
62
252
70
128
10
0.000000
20
0.000000
30
0.000000
71
95
72
27
73
28
0
VERTEX
8
0
6
CONTINUOUS
62
252
70
128
10
0.000000
20
0.000000
30
0.000000
71
95
72
28
73
94
0
VERTEX
8
0
6
CONTINUOUS
62
252
70
128
10
0.000000
20
0.000000
30
0.000000
71
94
72
28
73
29
0
VERTEX
8
0
6
CONTINUOUS
62
252
70
128
10
0.000000
20
0.000000
30
0.000000
71
94
72
29
73
93
0
VERTEX
8
0
6
CONTINUOUS
62
252
70
128
10
0.000000
20
0.000000
30
0.000000
71
93
72
29
73
30
0
VERTEX
8
0
6
CONTINUOUS
62
252
70
128
10
0.000000
20
0.000000
30
0.000000
71
93
72
30
73
92
0
VERTEX
8
0
6
CONTINUOUS
62
252
70
128
10
0.000000
20
0.000000
30
0.000000
71
92
72
30
73
31
0
VERTEX
8
0
6
CONTINUOUS
62
252
70
128
10
0.000000
20
0.000000
30
0.000000
71
92
72
31
73
91
0
VERTEX
8
0
6
CONTINUOUS
62
252
70
128
10
0.000000
20
0.000000
30
0.000000
71
91
72
31
73
32
0
VERTEX
8
0
6
CONTINUOUS
62
252
70
128
10
0.000000
20
0.000000
30
0.000000
71
91
72
32
73
90
0
VERTEX
8
0
6
CONTINUOUS
62
252
70
128
10
0.000000
20
0.000000
30
0.000000
71
90
72
32
73
33
0
VERTEX
8
0
6
CONTINUOUS
62
252
70
128
10
0.000000
20
0.000000
30
0.000000
71
90
72
33
73
89
0
VERTEX
8
0
6
CONTINUOUS
62
252
70
128
10
0.000000
20
0.000000
30
0.000000
71
89
72
33
73
34
0
VERTEX
8
0
6
CONTINUOUS
62
252
70
128
10
0.000000
20
0.000000
30
0.000000
71
89
72
34
73
88
0
VERTEX
8
0
6
CONTINUOUS
62
252
70
128
10
0.000000
20
0.000000
30
0.000000
71
88
72
34
73
35
0
VERTEX
8
0
6
CONTINUOUS
62
252
70
128
10
0.000000
20
0.000000
30
0.000000
71
88
72
35
73
87
0
VERTEX
8
0
6
CONTINUOUS
62
252
70
128
10
0.000000
20
0.000000
30
0.000000
71
87
72
35
73
36
0
VERTEX
8
0
6
CONTINUOUS
62
252
70
128
10
0.000000
20
0.000000
30
0.000000
71
87
72
36
73
86
0
VERTEX
8
0
6
CONTINUOUS
62
252
70
128
10
0.000000
20
0.000000
30
0.000000
71
86
72
36
73
37
0
VERTEX
8
0
6
CONTINUOUS
62
252
70
128
10
0.000000
20
0.000000
30
0.000000
71
86
72
37
73
85
0
VERTEX
8
0
6
CONTINUOUS
62
252
70
128
10
0.000000
20
0.000000
30
0.000000
71
85
72
37
73
38
0
VERTEX
8
0
6
CONTINUOUS
62
252
70
128
10
0.000000
20
0.000000
30
0.000000
71
85
72
38
73
84
0
VERTEX
8
0
6
CONTINUOUS
62
252
70
128
10
0.000000
20
0.000000
30
0.000000
71
84
72
38
73
39
0
VERTEX
8
0
6
CONTINUOUS
62
252
70
128
10
0.000000
20
0.000000
30
0.000000
71
84
72
39
73
83
0
VERTEX
8
0
6
CONTINUOUS
62
252
70
128
10
0.000000
20
0.000000
30
0.000000
71
83
72
39
73
40
0
VERTEX
8
0
6
CONTINUOUS
62
252
70
128
10
0.000000
20
0.000000
30
0.000000
71
83
72
40
73
82
0
VERTEX
8
0
6
CONTINUOUS
62
252
70
128
10
0.000000
20
0.000000
30
0.000000
71
82
72
40
73
41
0
VERTEX
8
0
6
CONTINUOUS
62
252
70
128
10
0.000000
20
0.000000
30
0.000000
71
82
72
41
73
81
0
VERTEX
8
0
6
CONTINUOUS
62
252
70
128
10
0.000000
20
0.000000
30
0.000000
71
81
72
41
73
42
0
VERTEX
8
0
6
CONTINUOUS
62
252
70
128
10
0.000000
20
0.000000
30
0.000000
71
81
72
42
73
80
0
VERTEX
8
0
6
CONTINUOUS
62
252
70
128
10
0.000000
20
0.000000
30
0.000000
71
80
72
42
73
43
0
VERTEX
8
0
6
CONTINUOUS
62
252
70
128
10
0.000000
20
0.000000
30
0.000000
71
80
72
43
73
79
0
VERTEX
8
0
6
CONTINUOUS
62
252
70
128
10
0.000000
20
0.000000
30
0.000000
71
79
72
43
73
44
0
VERTEX
8
0
6
CONTINUOUS
62
252
70
128
10
0.000000
20
0.000000
30
0.000000
71
79
72
44
73
78
0
VERTEX
8
0
6
CONTINUOUS
62
252
70
128
10
0.000000
20
0.000000
30
0.000000
71
78
72
44
73
45
0
VERTEX
8
0
6
CONTINUOUS
62
252
70
128
10
0.000000
20
0.000000
30
0.000000
71
78
72
45
73
77
0
VERTEX
8
0
6
CONTINUOUS
62
252
70
128
10
0.000000
20
0.000000
30
0.000000
71
77
72
45
73
46
0
VERTEX
8
0
6
CONTINUOUS
62
252
70
128
10
0.000000
20
0.000000
30
0.000000
71
77
72
46
73
76
0
VERTEX
8
0
6
CONTINUOUS
62
252
70
128
10
0.000000
20
0.000000
30
0.000000
71
76
72
46
73
47
0
SEQEND
0
POLYLINE
66
1
8
0
6
CONTINUOUS
62
252
70
64
75
0
10
0.000000
20
0.000000
30
0.000000
0
VERTEX
8
0
6
CONTINUOUS
62
252
70
192
10
1.295555
20
0.000000
30
-0.344010
0
VERTEX
8
0
6
CONTINUOUS
62
252
70
192
10
1.295555
20
0.035959
30
-0.342125
0
VERTEX
8
0
6
CONTINUOUS
62
252
70
192
10
1.295555
20
0.071524
30
-0.336492
0
VERTEX
8
0
6
CONTINUOUS
62
252
70
192
10
1.295555
20
0.106305
30
-0.327172
0
VERTEX
8
0
6
CONTINUOUS
62
252
70
192
10
1.295555
20
0.139921
30
-0.314268
0
VERTEX
8
0
6
CONTINUOUS
62
252
70
192
10
1.295555
20
0.172005
30
-0.297921
0
VERTEX
8
0
6
CONTINUOUS
62
252
70
192
10
1.295555
20
0.202204
30
-0.278310
0
VERTEX
8
0
6
CONTINUOUS
62
252
70
192
10
1.295555
20
0.230187
30
-0.255649
0
VERTEX
8
0
6
CONTINUOUS
62
252
70
192
10
1.295555
20
0.255649
30
-0.230187
0
VERTEX
8
0
6
CONTINUOUS
62
252
70
192
10
1.295555
20
0.278310
30
-0.202204
0
VERTEX
8
0
6
CONTINUOUS
62
252
70
192
10
1.295555
20
0.297921
30
-0.172005
0
VERTEX
8
0
6
CONTINUOUS
62
252
70
192
10
1.295555
20
0.314268
30
-0.139921
0
VERTEX
8
0
6
CONTINUOUS
62
252
70
192
10
1.295555
20
0.327172
30
-0.106305
0
VERTEX
8
0
6
CONTINUOUS
62
252
70
192
10
1.295555
20
0.336492
30
-0.071524
0
VERTEX
8
0
6
CONTINUOUS
62
252
70
192
10
1.295555
20
0.342125
30
-0.035959
0
VERTEX
8
0
6
CONTINUOUS
62
252
70
192
10
1.295555
20
0.344010
30
-0.000000
0
VERTEX
8
0
6
CONTINUOUS
62
252
70
192
10
1.295555
20
0.342125
30
0.035959
0
VERTEX
8
0
6
CONTINUOUS
62
252
70
192
10
1.295555
20
0.336492
30
0.071524
0
VERTEX
8
0
6
CONTINUOUS
62
252
70
192
10
1.295555
20
0.327172
30
0.106305
0
VERTEX
8
0
6
CONTINUOUS
62
252
70
192
10
1.295555
20
0.314268
30
0.139921
0
VERTEX
8
0
6
CONTINUOUS
62
252
70
192
10
1.295555
20
0.297921
30
0.172005
0
VERTEX
8
0
6
CONTINUOUS
62
252
70
192
10
1.295555
20
0.278310
30
0.202204
0
VERTEX
8
0
6
CONTINUOUS
62
252
70
192
10
1.295555
20
0.255649
30
0.230187
0
VERTEX
8
0
6
CONTINUOUS
62
252
70
192
10
1.295555
20
0.230187
30
0.255649
0
VERTEX
8
0
6
CONTINUOUS
62
252
70
192
10
1.295555
20
0.202204
30
0.278310
0
VERTEX
8
0
6
CONTINUOUS
62
252
70
192
10
1.295555
20
0.172005
30
0.297921
0
VERTEX
8
0
6
CONTINUOUS
62
252
70
192
10
1.295555
20
0.139921
30
0.314268
0
VERTEX
8
0
6
CONTINUOUS
62
252
70
192
10
1.295555
20
0.106305
30
0.327172
0
VERTEX
8
0
6
CONTINUOUS
62
252
70
192
10
1.295555
20
0.071524
30
0.336492
0
VERTEX
8
0
6
CONTINUOUS
62
252
70
192
10
1.295555
20
0.035959
30
0.342125
0
VERTEX
8
0
6
CONTINUOUS
62
252
70
192
10
1.295555
20
0.000000
30
0.344010
0
VERTEX
8
0
6
CONTINUOUS
62
252
70
192
10
1.295555
20
-0.035959
30
0.342125
0
VERTEX
8
0
6
CONTINUOUS
62
252
70
192
10
1.295555
20
-0.071524
30
0.336492
0
VERTEX
8
0
6
CONTINUOUS
62
252
70
192
10
1.295555
20
-0.106305
30
0.327172
0
VERTEX
8
0
6
CONTINUOUS
62
252
70
192
10
1.295555
20
-0.139921
30
0.314268
0
VERTEX
8
0
6
CONTINUOUS
62
252
70
192
10
1.295555
20
-0.172005
30
0.297921
0
VERTEX
8
0
6
CONTINUOUS
62
252
70
192
10
1.295555
20
-0.202204
30
0.278310
0
VERTEX
8
0
6
CONTINUOUS
62
252
70
192
10
1.295555
20
-0.230187
30
0.255649
0
VERTEX
8
0
6
CONTINUOUS
62
252
70
192
10
1.295555
20
-0.255649
30
0.230187
0
VERTEX
8
0
6
CONTINUOUS
62
252
70
192
10
1.295555
20
-0.278310
30
0.202204
0
VERTEX
8
0
6
CONTINUOUS
62
252
70
192
10
1.295555
20
-0.297921
30
0.172005
0
VERTEX
8
0
6
CONTINUOUS
62
252
70
192
10
1.295555
20
-0.314268
30
0.139921
0
VERTEX
8
0
6
CONTINUOUS
62
252
70
192
10
1.295555
20
-0.327172
30
0.106305
0
VERTEX
8
0
6
CONTINUOUS
62
252
70
192
10
1.295555
20
-0.336492
30
0.071524
0
VERTEX
8
0
6
CONTINUOUS
62
252
70
192
10
1.295555
20
-0.342125
30
0.035959
0
VERTEX
8
0
6
CONTINUOUS
62
252
70
192
10
1.295555
20
-0.344010
30
-0.000000
0
VERTEX
8
0
6
CONTINUOUS
62
252
70
192
10
1.295555
20
-0.342125
30
-0.035959
0
VERTEX
8
0
6
CONTINUOUS
62
252
70
192
10
1.295555
20
-0.336492
30
-0.071524
0
VERTEX
8
0
6
CONTINUOUS
62
252
70
192
10
1.295555
20
-0.327172
30
-0.106305
0
VERTEX
8
0
6
CONTINUOUS
62
252
70
192
10
1.295555
20
-0.314268
30
-0.139921
0
VERTEX
8
0
6
CONTINUOUS
62
252
70
192
10
1.295555
20
-0.297921
30
-0.172005
0
VERTEX
8
0
6
CONTINUOUS
62
252
70
192
10
1.295555
20
-0.278310
30
-0.202204
0
VERTEX
8
0
6
CONTINUOUS
62
252
70
192
10
1.295555
20
-0.255649
30
-0.230187
0
VERTEX
8
0
6
CONTINUOUS
62
252
70
192
10
1.295555
20
-0.230187
30
-0.255649
0
VERTEX
8
0
6
CONTINUOUS
62
252
70
192
10
1.295555
20
-0.202204
30
-0.278310
0
VERTEX
8
0
6
CONTINUOUS
62
252
70
192
10
1.295555
20
-0.172005
30
-0.297921
0
VERTEX
8
0
6
CONTINUOUS
62
252
70
192
10
1.295555
20
-0.139921
30
-0.314268
0
VERTEX
8
0
6
CONTINUOUS
62
252
70
192
10
1.295555
20
-0.106305
30
-0.327172
0
VERTEX
8
0
6
CONTINUOUS
62
252
70
192
10
1.295555
20
-0.071524
30
-0.336492
0
VERTEX
8
0
6
CONTINUOUS
62
252
70
192
10
1.295555
20
-0.035959
30
-0.342125
0
VERTEX
8
0
6
CONTINUOUS
62
252
70
192
10
1.146545
20
0.000000
30
-0.195000
0
VERTEX
8
0
6
CONTINUOUS
62
252
70
192
10
1.146545
20
-0.020383
30
-0.193932
0
VERTEX
8
0
6
CONTINUOUS
62
252
70
192
10
1.146545
20
-0.040543
30
-0.190739
0
VERTEX
8
0
6
CONTINUOUS
62
252
70
192
10
1.146545
20
-0.060258
30
-0.185456
0
VERTEX
8
0
6
CONTINUOUS
62
252
70
192
10
1.146545
20
-0.079314
30
-0.178141
0
VERTEX
8
0
6
CONTINUOUS
62
252
70
192
10
1.146545
20
-0.097500
30
-0.168875
0
VERTEX
8
0
6
CONTINUOUS
62
252
70
192
10
1.146545
20
-0.114618
30
-0.157758
0
VERTEX
8
0
6
CONTINUOUS
62
252
70
192
10
1.146545
20
-0.130480
30
-0.144913
0
VERTEX
8
0
6
CONTINUOUS
62
252
70
192
10
1.146545
20
-0.144913
30
-0.130480
0
VERTEX
8
0
6
CONTINUOUS
62
252
70
192
10
1.146545
20
-0.157758
30
-0.114618
0
VERTEX
8
0
6
CONTINUOUS
62
252
70
192
10
1.146545
20
-0.168875
30
-0.097500
0
VERTEX
8
0
6
CONTINUOUS
62
252
70
192
10
1.146545
20
-0.178141
30
-0.079314
0
VERTEX
8
0
6
CONTINUOUS
62
252
70
192
10
1.146545
20
-0.185456
30
-0.060258
0
VERTEX
8
0
6
CONTINUOUS
62
252
70
192
10
1.146545
20
-0.190739
30
-0.040543
0
VERTEX
8
0
6
CONTINUOUS
62
252
70
192
10
1.146545
20
-0.193932
30
-0.020383
0
VERTEX
8
0
6
CONTINUOUS
62
252
70
192
10
1.146545
20
-0.195000
30
-0.000000
0
VERTEX
8
0
6
CONTINUOUS
62
252
70
192
10
1.146545
20
-0.193932
30
0.020383
0
VERTEX
8
0
6
CONTINUOUS
62
252
70
192
10
1.146545
20
-0.190739
30
0.040543
0
VERTEX
8
0
6
CONTINUOUS
62
252
70
192
10
1.146545
20
-0.185456
30
0.060258
0
VERTEX
8
0
6
CONTINUOUS
62
252
70
192
10
1.146545
20
-0.178141
30
0.079314
0
VERTEX
8
0
6
CONTINUOUS
62
252
70
192
10
1.146545
20
-0.168875
30
0.097500
0
VERTEX
8
0
6
CONTINUOUS
62
252
70
192
10
1.146545
20
-0.157758
30
0.114618
0
VERTEX
8
0
6
CONTINUOUS
62
252
70
192
10
1.146545
20
-0.144913
30
0.130480
0
VERTEX
8
0
6
CONTINUOUS
62
252
70
192
10
1.146545
20
-0.130480
30
0.144913
0
VERTEX
8
0
6
CONTINUOUS
62
252
70
192
10
1.146545
20
-0.114618
30
0.157758
0
VERTEX
8
0
6
CONTINUOUS
62
252
70
192
10
1.146545
20
-0.097500
30
0.168875
0
VERTEX
8
0
6
CONTINUOUS
62
252
70
192
10
1.146545
20
-0.079314
30
0.178141
0
VERTEX
8
0
6
CONTINUOUS
62
252
70
192
10
1.146545
20
-0.060258
30
0.185456
0
VERTEX
8
0
6
CONTINUOUS
62
252
70
192
10
1.146545
20
-0.040543
30
0.190739
0
VERTEX
8
0
6
CONTINUOUS
62
252
70
192
10
1.146545
20
-0.020383
30
0.193932
0
VERTEX
8
0
6
CONTINUOUS
62
252
70
192
10
1.146545
20
0.000000
30
0.195000
0
VERTEX
8
0
6
CONTINUOUS
62
252
70
192
10
1.146545
20
0.020383
30
0.193932
0
VERTEX
8
0
6
CONTINUOUS
62
252
70
192
10
1.146545
20
0.040543
30
0.190739
0
VERTEX
8
0
6
CONTINUOUS
62
252
70
192
10
1.146545
20
0.060258
30
0.185456
0
VERTEX
8
0
6
CONTINUOUS
62
252
70
192
10
1.146545
20
0.079314
30
0.178141
0
VERTEX
8
0
6
CONTINUOUS
62
252
70
192
10
1.146545
20
0.097500
30
0.168875
0
VERTEX
8
0
6
CONTINUOUS
62
252
70
192
10
1.146545
20
0.114618
30
0.157758
0
VERTEX
8
0
6
CONTINUOUS
62
252
70
192
10
1.146545
20
0.130480
30
0.144913
0
VERTEX
8
0
6
CONTINUOUS
62
252
70
192
10
1.146545
20
0.144913
30
0.130480
0
VERTEX
8
0
6
CONTINUOUS
62
252
70
192
10
1.146545
20
0.157758
30
0.114618
0
VERTEX
8
0
6
CONTINUOUS
62
252
70
192
10
1.146545
20
0.168875
30
0.097500
0
VERTEX
8
0
6
CONTINUOUS
62
252
70
192
10
1.146545
20
0.178141
30
0.079314
0
VERTEX
8
0
6
CONTINUOUS
62
252
70
192
10
1.146545
20
0.185456
30
0.060258
0
VERTEX
8
0
6
CONTINUOUS
62
252
70
192
10
1.146545
20
0.190739
30
0.040543
0
VERTEX
8
0
6
CONTINUOUS
62
252
70
192
10
1.146545
20
0.193932
30
0.020383
0
VERTEX
8
0
6
CONTINUOUS
62
252
70
192
10
1.146545
20
0.195000
30
-0.000000
0
VERTEX
8
0
6
CONTINUOUS
62
252
70
192
10
1.146545
20
0.193932
30
-0.020383
0
VERTEX
8
0
6
CONTINUOUS
62
252
70
192
10
1.146545
20
0.190739
30
-0.040543
0
VERTEX
8
0
6
CONTINUOUS
62
252
70
192
10
1.146545
20
0.185456
30
-0.060258
0
VERTEX
8
0
6
CONTINUOUS
62
252
70
192
10
1.146545
20
0.178141
30
-0.079314
0
VERTEX
8
0
6
CONTINUOUS
62
252
70
192
10
1.146545
20
0.168875
30
-0.097500
0
VERTEX
8
0
6
CONTINUOUS
62
252
70
192
10
1.146545
20
0.157758
30
-0.114618
0
VERTEX
8
0
6
CONTINUOUS
62
252
70
192
10
1.146545
20
0.144913
30
-0.130480
0
VERTEX
8
0
6
CONTINUOUS
62
252
70
192
10
1.146545
20
0.130480
30
-0.144913
0
VERTEX
8
0
6
CONTINUOUS
62
252
70
192
10
1.146545
20
0.114618
30
-0.157758
0
VERTEX
8
0
6
CONTINUOUS
62
252
70
192
10
1.146545
20
0.097500
30
-0.168875
0
VERTEX
8
0
6
CONTINUOUS
62
252
70
192
10
1.146545
20
0.079314
30
-0.178141
0
VERTEX
8
0
6
CONTINUOUS
62
252
70
192
10
1.146545
20
0.060258
30
-0.185456
0
VERTEX
8
0
6
CONTINUOUS
62
252
70
192
10
1.146545
20
0.040543
30
-0.190739
0
VERTEX
8
0
6
CONTINUOUS
62
252
70
192
10
1.146545
20
0.020383
30
-0.193932
0
VERTEX
8
0
6
CONTINUOUS
62
252
70
128
10
0.000000
20
0.000000
30
0.000000
71
2
72
120
73
1
0
VERTEX
8
0
6
CONTINUOUS
62
252
70
128
10
0.000000
20
0.000000
30
0.000000
71
1
72
120
73
61
0
VERTEX
8
0
6
CONTINUOUS
62
252
70
128
10
0.000000
20
0.000000
30
0.000000
71
1
72
61
73
60
0
VERTEX
8
0
6
CONTINUOUS
62
252
70
128
10
0.000000
20
0.000000
30
0.000000
71
60
72
61
73
62
0
VERTEX
8
0
6
CONTINUOUS
62
252
70
128
10
0.000000
20
0.000000
30
0.000000
71
60
72
62
73
59
0
VERTEX
8
0
6
CONTINUOUS
62
252
70
128
10
0.000000
20
0.000000
30
0.000000
71
59
72
62
73
63
0
VERTEX
8
0
6
CONTINUOUS
62
252
70
128
10
0.000000
20
0.000000
30
0.000000
71
59
72
63
73
64
0
VERTEX
8
0
6
CONTINUOUS
62
252
70
128
10
0.000000
20
0.000000
30
0.000000
71
120
72
2
73
119
0
VERTEX
8
0
6
CONTINUOUS
62
252
70
128
10
0.000000
20
0.000000
30
0.000000
71
119
72
2
73
3
0
VERTEX
8
0
6
CONTINUOUS
62
252
70
128
10
0.000000
20
0.000000
30
0.000000
71
119
72
3
73
118
0
VERTEX
8
0
6
CONTINUOUS
62
252
70
128
10
0.000000
20
0.000000
30
0.000000
71
118
72
3
73
4
0
VERTEX
8
0
6
CONTINUOUS
62
252
70
128
10
0.000000
20
0.000000
30
0.000000
71
118
72
4
73
117
0
VERTEX
8
0
6
CONTINUOUS
62
252
70
128
10
0.000000
20
0.000000
30
0.000000
71
117
72
4
73
5
0
VERTEX
8
0
6
CONTINUOUS
62
252
70
128
10
0.000000
20
0.000000
30
0.000000
71
117
72
5
73
116
0
VERTEX
8
0
6
CONTINUOUS
62
252
70
128
10
0.000000
20
0.000000
30
0.000000
71
116
72
5
73
6
0
VERTEX
8
0
6
CONTINUOUS
62
252
70
128
10
0.000000
20
0.000000
30
0.000000
71
116
72
6
73
115
0
VERTEX
8
0
6
CONTINUOUS
62
252
70
128
10
0.000000
20
0.000000
30
0.000000
71
115
72
6
73
7
0
VERTEX
8
0
6
CONTINUOUS
62
252
70
128
10
0.000000
20
0.000000
30
0.000000
71
115
72
7
73
114
0
VERTEX
8
0
6
CONTINUOUS
62
252
70
128
10
0.000000
20
0.000000
30
0.000000
71
114
72
7
73
8
0
VERTEX
8
0
6
CONTINUOUS
62
252
70
128
10
0.000000
20
0.000000
30
0.000000
71
114
72
8
73
113
0
VERTEX
8
0
6
CONTINUOUS
62
252
70
128
10
0.000000
20
0.000000
30
0.000000
71
113
72
8
73
9
0
VERTEX
8
0
6
CONTINUOUS
62
252
70
128
10
0.000000
20
0.000000
30
0.000000
71
113
72
9
73
112
0
VERTEX
8
0
6
CONTINUOUS
62
252
70
128
10
0.000000
20
0.000000
30
0.000000
71
112
72
9
73
10
0
VERTEX
8
0
6
CONTINUOUS
62
252
70
128
10
0.000000
20
0.000000
30
0.000000
71
112
72
10
73
111
0
VERTEX
8
0
6
CONTINUOUS
62
252
70
128
10
0.000000
20
0.000000
30
0.000000
71
111
72
10
73
11
0
VERTEX
8
0
6
CONTINUOUS
62
252
70
128
10
0.000000
20
0.000000
30
0.000000
71
111
72
11
73
110
0
VERTEX
8
0
6
CONTINUOUS
62
252
70
128
10
0.000000
20
0.000000
30
0.000000
71
110
72
11
73
12
0
VERTEX
8
0
6
CONTINUOUS
62
252
70
128
10
0.000000
20
0.000000
30
0.000000
71
110
72
12
73
109
0
VERTEX
8
0
6
CONTINUOUS
62
252
70
128
10
0.000000
20
0.000000
30
0.000000
71
109
72
12
73
13
0
VERTEX
8
0
6
CONTINUOUS
62
252
70
128
10
0.000000
20
0.000000
30
0.000000
71
109
72
13
73
108
0
VERTEX
8
0
6
CONTINUOUS
62
252
70
128
10
0.000000
20
0.000000
30
0.000000
71
108
72
13
73
14
0
VERTEX
8
0
6
CONTINUOUS
62
252
70
128
10
0.000000
20
0.000000
30
0.000000
71
108
72
14
73
107
0
VERTEX
8
0
6
CONTINUOUS
62
252
70
128
10
0.000000
20
0.000000
30
0.000000
71
107
72
14
73
15
0
VERTEX
8
0
6
CONTINUOUS
62
252
70
128
10
0.000000
20
0.000000
30
0.000000
71
107
72
15
73
106
0
VERTEX
8
0
6
CONTINUOUS
62
252
70
128
10
0.000000
20
0.000000
30
0.000000
71
106
72
15
73
16
0
VERTEX
8
0
6
CONTINUOUS
62
252
70
128
10
0.000000
20
0.000000
30
0.000000
71
106
72
16
73
105
0
VERTEX
8
0
6
CONTINUOUS
62
252
70
128
10
0.000000
20
0.000000
30
0.000000
71
105
72
16
73
17
0
VERTEX
8
0
6
CONTINUOUS
62
252
70
128
10
0.000000
20
0.000000
30
0.000000
71
105
72
17
73
104
0
VERTEX
8
0
6
CONTINUOUS
62
252
70
128
10
0.000000
20
0.000000
30
0.000000
71
104
72
17
73
18
0
VERTEX
8
0
6
CONTINUOUS
62
252
70
128
10
0.000000
20
0.000000
30
0.000000
71
104
72
18
73
103
0
VERTEX
8
0
6
CONTINUOUS
62
252
70
128
10
0.000000
20
0.000000
30
0.000000
71
103
72
18
73
19
0
VERTEX
8
0
6
CONTINUOUS
62
252
70
128
10
0.000000
20
0.000000
30
0.000000
71
103
72
19
73
102
0
VERTEX
8
0
6
CONTINUOUS
62
252
70
128
10
0.000000
20
0.000000
30
0.000000
71
102
72
19
73
20
0
VERTEX
8
0
6
CONTINUOUS
62
252
70
128
10
0.000000
20
0.000000
30
0.000000
71
102
72
20
73
101
0
VERTEX
8
0
6
CONTINUOUS
62
252
70
128
10
0.000000
20
0.000000
30
0.000000
71
101
72
20
73
21
0
VERTEX
8
0
6
CONTINUOUS
62
252
70
128
10
0.000000
20
0.000000
30
0.000000
71
101
72
21
73
100
0
VERTEX
8
0
6
CONTINUOUS
62
252
70
128
10
0.000000
20
0.000000
30
0.000000
71
100
72
21
73
22
0
VERTEX
8
0
6
CONTINUOUS
62
252
70
128
10
0.000000
20
0.000000
30
0.000000
71
100
72
22
73
23
0
VERTEX
8
0
6
CONTINUOUS
62
252
70
128
10
0.000000
20
0.000000
30
0.000000
71
100
72
23
73
99
0
VERTEX
8
0
6
CONTINUOUS
62
252
70
128
10
0.000000
20
0.000000
30
0.000000
71
99
72
23
73
24
0
VERTEX
8
0
6
CONTINUOUS
62
252
70
128
10
0.000000
20
0.000000
30
0.000000
71
99
72
24
73
98
0
VERTEX
8
0
6
CONTINUOUS
62
252
70
128
10
0.000000
20
0.000000
30
0.000000
71
98
72
24
73
97
0
VERTEX
8
0
6
CONTINUOUS
62
252
70
128
10
0.000000
20
0.000000
30
0.000000
71
97
72
24
73
25
0
VERTEX
8
0
6
CONTINUOUS
62
252
70
128
10
0.000000
20
0.000000
30
0.000000
71
97
72
25
73
26
0
VERTEX
8
0
6
CONTINUOUS
62
252
70
128
10
0.000000
20
0.000000
30
0.000000
71
27
72
95
73
26
0
VERTEX
8
0
6
CONTINUOUS
62
252
70
128
10
0.000000
20
0.000000
30
0.000000
71
26
72
95
73
96
0
VERTEX
8
0
6
CONTINUOUS
62
252
70
128
10
0.000000
20
0.000000
30
0.000000
71
26
72
96
73
97
0
VERTEX
8
0
6
CONTINUOUS
62
252
70
128
10
0.000000
20
0.000000
30
0.000000
71
95
72
27
73
94
0
VERTEX
8
0
6
CONTINUOUS
62
252
70
128
10
0.000000
20
0.000000
30
0.000000
71
94
72
27
73
28
0
VERTEX
8
0
6
CONTINUOUS
62
252
70
128
10
0.000000
20
0.000000
30
0.000000
71
94
72
28
73
93
0
VERTEX
8
0
6
CONTINUOUS
62
252
70
128
10
0.000000
20
0.000000
30
0.000000
71
93
72
28
73
29
0
VERTEX
8
0
6
CONTINUOUS
62
252
70
128
10
0.000000
20
0.000000
30
0.000000
71
93
72
29
73
92
0
VERTEX
8
0
6
CONTINUOUS
62
252
70
128
10
0.000000
20
0.000000
30
0.000000
71
92
72
29
73
30
0
VERTEX
8
0
6
CONTINUOUS
62
252
70
128
10
0.000000
20
0.000000
30
0.000000
71
92
72
30
73
91
0
VERTEX
8
0
6
CONTINUOUS
62
252
70
128
10
0.000000
20
0.000000
30
0.000000
71
91
72
30
73
31
0
VERTEX
8
0
6
CONTINUOUS
62
252
70
128
10
0.000000
20
0.000000
30
0.000000
71
91
72
31
73
90
0
VERTEX
8
0
6
CONTINUOUS
62
252
70
128
10
0.000000
20
0.000000
30
0.000000
71
90
72
31
73
32
0
VERTEX
8
0
6
CONTINUOUS
62
252
70
128
10
0.000000
20
0.000000
30
0.000000
71
90
72
32
73
89
0
VERTEX
8
0
6
CONTINUOUS
62
252
70
128
10
0.000000
20
0.000000
30
0.000000
71
89
72
32
73
33
0
VERTEX
8
0
6
CONTINUOUS
62
252
70
128
10
0.000000
20
0.000000
30
0.000000
71
89
72
33
73
88
0
VERTEX
8
0
6
CONTINUOUS
62
252
70
128
10
0.000000
20
0.000000
30
0.000000
71
88
72
33
73
34
0
VERTEX
8
0
6
CONTINUOUS
62
252
70
128
10
0.000000
20
0.000000
30
0.000000
71
88
72
34
73
87
0
VERTEX
8
0
6
CONTINUOUS
62
252
70
128
10
0.000000
20
0.000000
30
0.000000
71
87
72
34
73
35
0
VERTEX
8
0
6
CONTINUOUS
62
252
70
128
10
0.000000
20
0.000000
30
0.000000
71
87
72
35
73
86
0
VERTEX
8
0
6
CONTINUOUS
62
252
70
128
10
0.000000
20
0.000000
30
0.000000
71
86
72
35
73
36
0
VERTEX
8
0
6
CONTINUOUS
62
252
70
128
10
0.000000
20
0.000000
30
0.000000
71
86
72
36
73
37
0
VERTEX
8
0
6
CONTINUOUS
62
252
70
128
10
0.000000
20
0.000000
30
0.000000
71
38
72
84
73
37
0
VERTEX
8
0
6
CONTINUOUS
62
252
70
128
10
0.000000
20
0.000000
30
0.000000
71
37
72
84
73
85
0
VERTEX
8
0
6
CONTINUOUS
62
252
70
128
10
0.000000
20
0.000000
30
0.000000
71
37
72
85
73
86
0
VERTEX
8
0
6
CONTINUOUS
62
252
70
128
10
0.000000
20
0.000000
30
0.000000
71
84
72
38
73
83
0
VERTEX
8
0
6
CONTINUOUS
62
252
70
128
10
0.000000
20
0.000000
30
0.000000
71
83
72
38
73
39
0
VERTEX
8
0
6
CONTINUOUS
62
252
70
128
10
0.000000
20
0.000000
30
0.000000
71
83
72
39
73
82
0
VERTEX
8
0
6
CONTINUOUS
62
252
70
128
10
0.000000
20
0.000000
30
0.000000
71
82
72
39
73
40
0
VERTEX
8
0
6
CONTINUOUS
62
252
70
128
10
0.000000
20
0.000000
30
0.000000
71
82
72
40
73
81
0
VERTEX
8
0
6
CONTINUOUS
62
252
70
128
10
0.000000
20
0.000000
30
0.000000
71
81
72
40
73
41
0
VERTEX
8
0
6
CONTINUOUS
62
252
70
128
10
0.000000
20
0.000000
30
0.000000
71
81
72
41
73
80
0
VERTEX
8
0
6
CONTINUOUS
62
252
70
128
10
0.000000
20
0.000000
30
0.000000
71
80
72
41
73
42
0
VERTEX
8
0
6
CONTINUOUS
62
252
70
128
10
0.000000
20
0.000000
30
0.000000
71
80
72
42
73
79
0
VERTEX
8
0
6
CONTINUOUS
62
252
70
128
10
0.000000
20
0.000000
30
0.000000
71
79
72
42
73
43
0
VERTEX
8
0
6
CONTINUOUS
62
252
70
128
10
0.000000
20
0.000000
30
0.000000
71
79
72
43
73
78
0
VERTEX
8
0
6
CONTINUOUS
62
252
70
128
10
0.000000
20
0.000000
30
0.000000
71
78
72
43
73
44
0
VERTEX
8
0
6
CONTINUOUS
62
252
70
128
10
0.000000
20
0.000000
30
0.000000
71
78
72
44
73
77
0
VERTEX
8
0
6
CONTINUOUS
62
252
70
128
10
0.000000
20
0.000000
30
0.000000
71
77
72
44
73
45
0
VERTEX
8
0
6
CONTINUOUS
62
252
70
128
10
0.000000
20
0.000000
30
0.000000
71
77
72
45
73
76
0
VERTEX
8
0
6
CONTINUOUS
62
252
70
128
10
0.000000
20
0.000000
30
0.000000
71
76
72
45
73
46
0
VERTEX
8
0
6
CONTINUOUS
62
252
70
128
10
0.000000
20
0.000000
30
0.000000
71
76
72
46
73
75
0
VERTEX
8
0
6
CONTINUOUS
62
252
70
128
10
0.000000
20
0.000000
30
0.000000
71
75
72
46
73
47
0
VERTEX
8
0
6
CONTINUOUS
62
252
70
128
10
0.000000
20
0.000000
30
0.000000
71
75
72
47
73
74
0
VERTEX
8
0
6
CONTINUOUS
62
252
70
128
10
0.000000
20
0.000000
30
0.000000
71
74
72
47
73
48
0
VERTEX
8
0
6
CONTINUOUS
62
252
70
128
10
0.000000
20
0.000000
30
0.000000
71
74
72
48
73
73
0
VERTEX
8
0
6
CONTINUOUS
62
252
70
128
10
0.000000
20
0.000000
30
0.000000
71
73
72
48
73
49
0
VERTEX
8
0
6
CONTINUOUS
62
252
70
128
10
0.000000
20
0.000000
30
0.000000
71
73
72
49
73
72
0
VERTEX
8
0
6
CONTINUOUS
62
252
70
128
10
0.000000
20
0.000000
30
0.000000
71
72
72
49
73
50
0
VERTEX
8
0
6
CONTINUOUS
62
252
70
128
10
0.000000
20
0.000000
30
0.000000
71
72
72
50
73
71
0
VERTEX
8
0
6
CONTINUOUS
62
252
70
128
10
0.000000
20
0.000000
30
0.000000
71
71
72
50
73
51
0
VERTEX
8
0
6
CONTINUOUS
62
252
70
128
10
0.000000
20
0.000000
30
0.000000
71
71
72
51
73
70
0
VERTEX
8
0
6
CONTINUOUS
62
252
70
128
10
0.000000
20
0.000000
30
0.000000
71
70
72
51
73
52
0
VERTEX
8
0
6
CONTINUOUS
62
252
70
128
10
0.000000
20
0.000000
30
0.000000
71
70
72
52
73
69
0
VERTEX
8
0
6
CONTINUOUS
62
252
70
128
10
0.000000
20
0.000000
30
0.000000
71
69
72
52
73
53
0
VERTEX
8
0
6
CONTINUOUS
62
252
70
128
10
0.000000
20
0.000000
30
0.000000
71
69
72
53
73
68
0
VERTEX
8
0
6
CONTINUOUS
62
252
70
128
10
0.000000
20
0.000000
30
0.000000
71
68
72
53
73
54
0
VERTEX
8
0
6
CONTINUOUS
62
252
70
128
10
0.000000
20
0.000000
30
0.000000
71
68
72
54
73
67
0
VERTEX
8
0
6
CONTINUOUS
62
252
70
128
10
0.000000
20
0.000000
30
0.000000
71
67
72
54
73
55
0
VERTEX
8
0
6
CONTINUOUS
62
252
70
128
10
0.000000
20
0.000000
30
0.000000
71
67
72
55
73
56
0
VERTEX
8
0
6
CONTINUOUS
62
252
70
128
10
0.000000
20
0.000000
30
0.000000
71
57
72
65
73
56
0
VERTEX
8
0
6
CONTINUOUS
62
252
70
128
10
0.000000
20
0.000000
30
0.000000
71
56
72
65
73
66
0
VERTEX
8
0
6
CONTINUOUS
62
252
70
128
10
0.000000
20
0.000000
30
0.000000
71
56
72
66
73
67
0
VERTEX
8
0
6
CONTINUOUS
62
252
70
128
10
0.000000
20
0.000000
30
0.000000
71
57
72
58
73
65
0
VERTEX
8
0
6
CONTINUOUS
62
252
70
128
10
0.000000
20
0.000000
30
0.000000
71
65
72
58
73
64
0
VERTEX
8
0
6
CONTINUOUS
62
252
70
128
10
0.000000
20
0.000000
30
0.000000
71
64
72
58
73
59
0
SEQEND
0
POLYLINE
66
1
8
0
6
CONTINUOUS
62
252
70
64
75
0
10
0.000000
20
0.000000
30
0.000000
0
VERTEX
8
0
6
CONTINUOUS
62
252
70
192
10
1.375700
20
0.000000
30
0.344010
0
VERTEX
8
0
6
CONTINUOUS
62
252
70
192
10
1.375700
20
-0.035959
30
0.342125
0
VERTEX
8
0
6
CONTINUOUS
62
252
70
192
10
1.375700
20
-0.071524
30
0.336492
0
VERTEX
8
0
6
CONTINUOUS
62
252
70
192
10
1.375700
20
-0.106305
30
0.327172
0
VERTEX
8
0
6
CONTINUOUS
62
252
70
192
10
1.375700
20
-0.139921
30
0.314268
0
VERTEX
8
0
6
CONTINUOUS
62
252
70
192
10
1.375700
20
-0.172005
30
0.297921
0
VERTEX
8
0
6
CONTINUOUS
62
252
70
192
10
1.375700
20
-0.202204
30
0.278310
0
VERTEX
8
0
6
CONTINUOUS
62
252
70
192
10
1.375700
20
-0.230187
30
0.255649
0
VERTEX
8
0
6
CONTINUOUS
62
252
70
192
10
1.375700
20
-0.255649
30
0.230187
0
VERTEX
8
0
6
CONTINUOUS
62
252
70
192
10
1.375700
20
-0.278310
30
0.202204
0
VERTEX
8
0
6
CONTINUOUS
62
252
70
192
10
1.375700
20
-0.297921
30
0.172005
0
VERTEX
8
0
6
CONTINUOUS
62
252
70
192
10
1.375700
20
-0.314268
30
0.139921
0
VERTEX
8
0
6
CONTINUOUS
62
252
70
192
10
1.375700
20
-0.327172
30
0.106305
0
VERTEX
8
0
6
CONTINUOUS
62
252
70
192
10
1.375700
20
-0.336492
30
0.071524
0
VERTEX
8
0
6
CONTINUOUS
62
252
70
192
10
1.375700
20
-0.342125
30
0.035959
0
VERTEX
8
0
6
CONTINUOUS
62
252
70
192
10
1.375700
20
-0.344010
30
0.000000
0
VERTEX
8
0
6
CONTINUOUS
62
252
70
192
10
1.375700
20
-0.342125
30
-0.035959
0
VERTEX
8
0
6
CONTINUOUS
62
252
70
192
10
1.375700
20
-0.336492
30
-0.071524
0
VERTEX
8
0
6
CONTINUOUS
62
252
70
192
10
1.375700
20
-0.327172
30
-0.106305
0
VERTEX
8
0
6
CONTINUOUS
62
252
70
192
10
1.375700
20
-0.314268
30
-0.139921
0
VERTEX
8
0
6
CONTINUOUS
62
252
70
192
10
1.375700
20
-0.297921
30
-0.172005
0
VERTEX
8
0
6
CONTINUOUS
62
252
70
192
10
1.375700
20
-0.278310
30
-0.202204
0
VERTEX
8
0
6
CONTINUOUS
62
252
70
192
10
1.375700
20
-0.255649
30
-0.230187
0
VERTEX
8
0
6
CONTINUOUS
62
252
70
192
10
1.375700
20
-0.230187
30
-0.255649
0
VERTEX
8
0
6
CONTINUOUS
62
252
70
192
10
1.375700
20
-0.202204
30
-0.278310
0
VERTEX
8
0
6
CONTINUOUS
62
252
70
192
10
1.375700
20
-0.172005
30
-0.297921
0
VERTEX
8
0
6
CONTINUOUS
62
252
70
192
10
1.375700
20
-0.139921
30
-0.314268
0
VERTEX
8
0
6
CONTINUOUS
62
252
70
192
10
1.375700
20
-0.106305
30
-0.327172
0
VERTEX
8
0
6
CONTINUOUS
62
252
70
192
10
1.375700
20
-0.071524
30
-0.336492
0
VERTEX
8
0
6
CONTINUOUS
62
252
70
192
10
1.375700
20
-0.035959
30
-0.342125
0
VERTEX
8
0
6
CONTINUOUS
62
252
70
192
10
1.375700
20
-0.000000
30
-0.344010
0
VERTEX
8
0
6
CONTINUOUS
62
252
70
192
10
1.375700
20
0.035959
30
-0.342125
0
VERTEX
8
0
6
CONTINUOUS
62
252
70
192
10
1.375700
20
0.071524
30
-0.336492
0
VERTEX
8
0
6
CONTINUOUS
62
252
70
192
10
1.375700
20
0.106305
30
-0.327172
0
VERTEX
8
0
6
CONTINUOUS
62
252
70
192
10
1.375700
20
0.139921
30
-0.314268
0
VERTEX
8
0
6
CONTINUOUS
62
252
70
192
10
1.375700
20
0.172005
30
-0.297921
0
VERTEX
8
0
6
CONTINUOUS
62
252
70
192
10
1.375700
20
0.202204
30
-0.278310
0
VERTEX
8
0
6
CONTINUOUS
62
252
70
192
10
1.375700
20
0.230187
30
-0.255649
0
VERTEX
8
0
6
CONTINUOUS
62
252
70
192
10
1.375700
20
0.255649
30
-0.230187
0
VERTEX
8
0
6
CONTINUOUS
62
252
70
192
10
1.375700
20
0.278310
30
-0.202204
0
VERTEX
8
0
6
CONTINUOUS
62
252
70
192
10
1.375700
20
0.297921
30
-0.172005
0
VERTEX
8
0
6
CONTINUOUS
62
252
70
192
10
1.375700
20
0.314268
30
-0.139921
0
VERTEX
8
0
6
CONTINUOUS
62
252
70
192
10
1.375700
20
0.327172
30
-0.106305
0
VERTEX
8
0
6
CONTINUOUS
62
252
70
192
10
1.375700
20
0.336492
30
-0.071524
0
VERTEX
8
0
6
CONTINUOUS
62
252
70
192
10
1.375700
20
0.342125
30
-0.035959
0
VERTEX
8
0
6
CONTINUOUS
62
252
70
192
10
1.375700
20
0.344010
30
-0.000000
0
VERTEX
8
0
6
CONTINUOUS
62
252
70
192
10
1.375700
20
0.342125
30
0.035959
0
VERTEX
8
0
6
CONTINUOUS
62
252
70
192
10
1.375700
20
0.336492
30
0.071524
0
VERTEX
8
0
6
CONTINUOUS
62
252
70
192
10
1.375700
20
0.327172
30
0.106305
0
VERTEX
8
0
6
CONTINUOUS
62
252
70
192
10
1.375700
20
0.314268
30
0.139921
0
VERTEX
8
0
6
CONTINUOUS
62
252
70
192
10
1.375700
20
0.297921
30
0.172005
0
VERTEX
8
0
6
CONTINUOUS
62
252
70
192
10
1.375700
20
0.278310
30
0.202204
0
VERTEX
8
0
6
CONTINUOUS
62
252
70
192
10
1.375700
20
0.255649
30
0.230187
0
VERTEX
8
0
6
CONTINUOUS
62
252
70
192
10
1.375700
20
0.230187
30
0.255649
0
VERTEX
8
0
6
CONTINUOUS
62
252
70
192
10
1.375700
20
0.202204
30
0.278310
0
VERTEX
8
0
6
CONTINUOUS
62
252
70
192
10
1.375700
20
0.172005
30
0.297921
0
VERTEX
8
0
6
CONTINUOUS
62
252
70
192
10
1.375700
20
0.139921
30
0.314268
0
VERTEX
8
0
6
CONTINUOUS
62
252
70
192
10
1.375700
20
0.106305
30
0.327172
0
VERTEX
8
0
6
CONTINUOUS
62
252
70
192
10
1.375700
20
0.071524
30
0.336492
0
VERTEX
8
0
6
CONTINUOUS
62
252
70
192
10
1.375700
20
0.035959
30
0.342125
0
VERTEX
8
0
6
CONTINUOUS
62
252
70
192
10
1.295555
20
0.000000
30
-0.344010
0
VERTEX
8
0
6
CONTINUOUS
62
252
70
192
10
1.295555
20
-0.035959
30
-0.342125
0
VERTEX
8
0
6
CONTINUOUS
62
252
70
192
10
1.295555
20
-0.071524
30
-0.336492
0
VERTEX
8
0
6
CONTINUOUS
62
252
70
192
10
1.295555
20
-0.106305
30
-0.327172
0
VERTEX
8
0
6
CONTINUOUS
62
252
70
192
10
1.295555
20
-0.139921
30
-0.314268
0
VERTEX
8
0
6
CONTINUOUS
62
252
70
192
10
1.295555
20
-0.172005
30
-0.297921
0
VERTEX
8
0
6
CONTINUOUS
62
252
70
192
10
1.295555
20
-0.202204
30
-0.278310
0
VERTEX
8
0
6
CONTINUOUS
62
252
70
192
10
1.295555
20
-0.230187
30
-0.255649
0
VERTEX
8
0
6
CONTINUOUS
62
252
70
192
10
1.295555
20
-0.255649
30
-0.230187
0
VERTEX
8
0
6
CONTINUOUS
62
252
70
192
10
1.295555
20
-0.278310
30
-0.202204
0
VERTEX
8
0
6
CONTINUOUS
62
252
70
192
10
1.295555
20
-0.297921
30
-0.172005
0
VERTEX
8
0
6
CONTINUOUS
62
252
70
192
10
1.295555
20
-0.314268
30
-0.139921
0
VERTEX
8
0
6
CONTINUOUS
62
252
70
192
10
1.295555
20
-0.327172
30
-0.106305
0
VERTEX
8
0
6
CONTINUOUS
62
252
70
192
10
1.295555
20
-0.336492
30
-0.071524
0
VERTEX
8
0
6
CONTINUOUS
62
252
70
192
10
1.295555
20
-0.342125
30
-0.035959
0
VERTEX
8
0
6
CONTINUOUS
62
252
70
192
10
1.295555
20
-0.344010
30
-0.000000
0
VERTEX
8
0
6
CONTINUOUS
62
252
70
192
10
1.295555
20
-0.342125
30
0.035959
0
VERTEX
8
0
6
CONTINUOUS
62
252
70
192
10
1.295555
20
-0.336492
30
0.071524
0
VERTEX
8
0
6
CONTINUOUS
62
252
70
192
10
1.295555
20
-0.327172
30
0.106305
0
VERTEX
8
0
6
CONTINUOUS
62
252
70
192
10
1.295555
20
-0.314268
30
0.139921
0
VERTEX
8
0
6
CONTINUOUS
62
252
70
192
10
1.295555
20
-0.297921
30
0.172005
0
VERTEX
8
0
6
CONTINUOUS
62
252
70
192
10
1.295555
20
-0.278310
30
0.202204
0
VERTEX
8
0
6
CONTINUOUS
62
252
70
192
10
1.295555
20
-0.255649
30
0.230187
0
VERTEX
8
0
6
CONTINUOUS
62
252
70
192
10
1.295555
20
-0.230187
30
0.255649
0
VERTEX
8
0
6
CONTINUOUS
62
252
70
192
10
1.295555
20
-0.202204
30
0.278310
0
VERTEX
8
0
6
CONTINUOUS
62
252
70
192
10
1.295555
20
-0.172005
30
0.297921
0
VERTEX
8
0
6
CONTINUOUS
62
252
70
192
10
1.295555
20
-0.139921
30
0.314268
0
VERTEX
8
0
6
CONTINUOUS
62
252
70
192
10
1.295555
20
-0.106305
30
0.327172
0
VERTEX
8
0
6
CONTINUOUS
62
252
70
192
10
1.295555
20
-0.071524
30
0.336492
0
VERTEX
8
0
6
CONTINUOUS
62
252
70
192
10
1.295555
20
-0.035959
30
0.342125
0
VERTEX
8
0
6
CONTINUOUS
62
252
70
192
10
1.295555
20
0.000000
30
0.344010
0
VERTEX
8
0
6
CONTINUOUS
62
252
70
192
10
1.295555
20
0.035959
30
0.342125
0
VERTEX
8
0
6
CONTINUOUS
62
252
70
192
10
1.295555
20
0.071524
30
0.336492
0
VERTEX
8
0
6
CONTINUOUS
62
252
70
192
10
1.295555
20
0.106305
30
0.327172
0
VERTEX
8
0
6
CONTINUOUS
62
252
70
192
10
1.295555
20
0.139921
30
0.314268
0
VERTEX
8
0
6
CONTINUOUS
62
252
70
192
10
1.295555
20
0.172005
30
0.297921
0
VERTEX
8
0
6
CONTINUOUS
62
252
70
192
10
1.295555
20
0.202204
30
0.278310
0
VERTEX
8
0
6
CONTINUOUS
62
252
70
192
10
1.295555
20
0.230187
30
0.255649
0
VERTEX
8
0
6
CONTINUOUS
62
252
70
192
10
1.295555
20
0.255649
30
0.230187
0
VERTEX
8
0
6
CONTINUOUS
62
252
70
192
10
1.295555
20
0.278310
30
0.202204
0
VERTEX
8
0
6
CONTINUOUS
62
252
70
192
10
1.295555
20
0.297921
30
0.172005
0
VERTEX
8
0
6
CONTINUOUS
62
252
70
192
10
1.295555
20
0.314268
30
0.139921
0
VERTEX
8
0
6
CONTINUOUS
62
252
70
192
10
1.295555
20
0.327172
30
0.106305
0
VERTEX
8
0
6
CONTINUOUS
62
252
70
192
10
1.295555
20
0.336492
30
0.071524
0
VERTEX
8
0
6
CONTINUOUS
62
252
70
192
10
1.295555
20
0.342125
30
0.035959
0
VERTEX
8
0
6
CONTINUOUS
62
252
70
192
10
1.295555
20
0.344010
30
-0.000000
0
VERTEX
8
0
6
CONTINUOUS
62
252
70
192
10
1.295555
20
0.342125
30
-0.035959
0
VERTEX
8
0
6
CONTINUOUS
62
252
70
192
10
1.295555
20
0.336492
30
-0.071524
0
VERTEX
8
0
6
CONTINUOUS
62
252
70
192
10
1.295555
20
0.327172
30
-0.106305
0
VERTEX
8
0
6
CONTINUOUS
62
252
70
192
10
1.295555
20
0.314268
30
-0.139921
0
VERTEX
8
0
6
CONTINUOUS
62
252
70
192
10
1.295555
20
0.297921
30
-0.172005
0
VERTEX
8
0
6
CONTINUOUS
62
252
70
192
10
1.295555
20
0.278310
30
-0.202204
0
VERTEX
8
0
6
CONTINUOUS
62
252
70
192
10
1.295555
20
0.255649
30
-0.230187
0
VERTEX
8
0
6
CONTINUOUS
62
252
70
192
10
1.295555
20
0.230187
30
-0.255649
0
VERTEX
8
0
6
CONTINUOUS
62
252
70
192
10
1.295555
20
0.202204
30
-0.278310
0
VERTEX
8
0
6
CONTINUOUS
62
252
70
192
10
1.295555
20
0.172005
30
-0.297921
0
VERTEX
8
0
6
CONTINUOUS
62
252
70
192
10
1.295555
20
0.139921
30
-0.314268
0
VERTEX
8
0
6
CONTINUOUS
62
252
70
192
10
1.295555
20
0.106305
30
-0.327172
0
VERTEX
8
0
6
CONTINUOUS
62
252
70
192
10
1.295555
20
0.071524
30
-0.336492
0
VERTEX
8
0
6
CONTINUOUS
62
252
70
192
10
1.295555
20
0.035959
30
-0.342125
0
VERTEX
8
0
6
CONTINUOUS
62
252
70
128
10
0.000000
20
0.000000
30
0.000000
71
2
72
91
73
1
0
VERTEX
8
0
6
CONTINUOUS
62
252
70
128
10
0.000000
20
0.000000
30
0.000000
71
1
72
91
73
92
0
VERTEX
8
0
6
CONTINUOUS
62
252
70
128
10
0.000000
20
0.000000
30
0.000000
71
1
72
92
73
60
0
VERTEX
8
0
6
CONTINUOUS
62
252
70
128
10
0.000000
20
0.000000
30
0.000000
71
60
72
92
73
93
0
VERTEX
8
0
6
CONTINUOUS
62
252
70
128
10
0.000000
20
0.000000
30
0.000000
71
60
72
93
73
59
0
VERTEX
8
0
6
CONTINUOUS
62
252
70
128
10
0.000000
20
0.000000
30
0.000000
71
59
72
93
73
94
0
VERTEX
8
0
6
CONTINUOUS
62
252
70
128
10
0.000000
20
0.000000
30
0.000000
71
59
72
94
73
58
0
VERTEX
8
0
6
CONTINUOUS
62
252
70
128
10
0.000000
20
0.000000
30
0.000000
71
58
72
94
73
95
0
VERTEX
8
0
6
CONTINUOUS
62
252
70
128
10
0.000000
20
0.000000
30
0.000000
71
58
72
95
73
57
0
VERTEX
8
0
6
CONTINUOUS
62
252
70
128
10
0.000000
20
0.000000
30
0.000000
71
57
72
95
73
96
0
VERTEX
8
0
6
CONTINUOUS
62
252
70
128
10
0.000000
20
0.000000
30
0.000000
71
57
72
96
73
56
0
VERTEX
8
0
6
CONTINUOUS
62
252
70
128
10
0.000000
20
0.000000
30
0.000000
71
56
72
96
73
97
0
VERTEX
8
0
6
CONTINUOUS
62
252
70
128
10
0.000000
20
0.000000
30
0.000000
71
56
72
97
73
55
0
VERTEX
8
0
6
CONTINUOUS
62
252
70
128
10
0.000000
20
0.000000
30
0.000000
71
55
72
97
73
98
0
VERTEX
8
0
6
CONTINUOUS
62
252
70
128
10
0.000000
20
0.000000
30
0.000000
71
55
72
98
73
54
0
VERTEX
8
0
6
CONTINUOUS
62
252
70
128
10
0.000000
20
0.000000
30
0.000000
71
54
72
98
73
99
0
VERTEX
8
0
6
CONTINUOUS
62
252
70
128
10
0.000000
20
0.000000
30
0.000000
71
54
72
99
73
53
0
VERTEX
8
0
6
CONTINUOUS
62
252
70
128
10
0.000000
20
0.000000
30
0.000000
71
53
72
99
73
100
0
VERTEX
8
0
6
CONTINUOUS
62
252
70
128
10
0.000000
20
0.000000
30
0.000000
71
53
72
100
73
52
0
VERTEX
8
0
6
CONTINUOUS
62
252
70
128
10
0.000000
20
0.000000
30
0.000000
71
52
72
100
73
101
0
VERTEX
8
0
6
CONTINUOUS
62
252
70
128
10
0.000000
20
0.000000
30
0.000000
71
52
72
101
73
51
0
VERTEX
8
0
6
CONTINUOUS
62
252
70
128
10
0.000000
20
0.000000
30
0.000000
71
51
72
101
73
102
0
VERTEX
8
0
6
CONTINUOUS
62
252
70
128
10
0.000000
20
0.000000
30
0.000000
71
51
72
102
73
50
0
VERTEX
8
0
6
CONTINUOUS
62
252
70
128
10
0.000000
20
0.000000
30
0.000000
71
50
72
102
73
103
0
VERTEX
8
0
6
CONTINUOUS
62
252
70
128
10
0.000000
20
0.000000
30
0.000000
71
50
72
103
73
49
0
VERTEX
8
0
6
CONTINUOUS
62
252
70
128
10
0.000000
20
0.000000
30
0.000000
71
49
72
103
73
104
0
VERTEX
8
0
6
CONTINUOUS
62
252
70
128
10
0.000000
20
0.000000
30
0.000000
71
49
72
104
73
48
0
VERTEX
8
0
6
CONTINUOUS
62
252
70
128
10
0.000000
20
0.000000
30
0.000000
71
48
72
104
73
105
0
VERTEX
8
0
6
CONTINUOUS
62
252
70
128
10
0.000000
20
0.000000
30
0.000000
71
48
72
105
73
47
0
VERTEX
8
0
6
CONTINUOUS
62
252
70
128
10
0.000000
20
0.000000
30
0.000000
71
47
72
105
73
106
0
VERTEX
8
0
6
CONTINUOUS
62
252
70
128
10
0.000000
20
0.000000
30
0.000000
71
47
72
106
73
46
0
VERTEX
8
0
6
CONTINUOUS
62
252
70
128
10
0.000000
20
0.000000
30
0.000000
71
46
72
106
73
107
0
VERTEX
8
0
6
CONTINUOUS
62
252
70
128
10
0.000000
20
0.000000
30
0.000000
71
46
72
107
73
45
0
VERTEX
8
0
6
CONTINUOUS
62
252
70
128
10
0.000000
20
0.000000
30
0.000000
71
45
72
107
73
108
0
VERTEX
8
0
6
CONTINUOUS
62
252
70
128
10
0.000000
20
0.000000
30
0.000000
71
45
72
108
73
44
0
VERTEX
8
0
6
CONTINUOUS
62
252
70
128
10
0.000000
20
0.000000
30
0.000000
71
44
72
108
73
109
0
VERTEX
8
0
6
CONTINUOUS
62
252
70
128
10
0.000000
20
0.000000
30
0.000000
71
44
72
109
73
43
0
VERTEX
8
0
6
CONTINUOUS
62
252
70
128
10
0.000000
20
0.000000
30
0.000000
71
43
72
109
73
110
0
VERTEX
8
0
6
CONTINUOUS
62
252
70
128
10
0.000000
20
0.000000
30
0.000000
71
43
72
110
73
42
0
VERTEX
8
0
6
CONTINUOUS
62
252
70
128
10
0.000000
20
0.000000
30
0.000000
71
42
72
110
73
111
0
VERTEX
8
0
6
CONTINUOUS
62
252
70
128
10
0.000000
20
0.000000
30
0.000000
71
42
72
111
73
41
0
VERTEX
8
0
6
CONTINUOUS
62
252
70
128
10
0.000000
20
0.000000
30
0.000000
71
41
72
111
73
112
0
VERTEX
8
0
6
CONTINUOUS
62
252
70
128
10
0.000000
20
0.000000
30
0.000000
71
41
72
112
73
40
0
VERTEX
8
0
6
CONTINUOUS
62
252
70
128
10
0.000000
20
0.000000
30
0.000000
71
40
72
112
73
113
0
VERTEX
8
0
6
CONTINUOUS
62
252
70
128
10
0.000000
20
0.000000
30
0.000000
71
40
72
113
73
39
0
VERTEX
8
0
6
CONTINUOUS
62
252
70
128
10
0.000000
20
0.000000
30
0.000000
71
39
72
113
73
114
0
VERTEX
8
0
6
CONTINUOUS
62
252
70
128
10
0.000000
20
0.000000
30
0.000000
71
39
72
114
73
38
0
VERTEX
8
0
6
CONTINUOUS
62
252
70
128
10
0.000000
20
0.000000
30
0.000000
71
38
72
114
73
115
0
VERTEX
8
0
6
CONTINUOUS
62
252
70
128
10
0.000000
20
0.000000
30
0.000000
71
38
72
115
73
37
0
VERTEX
8
0
6
CONTINUOUS
62
252
70
128
10
0.000000
20
0.000000
30
0.000000
71
37
72
115
73
116
0
VERTEX
8
0
6
CONTINUOUS
62
252
70
128
10
0.000000
20
0.000000
30
0.000000
71
37
72
116
73
36
0
VERTEX
8
0
6
CONTINUOUS
62
252
70
128
10
0.000000
20
0.000000
30
0.000000
71
36
72
116
73
117
0
VERTEX
8
0
6
CONTINUOUS
62
252
70
128
10
0.000000
20
0.000000
30
0.000000
71
36
72
117
73
35
0
VERTEX
8
0
6
CONTINUOUS
62
252
70
128
10
0.000000
20
0.000000
30
0.000000
71
35
72
117
73
118
0
VERTEX
8
0
6
CONTINUOUS
62
252
70
128
10
0.000000
20
0.000000
30
0.000000
71
35
72
118
73
34
0
VERTEX
8
0
6
CONTINUOUS
62
252
70
128
10
0.000000
20
0.000000
30
0.000000
71
34
72
118
73
119
0
VERTEX
8
0
6
CONTINUOUS
62
252
70
128
10
0.000000
20
0.000000
30
0.000000
71
34
72
119
73
33
0
VERTEX
8
0
6
CONTINUOUS
62
252
70
128
10
0.000000
20
0.000000
30
0.000000
71
33
72
119
73
120
0
VERTEX
8
0
6
CONTINUOUS
62
252
70
128
10
0.000000
20
0.000000
30
0.000000
71
33
72
120
73
32
0
VERTEX
8
0
6
CONTINUOUS
62
252
70
128
10
0.000000
20
0.000000
30
0.000000
71
32
72
120
73
61
0
VERTEX
8
0
6
CONTINUOUS
62
252
70
128
10
0.000000
20
0.000000
30
0.000000
71
32
72
61
73
31
0
VERTEX
8
0
6
CONTINUOUS
62
252
70
128
10
0.000000
20
0.000000
30
0.000000
71
31
72
61
73
62
0
VERTEX
8
0
6
CONTINUOUS
62
252
70
128
10
0.000000
20
0.000000
30
0.000000
71
31
72
62
73
30
0
VERTEX
8
0
6
CONTINUOUS
62
252
70
128
10
0.000000
20
0.000000
30
0.000000
71
30
72
62
73
63
0
VERTEX
8
0
6
CONTINUOUS
62
252
70
128
10
0.000000
20
0.000000
30
0.000000
71
30
72
63
73
29
0
VERTEX
8
0
6
CONTINUOUS
62
252
70
128
10
0.000000
20
0.000000
30
0.000000
71
29
72
63
73
64
0
VERTEX
8
0
6
CONTINUOUS
62
252
70
128
10
0.000000
20
0.000000
30
0.000000
71
29
72
64
73
28
0
VERTEX
8
0
6
CONTINUOUS
62
252
70
128
10
0.000000
20
0.000000
30
0.000000
71
28
72
64
73
65
0
VERTEX
8
0
6
CONTINUOUS
62
252
70
128
10
0.000000
20
0.000000
30
0.000000
71
28
72
65
73
27
0
VERTEX
8
0
6
CONTINUOUS
62
252
70
128
10
0.000000
20
0.000000
30
0.000000
71
27
72
65
73
66
0
VERTEX
8
0
6
CONTINUOUS
62
252
70
128
10
0.000000
20
0.000000
30
0.000000
71
27
72
66
73
26
0
VERTEX
8
0
6
CONTINUOUS
62
252
70
128
10
0.000000
20
0.000000
30
0.000000
71
26
72
66
73
67
0
VERTEX
8
0
6
CONTINUOUS
62
252
70
128
10
0.000000
20
0.000000
30
0.000000
71
26
72
67
73
25
0
VERTEX
8
0
6
CONTINUOUS
62
252
70
128
10
0.000000
20
0.000000
30
0.000000
71
25
72
67
73
68
0
VERTEX
8
0
6
CONTINUOUS
62
252
70
128
10
0.000000
20
0.000000
30
0.000000
71
25
72
68
73
24
0
VERTEX
8
0
6
CONTINUOUS
62
252
70
128
10
0.000000
20
0.000000
30
0.000000
71
24
72
68
73
69
0
VERTEX
8
0
6
CONTINUOUS
62
252
70
128
10
0.000000
20
0.000000
30
0.000000
71
24
72
69
73
23
0
VERTEX
8
0
6
CONTINUOUS
62
252
70
128
10
0.000000
20
0.000000
30
0.000000
71
23
72
69
73
70
0
VERTEX
8
0
6
CONTINUOUS
62
252
70
128
10
0.000000
20
0.000000
30
0.000000
71
23
72
70
73
22
0
VERTEX
8
0
6
CONTINUOUS
62
252
70
128
10
0.000000
20
0.000000
30
0.000000
71
22
72
70
73
71
0
VERTEX
8
0
6
CONTINUOUS
62
252
70
128
10
0.000000
20
0.000000
30
0.000000
71
22
72
71
73
21
0
VERTEX
8
0
6
CONTINUOUS
62
252
70
128
10
0.000000
20
0.000000
30
0.000000
71
21
72
71
73
72
0
VERTEX
8
0
6
CONTINUOUS
62
252
70
128
10
0.000000
20
0.000000
30
0.000000
71
21
72
72
73
20
0
VERTEX
8
0
6
CONTINUOUS
62
252
70
128
10
0.000000
20
0.000000
30
0.000000
71
20
72
72
73
73
0
VERTEX
8
0
6
CONTINUOUS
62
252
70
128
10
0.000000
20
0.000000
30
0.000000
71
20
72
73
73
19
0
VERTEX
8
0
6
CONTINUOUS
62
252
70
128
10
0.000000
20
0.000000
30
0.000000
71
19
72
73
73
74
0
VERTEX
8
0
6
CONTINUOUS
62
252
70
128
10
0.000000
20
0.000000
30
0.000000
71
19
72
74
73
18
0
VERTEX
8
0
6
CONTINUOUS
62
252
70
128
10
0.000000
20
0.000000
30
0.000000
71
18
72
74
73
75
0
VERTEX
8
0
6
CONTINUOUS
62
252
70
128
10
0.000000
20
0.000000
30
0.000000
71
18
72
75
73
17
0
VERTEX
8
0
6
CONTINUOUS
62
252
70
128
10
0.000000
20
0.000000
30
0.000000
71
17
72
75
73
76
0
VERTEX
8
0
6
CONTINUOUS
62
252
70
128
10
0.000000
20
0.000000
30
0.000000
71
17
72
76
73
16
0
VERTEX
8
0
6
CONTINUOUS
62
252
70
128
10
0.000000
20
0.000000
30
0.000000
71
16
72
76
73
77
0
VERTEX
8
0
6
CONTINUOUS
62
252
70
128
10
0.000000
20
0.000000
30
0.000000
71
16
72
77
73
15
0
VERTEX
8
0
6
CONTINUOUS
62
252
70
128
10
0.000000
20
0.000000
30
0.000000
71
15
72
77
73
78
0
VERTEX
8
0
6
CONTINUOUS
62
252
70
128
10
0.000000
20
0.000000
30
0.000000
71
15
72
78
73
14
0
VERTEX
8
0
6
CONTINUOUS
62
252
70
128
10
0.000000
20
0.000000
30
0.000000
71
14
72
78
73
79
0
VERTEX
8
0
6
CONTINUOUS
62
252
70
128
10
0.000000
20
0.000000
30
0.000000
71
14
72
79
73
13
0
VERTEX
8
0
6
CONTINUOUS
62
252
70
128
10
0.000000
20
0.000000
30
0.000000
71
13
72
79
73
80
0
VERTEX
8
0
6
CONTINUOUS
62
252
70
128
10
0.000000
20
0.000000
30
0.000000
71
13
72
80
73
12
0
VERTEX
8
0
6
CONTINUOUS
62
252
70
128
10
0.000000
20
0.000000
30
0.000000
71
12
72
80
73
81
0
VERTEX
8
0
6
CONTINUOUS
62
252
70
128
10
0.000000
20
0.000000
30
0.000000
71
12
72
81
73
11
0
VERTEX
8
0
6
CONTINUOUS
62
252
70
128
10
0.000000
20
0.000000
30
0.000000
71
11
72
81
73
82
0
VERTEX
8
0
6
CONTINUOUS
62
252
70
128
10
0.000000
20
0.000000
30
0.000000
71
11
72
82
73
10
0
VERTEX
8
0
6
CONTINUOUS
62
252
70
128
10
0.000000
20
0.000000
30
0.000000
71
10
72
82
73
83
0
VERTEX
8
0
6
CONTINUOUS
62
252
70
128
10
0.000000
20
0.000000
30
0.000000
71
10
72
83
73
9
0
VERTEX
8
0
6
CONTINUOUS
62
252
70
128
10
0.000000
20
0.000000
30
0.000000
71
9
72
83
73
84
0
VERTEX
8
0
6
CONTINUOUS
62
252
70
128
10
0.000000
20
0.000000
30
0.000000
71
9
72
84
73
8
0
VERTEX
8
0
6
CONTINUOUS
62
252
70
128
10
0.000000
20
0.000000
30
0.000000
71
8
72
84
73
85
0
VERTEX
8
0
6
CONTINUOUS
62
252
70
128
10
0.000000
20
0.000000
30
0.000000
71
8
72
85
73
7
0
VERTEX
8
0
6
CONTINUOUS
62
252
70
128
10
0.000000
20
0.000000
30
0.000000
71
7
72
85
73
86
0
VERTEX
8
0
6
CONTINUOUS
62
252
70
128
10
0.000000
20
0.000000
30
0.000000
71
7
72
86
73
6
0
VERTEX
8
0
6
CONTINUOUS
62
252
70
128
10
0.000000
20
0.000000
30
0.000000
71
6
72
86
73
87
0
VERTEX
8
0
6
CONTINUOUS
62
252
70
128
10
0.000000
20
0.000000
30
0.000000
71
6
72
87
73
5
0
VERTEX
8
0
6
CONTINUOUS
62
252
70
128
10
0.000000
20
0.000000
30
0.000000
71
5
72
87
73
88
0
VERTEX
8
0
6
CONTINUOUS
62
252
70
128
10
0.000000
20
0.000000
30
0.000000
71
5
72
88
73
4
0
VERTEX
8
0
6
CONTINUOUS
62
252
70
128
10
0.000000
20
0.000000
30
0.000000
71
4
72
88
73
89
0
VERTEX
8
0
6
CONTINUOUS
62
252
70
128
10
0.000000
20
0.000000
30
0.000000
71
4
72
89
73
3
0
VERTEX
8
0
6
CONTINUOUS
62
252
70
128
10
0.000000
20
0.000000
30
0.000000
71
3
72
89
73
90
0
VERTEX
8
0
6
CONTINUOUS
62
252
70
128
10
0.000000
20
0.000000
30
0.000000
71
3
72
90
73
2
0
VERTEX
8
0
6
CONTINUOUS
62
252
70
128
10
0.000000
20
0.000000
30
0.000000
71
2
72
90
73
91
0
SEQEND
0
POLYLINE
66
1
8
0
6
CONTINUOUS
62
252
70
64
75
0
10
0.000000
20
0.000000
30
0.000000
0
VERTEX
8
0
6
CONTINUOUS
62
252
70
192
10
1.111000
20
0.265625
30
-0.460076
0
VERTEX
8
0
6
CONTINUOUS
62
252
70
192
10
1.111000
20
0.216079
30
-0.485321
0
VERTEX
8
0
6
CONTINUOUS
62
252
70
192
10
1.111000
20
0.164165
30
-0.505249
0
VERTEX
8
0
6
CONTINUOUS
62
252
70
192
10
1.111000
20
0.110453
30
-0.519641
0
VERTEX
8
0
6
CONTINUOUS
62
252
70
192
10
1.111000
20
0.055531
30
-0.528340
0
VERTEX
8
0
6
CONTINUOUS
62
252
70
192
10
1.111000
20
0.000000
30
-0.531250
0
VERTEX
8
0
6
CONTINUOUS
62
252
70
192
10
1.111000
20
-0.055531
30
-0.528340
0
VERTEX
8
0
6
CONTINUOUS
62
252
70
192
10
1.111000
20
-0.110453
30
-0.519641
0
VERTEX
8
0
6
CONTINUOUS
62
252
70
192
10
1.111000
20
-0.164165
30
-0.505249
0
VERTEX
8
0
6
CONTINUOUS
62
252
70
192
10
1.111000
20
-0.216079
30
-0.485321
0
VERTEX
8
0
6
CONTINUOUS
62
252
70
192
10
1.111000
20
-0.265625
30
-0.460076
0
VERTEX
8
0
6
CONTINUOUS
62
252
70
192
10
1.111000
20
-0.312261
30
-0.429790
0
VERTEX
8
0
6
CONTINUOUS
62
252
70
192
10
1.111000
20
-0.355476
30
-0.394796
0
VERTEX
8
0
6
CONTINUOUS
62
252
70
192
10
1.111000
20
-0.394796
30
-0.355476
0
VERTEX
8
0
6
CONTINUOUS
62
252
70
192
10
1.111000
20
-0.429790
30
-0.312261
0
VERTEX
8
0
6
CONTINUOUS
62
252
70
192
10
1.111000
20
-0.460076
30
-0.265625
0
VERTEX
8
0
6
CONTINUOUS
62
252
70
192
10
1.111000
20
-0.485321
30
-0.216079
0
VERTEX
8
0
6
CONTINUOUS
62
252
70
192
10
1.111000
20
-0.505249
30
-0.164165
0
VERTEX
8
0
6
CONTINUOUS
62
252
70
192
10
1.111000
20
-0.519641
30
-0.110453
0
VERTEX
8
0
6
CONTINUOUS
62
252
70
192
10
1.111000
20
-0.528340
30
-0.055531
0
VERTEX
8
0
6
CONTINUOUS
62
252
70
192
10
1.111000
20
-0.531250
30
0.000000
0
VERTEX
8
0
6
CONTINUOUS
62
252
70
192
10
1.111000
20
-0.528340
30
0.055531
0
VERTEX
8
0
6
CONTINUOUS
62
252
70
192
10
1.111000
20
-0.519641
30
0.110453
0
VERTEX
8
0
6
CONTINUOUS
62
252
70
192
10
1.111000
20
-0.505249
30
0.164165
0
VERTEX
8
0
6
CONTINUOUS
62
252
70
192
10
1.111000
20
-0.485321
30
0.216079
0
VERTEX
8
0
6
CONTINUOUS
62
252
70
192
10
1.111000
20
-0.460076
30
0.265625
0
VERTEX
8
0
6
CONTINUOUS
62
252
70
192
10
1.111000
20
-0.429790
30
0.312261
0
VERTEX
8
0
6
CONTINUOUS
62
252
70
192
10
1.111000
20
-0.394796
30
0.355476
0
VERTEX
8
0
6
CONTINUOUS
62
252
70
192
10
1.111000
20
-0.355476
30
0.394796
0
VERTEX
8
0
6
CONTINUOUS
62
252
70
192
10
1.111000
20
-0.312261
30
0.429790
0
VERTEX
8
0
6
CONTINUOUS
62
252
70
192
10
1.111000
20
-0.265625
30
0.460076
0
VERTEX
8
0
6
CONTINUOUS
62
252
70
192
10
1.111000
20
-0.216079
30
0.485321
0
VERTEX
8
0
6
CONTINUOUS
62
252
70
192
10
1.111000
20
-0.164165
30
0.505249
0
VERTEX
8
0
6
CONTINUOUS
62
252
70
192
10
1.111000
20
-0.110453
30
0.519641
0
VERTEX
8
0
6
CONTINUOUS
62
252
70
192
10
1.111000
20
-0.055531
30
0.528340
0
VERTEX
8
0
6
CONTINUOUS
62
252
70
192
10
1.111000
20
0.000000
30
0.531250
0
VERTEX
8
0
6
CONTINUOUS
62
252
70
192
10
1.111000
20
0.055531
30
0.528340
0
VERTEX
8
0
6
CONTINUOUS
62
252
70
192
10
1.111000
20
0.110453
30
0.519641
0
VERTEX
8
0
6
CONTINUOUS
62
252
70
192
10
1.111000
20
0.164165
30
0.505249
0
VERTEX
8
0
6
CONTINUOUS
62
252
70
192
10
1.111000
20
0.216079
30
0.485321
0
VERTEX
8
0
6
CONTINUOUS
62
252
70
192
10
1.111000
20
0.265625
30
0.460076
0
VERTEX
8
0
6
CONTINUOUS
62
252
70
192
10
1.111000
20
0.312261
30
0.429790
0
VERTEX
8
0
6
CONTINUOUS
62
252
70
192
10
1.111000
20
0.355476
30
0.394796
0
VERTEX
8
0
6
CONTINUOUS
62
252
70
192
10
1.111000
20
0.394796
30
0.355476
0
VERTEX
8
0
6
CONTINUOUS
62
252
70
192
10
1.111000
20
0.429790
30
0.312261
0
VERTEX
8
0
6
CONTINUOUS
62
252
70
192
10
1.111000
20
0.460076
30
0.265625
0
VERTEX
8
0
6
CONTINUOUS
62
252
70
192
10
1.111000
20
0.485321
30
0.216079
0
VERTEX
8
0
6
CONTINUOUS
62
252
70
192
10
1.111000
20
0.505249
30
0.164165
0
VERTEX
8
0
6
CONTINUOUS
62
252
70
192
10
1.111000
20
0.519641
30
0.110453
0
VERTEX
8
0
6
CONTINUOUS
62
252
70
192
10
1.111000
20
0.528340
30
0.055531
0
VERTEX
8
0
6
CONTINUOUS
62
252
70
192
10
1.111000
20
0.531250
30
0.000000
0
VERTEX
8
0
6
CONTINUOUS
62
252
70
192
10
1.111000
20
0.528340
30
-0.055531
0
VERTEX
8
0
6
CONTINUOUS
62
252
70
192
10
1.111000
20
0.519641
30
-0.110453
0
VERTEX
8
0
6
CONTINUOUS
62
252
70
192
10
1.111000
20
0.505249
30
-0.164165
0
VERTEX
8
0
6
CONTINUOUS
62
252
70
192
10
1.111000
20
0.485321
30
-0.216079
0
VERTEX
8
0
6
CONTINUOUS
62
252
70
192
10
1.111000
20
0.460076
30
-0.265625
0
VERTEX
8
0
6
CONTINUOUS
62
252
70
192
10
1.111000
20
0.429790
30
-0.312261
0
VERTEX
8
0
6
CONTINUOUS
62
252
70
192
10
1.111000
20
0.394796
30
-0.355476
0
VERTEX
8
0
6
CONTINUOUS
62
252
70
192
10
1.111000
20
0.355476
30
-0.394796
0
VERTEX
8
0
6
CONTINUOUS
62
252
70
192
10
1.111000
20
0.312261
30
-0.429790
0
VERTEX
8
0
6
CONTINUOUS
62
252
70
192
10
0.970000
20
0.000000
30
-0.531250
0
VERTEX
8
0
6
CONTINUOUS
62
252
70
192
10
0.970000
20
0.055531
30
-0.528340
0
VERTEX
8
0
6
CONTINUOUS
62
252
70
192
10
0.970000
20
0.110453
30
-0.519641
0
VERTEX
8
0
6
CONTINUOUS
62
252
70
192
10
0.970000
20
0.164165
30
-0.505249
0
VERTEX
8
0
6
CONTINUOUS
62
252
70
192
10
0.970000
20
0.216079
30
-0.485321
0
VERTEX
8
0
6
CONTINUOUS
62
252
70
192
10
0.970000
20
0.265625
30
-0.460076
0
VERTEX
8
0
6
CONTINUOUS
62
252
70
192
10
0.970000
20
0.312261
30
-0.429790
0
VERTEX
8
0
6
CONTINUOUS
62
252
70
192
10
0.970000
20
0.355476
30
-0.394796
0
VERTEX
8
0
6
CONTINUOUS
62
252
70
192
10
0.970000
20
0.394796
30
-0.355476
0
VERTEX
8
0
6
CONTINUOUS
62
252
70
192
10
0.970000
20
0.429790
30
-0.312261
0
VERTEX
8
0
6
CONTINUOUS
62
252
70
192
10
0.970000
20
0.460076
30
-0.265625
0
VERTEX
8
0
6
CONTINUOUS
62
252
70
192
10
0.970000
20
0.485321
30
-0.216079
0
VERTEX
8
0
6
CONTINUOUS
62
252
70
192
10
0.970000
20
0.505249
30
-0.164165
0
VERTEX
8
0
6
CONTINUOUS
62
252
70
192
10
0.970000
20
0.519641
30
-0.110453
0
VERTEX
8
0
6
CONTINUOUS
62
252
70
192
10
0.970000
20
0.528340
30
-0.055531
0
VERTEX
8
0
6
CONTINUOUS
62
252
70
192
10
0.970000
20
0.531250
30
0.000000
0
VERTEX
8
0
6
CONTINUOUS
62
252
70
192
10
0.970000
20
0.528340
30
0.055531
0
VERTEX
8
0
6
CONTINUOUS
62
252
70
192
10
0.970000
20
0.519641
30
0.110453
0
VERTEX
8
0
6
CONTINUOUS
62
252
70
192
10
0.970000
20
0.505249
30
0.164165
0
VERTEX
8
0
6
CONTINUOUS
62
252
70
192
10
0.970000
20
0.485321
30
0.216079
0
VERTEX
8
0
6
CONTINUOUS
62
252
70
192
10
0.970000
20
0.460076
30
0.265625
0
VERTEX
8
0
6
CONTINUOUS
62
252
70
192
10
0.970000
20
0.429790
30
0.312261
0
VERTEX
8
0
6
CONTINUOUS
62
252
70
192
10
0.970000
20
0.394796
30
0.355476
0
VERTEX
8
0
6
CONTINUOUS
62
252
70
192
10
0.970000
20
0.355476
30
0.394796
0
VERTEX
8
0
6
CONTINUOUS
62
252
70
192
10
0.970000
20
0.312261
30
0.429790
0
VERTEX
8
0
6
CONTINUOUS
62
252
70
192
10
0.970000
20
0.265625
30
0.460076
0
VERTEX
8
0
6
CONTINUOUS
62
252
70
192
10
0.970000
20
0.216079
30
0.485321
0
VERTEX
8
0
6
CONTINUOUS
62
252
70
192
10
0.970000
20
0.164165
30
0.505249
0
VERTEX
8
0
6
CONTINUOUS
62
252
70
192
10
0.970000
20
0.110453
30
0.519641
0
VERTEX
8
0
6
CONTINUOUS
62
252
70
192
10
0.970000
20
0.055531
30
0.528340
0
VERTEX
8
0
6
CONTINUOUS
62
252
70
192
10
0.970000
20
0.000000
30
0.531250
0
VERTEX
8
0
6
CONTINUOUS
62
252
70
192
10
0.970000
20
-0.055531
30
0.528340
0
VERTEX
8
0
6
CONTINUOUS
62
252
70
192
10
0.970000
20
-0.110453
30
0.519641
0
VERTEX
8
0
6
CONTINUOUS
62
252
70
192
10
0.970000
20
-0.164165
30
0.505249
0
VERTEX
8
0
6
CONTINUOUS
62
252
70
192
10
0.970000
20
-0.216079
30
0.485321
0
VERTEX
8
0
6
CONTINUOUS
62
252
70
192
10
0.970000
20
-0.265625
30
0.460076
0
VERTEX
8
0
6
CONTINUOUS
62
252
70
192
10
0.970000
20
-0.312261
30
0.429790
0
VERTEX
8
0
6
CONTINUOUS
62
252
70
192
10
0.970000
20
-0.355476
30
0.394796
0
VERTEX
8
0
6
CONTINUOUS
62
252
70
192
10
0.970000
20
-0.394796
30
0.355476
0
VERTEX
8
0
6
CONTINUOUS
62
252
70
192
10
0.970000
20
-0.429790
30
0.312261
0
VERTEX
8
0
6
CONTINUOUS
62
252
70
192
10
0.970000
20
-0.460076
30
0.265625
0
VERTEX
8
0
6
CONTINUOUS
62
252
70
192
10
0.970000
20
-0.485321
30
0.216079
0
VERTEX
8
0
6
CONTINUOUS
62
252
70
192
10
0.970000
20
-0.505249
30
0.164165
0
VERTEX
8
0
6
CONTINUOUS
62
252
70
192
10
0.970000
20
-0.519641
30
0.110453
0
VERTEX
8
0
6
CONTINUOUS
62
252
70
192
10
0.970000
20
-0.528340
30
0.055531
0
VERTEX
8
0
6
CONTINUOUS
62
252
70
192
10
0.970000
20
-0.531250
30
0.000000
0
VERTEX
8
0
6
CONTINUOUS
62
252
70
192
10
0.970000
20
-0.528340
30
-0.055531
0
VERTEX
8
0
6
CONTINUOUS
62
252
70
192
10
0.970000
20
-0.519641
30
-0.110453
0
VERTEX
8
0
6
CONTINUOUS
62
252
70
192
10
0.970000
20
-0.505249
30
-0.164165
0
VERTEX
8
0
6
CONTINUOUS
62
252
70
192
10
0.970000
20
-0.485321
30
-0.216079
0
VERTEX
8
0
6
CONTINUOUS
62
252
70
192
10
0.970000
20
-0.460076
30
-0.265625
0
VERTEX
8
0
6
CONTINUOUS
62
252
70
192
10
0.970000
20
-0.429790
30
-0.312261
0
VERTEX
8
0
6
CONTINUOUS
62
252
70
192
10
0.970000
20
-0.394796
30
-0.355476
0
VERTEX
8
0
6
CONTINUOUS
62
252
70
192
10
0.970000
20
-0.355476
30
-0.394796
0
VERTEX
8
0
6
CONTINUOUS
62
252
70
192
10
0.970000
20
-0.312261
30
-0.429790
0
VERTEX
8
0
6
CONTINUOUS
62
252
70
192
10
0.970000
20
-0.265625
30
-0.460076
0
VERTEX
8
0
6
CONTINUOUS
62
252
70
192
10
0.970000
20
-0.216079
30
-0.485321
0
VERTEX
8
0
6
CONTINUOUS
62
252
70
192
10
0.970000
20
-0.164165
30
-0.505249
0
VERTEX
8
0
6
CONTINUOUS
62
252
70
192
10
0.970000
20
-0.110453
30
-0.519641
0
VERTEX
8
0
6
CONTINUOUS
62
252
70
192
10
0.970000
20
-0.055531
30
-0.528340
0
VERTEX
8
0
6
CONTINUOUS
62
252
70
128
10
0.000000
20
0.000000
30
0.000000
71
2
72
65
73
1
0
VERTEX
8
0
6
CONTINUOUS
62
252
70
128
10
0.000000
20
0.000000
30
0.000000
71
1
72
65
73
66
0
VERTEX
8
0
6
CONTINUOUS
62
252
70
128
10
0.000000
20
0.000000
30
0.000000
71
1
72
66
73
67
0
VERTEX
8
0
6
CONTINUOUS
62
252
70
128
10
0.000000
20
0.000000
30
0.000000
71
2
72
3
73
65
0
VERTEX
8
0
6
CONTINUOUS
62
252
70
128
10
0.000000
20
0.000000
30
0.000000
71
65
72
3
73
64
0
VERTEX
8
0
6
CONTINUOUS
62
252
70
128
10
0.000000
20
0.000000
30
0.000000
71
64
72
3
73
4
0
VERTEX
8
0
6
CONTINUOUS
62
252
70
128
10
0.000000
20
0.000000
30
0.000000
71
64
72
4
73
63
0
VERTEX
8
0
6
CONTINUOUS
62
252
70
128
10
0.000000
20
0.000000
30
0.000000
71
63
72
4
73
62
0
VERTEX
8
0
6
CONTINUOUS
62
252
70
128
10
0.000000
20
0.000000
30
0.000000
71
62
72
4
73
5
0
VERTEX
8
0
6
CONTINUOUS
62
252
70
128
10
0.000000
20
0.000000
30
0.000000
71
62
72
5
73
61
0
VERTEX
8
0
6
CONTINUOUS
62
252
70
128
10
0.000000
20
0.000000
30
0.000000
71
61
72
5
73
6
0
VERTEX
8
0
6
CONTINUOUS
62
252
70
128
10
0.000000
20
0.000000
30
0.000000
71
61
72
6
73
7
0
VERTEX
8
0
6
CONTINUOUS
62
252
70
128
10
0.000000
20
0.000000
30
0.000000
71
61
72
7
73
120
0
VERTEX
8
0
6
CONTINUOUS
62
252
70
128
10
0.000000
20
0.000000
30
0.000000
71
120
72
7
73
8
0
VERTEX
8
0
6
CONTINUOUS
62
252
70
128
10
0.000000
20
0.000000
30
0.000000
71
120
72
8
73
119
0
VERTEX
8
0
6
CONTINUOUS
62
252
70
128
10
0.000000
20
0.000000
30
0.000000
71
119
72
8
73
9
0
VERTEX
8
0
6
CONTINUOUS
62
252
70
128
10
0.000000
20
0.000000
30
0.000000
71
119
72
9
73
118
0
VERTEX
8
0
6
CONTINUOUS
62
252
70
128
10
0.000000
20
0.000000
30
0.000000
71
118
72
9
73
10
0
VERTEX
8
0
6
CONTINUOUS
62
252
70
128
10
0.000000
20
0.000000
30
0.000000
71
118
72
10
73
117
0
VERTEX
8
0
6
CONTINUOUS
62
252
70
128
10
0.000000
20
0.000000
30
0.000000
71
117
72
10
73
11
0
VERTEX
8
0
6
CONTINUOUS
62
252
70
128
10
0.000000
20
0.000000
30
0.000000
71
117
72
11
73
116
0
VERTEX
8
0
6
CONTINUOUS
62
252
70
128
10
0.000000
20
0.000000
30
0.000000
71
116
72
11
73
12
0
VERTEX
8
0
6
CONTINUOUS
62
252
70
128
10
0.000000
20
0.000000
30
0.000000
71
116
72
12
73
115
0
VERTEX
8
0
6
CONTINUOUS
62
252
70
128
10
0.000000
20
0.000000
30
0.000000
71
115
72
12
73
13
0
VERTEX
8
0
6
CONTINUOUS
62
252
70
128
10
0.000000
20
0.000000
30
0.000000
71
115
72
13
73
114
0
VERTEX
8
0
6
CONTINUOUS
62
252
70
128
10
0.000000
20
0.000000
30
0.000000
71
114
72
13
73
113
0
VERTEX
8
0
6
CONTINUOUS
62
252
70
128
10
0.000000
20
0.000000
30
0.000000
71
113
72
13
73
14
0
VERTEX
8
0
6
CONTINUOUS
62
252
70
128
10
0.000000
20
0.000000
30
0.000000
71
113
72
14
73
15
0
VERTEX
8
0
6
CONTINUOUS
62
252
70
128
10
0.000000
20
0.000000
30
0.000000
71
113
72
15
73
112
0
VERTEX
8
0
6
CONTINUOUS
62
252
70
128
10
0.000000
20
0.000000
30
0.000000
71
112
72
15
73
16
0
VERTEX
8
0
6
CONTINUOUS
62
252
70
128
10
0.000000
20
0.000000
30
0.000000
71
112
72
16
73
111
0
VERTEX
8
0
6
CONTINUOUS
62
252
70
128
10
0.000000
20
0.000000
30
0.000000
71
111
72
16
73
110
0
VERTEX
8
0
6
CONTINUOUS
62
252
70
128
10
0.000000
20
0.000000
30
0.000000
71
110
72
16
73
17
0
VERTEX
8
0
6
CONTINUOUS
62
252
70
128
10
0.000000
20
0.000000
30
0.000000
71
110
72
17
73
18
0
VERTEX
8
0
6
CONTINUOUS
62
252
70
128
10
0.000000
20
0.000000
30
0.000000
71
19
72
108
73
18
0
VERTEX
8
0
6
CONTINUOUS
62
252
70
128
10
0.000000
20
0.000000
30
0.000000
71
18
72
108
73
109
0
VERTEX
8
0
6
CONTINUOUS
62
252
70
128
10
0.000000
20
0.000000
30
0.000000
71
18
72
109
73
110
0
VERTEX
8
0
6
CONTINUOUS
62
252
70
128
10
0.000000
20
0.000000
30
0.000000
71
108
72
19
73
107
0
VERTEX
8
0
6
CONTINUOUS
62
252
70
128
10
0.000000
20
0.000000
30
0.000000
71
107
72
19
73
20
0
VERTEX
8
0
6
CONTINUOUS
62
252
70
128
10
0.000000
20
0.000000
30
0.000000
71
107
72
20
73
106
0
VERTEX
8
0
6
CONTINUOUS
62
252
70
128
10
0.000000
20
0.000000
30
0.000000
71
106
72
20
73
21
0
VERTEX
8
0
6
CONTINUOUS
62
252
70
128
10
0.000000
20
0.000000
30
0.000000
71
106
72
21
73
22
0
VERTEX
8
0
6
CONTINUOUS
62
252
70
128
10
0.000000
20
0.000000
30
0.000000
71
23
72
104
73
22
0
VERTEX
8
0
6
CONTINUOUS
62
252
70
128
10
0.000000
20
0.000000
30
0.000000
71
22
72
104
73
105
0
VERTEX
8
0
6
CONTINUOUS
62
252
70
128
10
0.000000
20
0.000000
30
0.000000
71
22
72
105
73
106
0
VERTEX
8
0
6
CONTINUOUS
62
252
70
128
10
0.000000
20
0.000000
30
0.000000
71
104
72
23
73
103
0
VERTEX
8
0
6
CONTINUOUS
62
252
70
128
10
0.000000
20
0.000000
30
0.000000
71
103
72
23
73
24
0
VERTEX
8
0
6
CONTINUOUS
62
252
70
128
10
0.000000
20
0.000000
30
0.000000
71
103
72
24
73
102
0
VERTEX
8
0
6
CONTINUOUS
62
252
70
128
10
0.000000
20
0.000000
30
0.000000
71
102
72
24
73
25
0
VERTEX
8
0
6
CONTINUOUS
62
252
70
128
10
0.000000
20
0.000000
30
0.000000
71
102
72
25
73
101
0
VERTEX
8
0
6
CONTINUOUS
62
252
70
128
10
0.000000
20
0.000000
30
0.000000
71
101
72
25
73
26
0
VERTEX
8
0
6
CONTINUOUS
62
252
70
128
10
0.000000
20
0.000000
30
0.000000
71
101
72
26
73
100
0
VERTEX
8
0
6
CONTINUOUS
62
252
70
128
10
0.000000
20
0.000000
30
0.000000
71
100
72
26
73
27
0
VERTEX
8
0
6
CONTINUOUS
62
252
70
128
10
0.000000
20
0.000000
30
0.000000
71
100
72
27
73
99
0
VERTEX
8
0
6
CONTINUOUS
62
252
70
128
10
0.000000
20
0.000000
30
0.000000
71
99
72
27
73
28
0
VERTEX
8
0
6
CONTINUOUS
62
252
70
128
10
0.000000
20
0.000000
30
0.000000
71
99
72
28
73
98
0
VERTEX
8
0
6
CONTINUOUS
62
252
70
128
10
0.000000
20
0.000000
30
0.000000
71
98
72
28
73
29
0
VERTEX
8
0
6
CONTINUOUS
62
252
70
128
10
0.000000
20
0.000000
30
0.000000
71
98
72
29
73
97
0
VERTEX
8
0
6
CONTINUOUS
62
252
70
128
10
0.000000
20
0.000000
30
0.000000
71
97
72
29
73
30
0
VERTEX
8
0
6
CONTINUOUS
62
252
70
128
10
0.000000
20
0.000000
30
0.000000
71
97
72
30
73
96
0
VERTEX
8
0
6
CONTINUOUS
62
252
70
128
10
0.000000
20
0.000000
30
0.000000
71
96
72
30
73
31
0
VERTEX
8
0
6
CONTINUOUS
62
252
70
128
10
0.000000
20
0.000000
30
0.000000
71
96
72
31
73
95
0
VERTEX
8
0
6
CONTINUOUS
62
252
70
128
10
0.000000
20
0.000000
30
0.000000
71
95
72
31
73
32
0
VERTEX
8
0
6
CONTINUOUS
62
252
70
128
10
0.000000
20
0.000000
30
0.000000
71
95
72
32
73
94
0
VERTEX
8
0
6
CONTINUOUS
62
252
70
128
10
0.000000
20
0.000000
30
0.000000
71
94
72
32
73
33
0
VERTEX
8
0
6
CONTINUOUS
62
252
70
128
10
0.000000
20
0.000000
30
0.000000
71
94
72
33
73
93
0
VERTEX
8
0
6
CONTINUOUS
62
252
70
128
10
0.000000
20
0.000000
30
0.000000
71
93
72
33
73
34
0
VERTEX
8
0
6
CONTINUOUS
62
252
70
128
10
0.000000
20
0.000000
30
0.000000
71
93
72
34
73
92
0
VERTEX
8
0
6
CONTINUOUS
62
252
70
128
10
0.000000
20
0.000000
30
0.000000
71
92
72
34
73
35
0
VERTEX
8
0
6
CONTINUOUS
62
252
70
128
10
0.000000
20
0.000000
30
0.000000
71
92
72
35
73
36
0
VERTEX
8
0
6
CONTINUOUS
62
252
70
128
10
0.000000
20
0.000000
30
0.000000
71
92
72
36
73
91
0
VERTEX
8
0
6
CONTINUOUS
62
252
70
128
10
0.000000
20
0.000000
30
0.000000
71
91
72
36
73
37
0
VERTEX
8
0
6
CONTINUOUS
62
252
70
128
10
0.000000
20
0.000000
30
0.000000
71
91
72
37
73
90
0
VERTEX
8
0
6
CONTINUOUS
62
252
70
128
10
0.000000
20
0.000000
30
0.000000
71
90
72
37
73
89
0
VERTEX
8
0
6
CONTINUOUS
62
252
70
128
10
0.000000
20
0.000000
30
0.000000
71
89
72
37
73
38
0
VERTEX
8
0
6
CONTINUOUS
62
252
70
128
10
0.000000
20
0.000000
30
0.000000
71
89
72
38
73
88
0
VERTEX
8
0
6
CONTINUOUS
62
252
70
128
10
0.000000
20
0.000000
30
0.000000
71
88
72
38
73
39
0
VERTEX
8
0
6
CONTINUOUS
62
252
70
128
10
0.000000
20
0.000000
30
0.000000
71
88
72
39
73
87
0
VERTEX
8
0
6
CONTINUOUS
62
252
70
128
10
0.000000
20
0.000000
30
0.000000
71
87
72
39
73
40
0
VERTEX
8
0
6
CONTINUOUS
62
252
70
128
10
0.000000
20
0.000000
30
0.000000
71
87
72
40
73
86
0
VERTEX
8
0
6
CONTINUOUS
62
252
70
128
10
0.000000
20
0.000000
30
0.000000
71
86
72
40
73
41
0
VERTEX
8
0
6
CONTINUOUS
62
252
70
128
10
0.000000
20
0.000000
30
0.000000
71
86
72
41
73
85
0
VERTEX
8
0
6
CONTINUOUS
62
252
70
128
10
0.000000
20
0.000000
30
0.000000
71
85
72
41
73
42
0
VERTEX
8
0
6
CONTINUOUS
62
252
70
128
10
0.000000
20
0.000000
30
0.000000
71
85
72
42
73
84
0
VERTEX
8
0
6
CONTINUOUS
62
252
70
128
10
0.000000
20
0.000000
30
0.000000
71
84
72
42
73
43
0
VERTEX
8
0
6
CONTINUOUS
62
252
70
128
10
0.000000
20
0.000000
30
0.000000
71
84
72
43
73
83
0
VERTEX
8
0
6
CONTINUOUS
62
252
70
128
10
0.000000
20
0.000000
30
0.000000
71
83
72
43
73
44
0
VERTEX
8
0
6
CONTINUOUS
62
252
70
128
10
0.000000
20
0.000000
30
0.000000
71
83
72
44
73
82
0
VERTEX
8
0
6
CONTINUOUS
62
252
70
128
10
0.000000
20
0.000000
30
0.000000
71
82
72
44
73
45
0
VERTEX
8
0
6
CONTINUOUS
62
252
70
128
10
0.000000
20
0.000000
30
0.000000
71
82
72
45
73
81
0
VERTEX
8
0
6
CONTINUOUS
62
252
70
128
10
0.000000
20
0.000000
30
0.000000
71
81
72
45
73
46
0
VERTEX
8
0
6
CONTINUOUS
62
252
70
128
10
0.000000
20
0.000000
30
0.000000
71
81
72
46
73
80
0
VERTEX
8
0
6
CONTINUOUS
62
252
70
128
10
0.000000
20
0.000000
30
0.000000
71
80
72
46
73
47
0
VERTEX
8
0
6
CONTINUOUS
62
252
70
128
10
0.000000
20
0.000000
30
0.000000
71
80
72
47
73
79
0
VERTEX
8
0
6
CONTINUOUS
62
252
70
128
10
0.000000
20
0.000000
30
0.000000
71
79
72
47
73
48
0
VERTEX
8
0
6
CONTINUOUS
62
252
70
128
10
0.000000
20
0.000000
30
0.000000
71
79
72
48
73
78
0
VERTEX
8
0
6
CONTINUOUS
62
252
70
128
10
0.000000
20
0.000000
30
0.000000
71
78
72
48
73
49
0
VERTEX
8
0
6
CONTINUOUS
62
252
70
128
10
0.000000
20
0.000000
30
0.000000
71
78
72
49
73
77
0
VERTEX
8
0
6
CONTINUOUS
62
252
70
128
10
0.000000
20
0.000000
30
0.000000
71
77
72
49
73
50
0
VERTEX
8
0
6
CONTINUOUS
62
252
70
128
10
0.000000
20
0.000000
30
0.000000
71
77
72
50
73
76
0
VERTEX
8
0
6
CONTINUOUS
62
252
70
128
10
0.000000
20
0.000000
30
0.000000
71
76
72
50
73
51
0
VERTEX
8
0
6
CONTINUOUS
62
252
70
128
10
0.000000
20
0.000000
30
0.000000
71
76
72
51
73
75
0
VERTEX
8
0
6
CONTINUOUS
62
252
70
128
10
0.000000
20
0.000000
30
0.000000
71
75
72
51
73
52
0
VERTEX
8
0
6
CONTINUOUS
62
252
70
128
10
0.000000
20
0.000000
30
0.000000
71
75
72
52
73
74
0
VERTEX
8
0
6
CONTINUOUS
62
252
70
128
10
0.000000
20
0.000000
30
0.000000
71
74
72
52
73
53
0
VERTEX
8
0
6
CONTINUOUS
62
252
70
128
10
0.000000
20
0.000000
30
0.000000
71
74
72
53
73
73
0
VERTEX
8
0
6
CONTINUOUS
62
252
70
128
10
0.000000
20
0.000000
30
0.000000
71
73
72
53
73
54
0
VERTEX
8
0
6
CONTINUOUS
62
252
70
128
10
0.000000
20
0.000000
30
0.000000
71
73
72
54
73
55
0
VERTEX
8
0
6
CONTINUOUS
62
252
70
128
10
0.000000
20
0.000000
30
0.000000
71
56
72
71
73
55
0
VERTEX
8
0
6
CONTINUOUS
62
252
70
128
10
0.000000
20
0.000000
30
0.000000
71
55
72
71
73
72
0
VERTEX
8
0
6
CONTINUOUS
62
252
70
128
10
0.000000
20
0.000000
30
0.000000
71
55
72
72
73
73
0
VERTEX
8
0
6
CONTINUOUS
62
252
70
128
10
0.000000
20
0.000000
30
0.000000
71
71
72
56
73
70
0
VERTEX
8
0
6
CONTINUOUS
62
252
70
128
10
0.000000
20
0.000000
30
0.000000
71
70
72
56
73
57
0
VERTEX
8
0
6
CONTINUOUS
62
252
70
128
10
0.000000
20
0.000000
30
0.000000
71
70
72
57
73
58
0
VERTEX
8
0
6
CONTINUOUS
62
252
70
128
10
0.000000
20
0.000000
30
0.000000
71
59
72
68
73
58
0
VERTEX
8
0
6
CONTINUOUS
62
252
70
128
10
0.000000
20
0.000000
30
0.000000
71
58
72
68
73
69
0
VERTEX
8
0
6
CONTINUOUS
62
252
70
128
10
0.000000
20
0.000000
30
0.000000
71
58
72
69
73
70
0
VERTEX
8
0
6
CONTINUOUS
62
252
70
128
10
0.000000
20
0.000000
30
0.000000
71
68
72
59
73
67
0
VERTEX
8
0
6
CONTINUOUS
62
252
70
128
10
0.000000
20
0.000000
30
0.000000
71
67
72
59
73
60
0
VERTEX
8
0
6
CONTINUOUS
62
252
70
128
10
0.000000
20
0.000000
30
0.000000
71
67
72
60
73
1
0
SEQEND
0
POLYLINE
66
1
8
0
6
CONTINUOUS
62
252
70
64
75
0
10
0.000000
20
0.000000
30
0.000000
0
VERTEX
8
0
6
CONTINUOUS
62
252
70
192
10
0.970000
20
0.000000
30
0.250000
0
VERTEX
8
0
6
CONTINUOUS
62
252
70
192
10
0.970000
20
-0.026132
30
0.248630
0
VERTEX
8
0
6
CONTINUOUS
62
252
70
192
10
0.970000
20
-0.051978
30
0.244537
0
VERTEX
8
0
6
CONTINUOUS
62
252
70
192
10
0.970000
20
-0.077254
30
0.237764
0
VERTEX
8
0
6
CONTINUOUS
62
252
70
192
10
0.970000
20
-0.101684
30
0.228386
0
VERTEX
8
0
6
CONTINUOUS
62
252
70
192
10
0.970000
20
-0.125000
30
0.216506
0
VERTEX
8
0
6
CONTINUOUS
62
252
70
192
10
0.970000
20
-0.146946
30
0.202254
0
VERTEX
8
0
6
CONTINUOUS
62
252
70
192
10
0.970000
20
-0.167283
30
0.185786
0
VERTEX
8
0
6
CONTINUOUS
62
252
70
192
10
0.970000
20
-0.185786
30
0.167283
0
VERTEX
8
0
6
CONTINUOUS
62
252
70
192
10
0.970000
20
-0.202254
30
0.146946
0
VERTEX
8
0
6
CONTINUOUS
62
252
70
192
10
0.970000
20
-0.216506
30
0.125000
0
VERTEX
8
0
6
CONTINUOUS
62
252
70
192
10
0.970000
20
-0.228386
30
0.101684
0
VERTEX
8
0
6
CONTINUOUS
62
252
70
192
10
0.970000
20
-0.237764
30
0.077254
0
VERTEX
8
0
6
CONTINUOUS
62
252
70
192
10
0.970000
20
-0.244537
30
0.051978
0
VERTEX
8
0
6
CONTINUOUS
62
252
70
192
10
0.970000
20
-0.248630
30
0.026132
0
VERTEX
8
0
6
CONTINUOUS
62
252
70
192
10
0.970000
20
-0.250000
30
0.000000
0
VERTEX
8
0
6
CONTINUOUS
62
252
70
192
10
0.970000
20
-0.248630
30
-0.026132
0
VERTEX
8
0
6
CONTINUOUS
62
252
70
192
10
0.970000
20
-0.244537
30
-0.051978
0
VERTEX
8
0
6
CONTINUOUS
62
252
70
192
10
0.970000
20
-0.237764
30
-0.077254
0
VERTEX
8
0
6
CONTINUOUS
62
252
70
192
10
0.970000
20
-0.228386
30
-0.101684
0
VERTEX
8
0
6
CONTINUOUS
62
252
70
192
10
0.970000
20
-0.216506
30
-0.125000
0
VERTEX
8
0
6
CONTINUOUS
62
252
70
192
10
0.970000
20
-0.202254
30
-0.146946
0
VERTEX
8
0
6
CONTINUOUS
62
252
70
192
10
0.970000
20
-0.185786
30
-0.167283
0
VERTEX
8
0
6
CONTINUOUS
62
252
70
192
10
0.970000
20
-0.167283
30
-0.185786
0
VERTEX
8
0
6
CONTINUOUS
62
252
70
192
10
0.970000
20
-0.146946
30
-0.202254
0
VERTEX
8
0
6
CONTINUOUS
62
252
70
192
10
0.970000
20
-0.125000
30
-0.216506
0
VERTEX
8
0
6
CONTINUOUS
62
252
70
192
10
0.970000
20
-0.101684
30
-0.228386
0
VERTEX
8
0
6
CONTINUOUS
62
252
70
192
10
0.970000
20
-0.077254
30
-0.237764
0
VERTEX
8
0
6
CONTINUOUS
62
252
70
192
10
0.970000
20
-0.051978
30
-0.244537
0
VERTEX
8
0
6
CONTINUOUS
62
252
70
192
10
0.970000
20
-0.026132
30
-0.248630
0
VERTEX
8
0
6
CONTINUOUS
62
252
70
192
10
0.970000
20
-0.000000
30
-0.250000
0
VERTEX
8
0
6
CONTINUOUS
62
252
70
192
10
0.970000
20
0.026132
30
-0.248630
0
VERTEX
8
0
6
CONTINUOUS
62
252
70
192
10
0.970000
20
0.051978
30
-0.244537
0
VERTEX
8
0
6
CONTINUOUS
62
252
70
192
10
0.970000
20
0.077254
30
-0.237764
0
VERTEX
8
0
6
CONTINUOUS
62
252
70
192
10
0.970000
20
0.101684
30
-0.228386
0
VERTEX
8
0
6
CONTINUOUS
62
252
70
192
10
0.970000
20
0.125000
30
-0.216506
0
VERTEX
8
0
6
CONTINUOUS
62
252
70
192
10
0.970000
20
0.146946
30
-0.202254
0
VERTEX
8
0
6
CONTINUOUS
62
252
70
192
10
0.970000
20
0.167283
30
-0.185786
0
VERTEX
8
0
6
CONTINUOUS
62
252
70
192
10
0.970000
20
0.185786
30
-0.167283
0
VERTEX
8
0
6
CONTINUOUS
62
252
70
192
10
0.970000
20
0.202254
30
-0.146946
0
VERTEX
8
0
6
CONTINUOUS
62
252
70
192
10
0.970000
20
0.216506
30
-0.125000
0
VERTEX
8
0
6
CONTINUOUS
62
252
70
192
10
0.970000
20
0.228386
30
-0.101684
0
VERTEX
8
0
6
CONTINUOUS
62
252
70
192
10
0.970000
20
0.237764
30
-0.077254
0
VERTEX
8
0
6
CONTINUOUS
62
252
70
192
10
0.970000
20
0.244537
30
-0.051978
0
VERTEX
8
0
6
CONTINUOUS
62
252
70
192
10
0.970000
20
0.248630
30
-0.026132
0
VERTEX
8
0
6
CONTINUOUS
62
252
70
192
10
0.970000
20
0.250000
30
-0.000000
0
VERTEX
8
0
6
CONTINUOUS
62
252
70
192
10
0.970000
20
0.248630
30
0.026132
0
VERTEX
8
0
6
CONTINUOUS
62
252
70
192
10
0.970000
20
0.244537
30
0.051978
0
VERTEX
8
0
6
CONTINUOUS
62
252
70
192
10
0.970000
20
0.237764
30
0.077254
0
VERTEX
8
0
6
CONTINUOUS
62
252
70
192
10
0.970000
20
0.228386
30
0.101684
0
VERTEX
8
0
6
CONTINUOUS
62
252
70
192
10
0.970000
20
0.216506
30
0.125000
0
VERTEX
8
0
6
CONTINUOUS
62
252
70
192
10
0.970000
20
0.202254
30
0.146946
0
VERTEX
8
0
6
CONTINUOUS
62
252
70
192
10
0.970000
20
0.185786
30
0.167283
0
VERTEX
8
0
6
CONTINUOUS
62
252
70
192
10
0.970000
20
0.167283
30
0.185786
0
VERTEX
8
0
6
CONTINUOUS
62
252
70
192
10
0.970000
20
0.146946
30
0.202254
0
VERTEX
8
0
6
CONTINUOUS
62
252
70
192
10
0.970000
20
0.125000
30
0.216506
0
VERTEX
8
0
6
CONTINUOUS
62
252
70
192
10
0.970000
20
0.101684
30
0.228386
0
VERTEX
8
0
6
CONTINUOUS
62
252
70
192
10
0.970000
20
0.077254
30
0.237764
0
VERTEX
8
0
6
CONTINUOUS
62
252
70
192
10
0.970000
20
0.051978
30
0.244537
0
VERTEX
8
0
6
CONTINUOUS
62
252
70
192
10
0.970000
20
0.026132
30
0.248630
0
VERTEX
8
0
6
CONTINUOUS
62
252
70
192
10
0.970000
20
0.000000
30
-0.531250
0
VERTEX
8
0
6
CONTINUOUS
62
252
70
192
10
0.970000
20
-0.055531
30
-0.528340
0
VERTEX
8
0
6
CONTINUOUS
62
252
70
192
10
0.970000
20
-0.110453
30
-0.519641
0
VERTEX
8
0
6
CONTINUOUS
62
252
70
192
10
0.970000
20
-0.164165
30
-0.505249
0
VERTEX
8
0
6
CONTINUOUS
62
252
70
192
10
0.970000
20
-0.216079
30
-0.485321
0
VERTEX
8
0
6
CONTINUOUS
62
252
70
192
10
0.970000
20
-0.265625
30
-0.460076
0
VERTEX
8
0
6
CONTINUOUS
62
252
70
192
10
0.970000
20
-0.312261
30
-0.429790
0
VERTEX
8
0
6
CONTINUOUS
62
252
70
192
10
0.970000
20
-0.355476
30
-0.394796
0
VERTEX
8
0
6
CONTINUOUS
62
252
70
192
10
0.970000
20
-0.394796
30
-0.355476
0
VERTEX
8
0
6
CONTINUOUS
62
252
70
192
10
0.970000
20
-0.429790
30
-0.312261
0
VERTEX
8
0
6
CONTINUOUS
62
252
70
192
10
0.970000
20
-0.460076
30
-0.265625
0
VERTEX
8
0
6
CONTINUOUS
62
252
70
192
10
0.970000
20
-0.485321
30
-0.216079
0
VERTEX
8
0
6
CONTINUOUS
62
252
70
192
10
0.970000
20
-0.505249
30
-0.164165
0
VERTEX
8
0
6
CONTINUOUS
62
252
70
192
10
0.970000
20
-0.519641
30
-0.110453
0
VERTEX
8
0
6
CONTINUOUS
62
252
70
192
10
0.970000
20
-0.528340
30
-0.055531
0
VERTEX
8
0
6
CONTINUOUS
62
252
70
192
10
0.970000
20
-0.531250
30
0.000000
0
VERTEX
8
0
6
CONTINUOUS
62
252
70
192
10
0.970000
20
-0.528340
30
0.055531
0
VERTEX
8
0
6
CONTINUOUS
62
252
70
192
10
0.970000
20
-0.519641
30
0.110453
0
VERTEX
8
0
6
CONTINUOUS
62
252
70
192
10
0.970000
20
-0.505249
30
0.164165
0
VERTEX
8
0
6
CONTINUOUS
62
252
70
192
10
0.970000
20
-0.485321
30
0.216079
0
VERTEX
8
0
6
CONTINUOUS
62
252
70
192
10
0.970000
20
-0.460076
30
0.265625
0
VERTEX
8
0
6
CONTINUOUS
62
252
70
192
10
0.970000
20
-0.429790
30
0.312261
0
VERTEX
8
0
6
CONTINUOUS
62
252
70
192
10
0.970000
20
-0.394796
30
0.355476
0
VERTEX
8
0
6
CONTINUOUS
62
252
70
192
10
0.970000
20
-0.355476
30
0.394796
0
VERTEX
8
0
6
CONTINUOUS
62
252
70
192
10
0.970000
20
-0.312261
30
0.429790
0
VERTEX
8
0
6
CONTINUOUS
62
252
70
192
10
0.970000
20
-0.265625
30
0.460076
0
VERTEX
8
0
6
CONTINUOUS
62
252
70
192
10
0.970000
20
-0.216079
30
0.485321
0
VERTEX
8
0
6
CONTINUOUS
62
252
70
192
10
0.970000
20
-0.164165
30
0.505249
0
VERTEX
8
0
6
CONTINUOUS
62
252
70
192
10
0.970000
20
-0.110453
30
0.519641
0
VERTEX
8
0
6
CONTINUOUS
62
252
70
192
10
0.970000
20
-0.055531
30
0.528340
0
VERTEX
8
0
6
CONTINUOUS
62
252
70
192
10
0.970000
20
0.000000
30
0.531250
0
VERTEX
8
0
6
CONTINUOUS
62
252
70
192
10
0.970000
20
0.055531
30
0.528340
0
VERTEX
8
0
6
CONTINUOUS
62
252
70
192
10
0.970000
20
0.110453
30
0.519641
0
VERTEX
8
0
6
CONTINUOUS
62
252
70
192
10
0.970000
20
0.164165
30
0.505249
0
VERTEX
8
0
6
CONTINUOUS
62
252
70
192
10
0.970000
20
0.216079
30
0.485321
0
VERTEX
8
0
6
CONTINUOUS
62
252
70
192
10
0.970000
20
0.265625
30
0.460076
0
VERTEX
8
0
6
CONTINUOUS
62
252
70
192
10
0.970000
20
0.312261
30
0.429790
0
VERTEX
8
0
6
CONTINUOUS
62
252
70
192
10
0.970000
20
0.355476
30
0.394796
0
VERTEX
8
0
6
CONTINUOUS
62
252
70
192
10
0.970000
20
0.394796
30
0.355476
0
VERTEX
8
0
6
CONTINUOUS
62
252
70
192
10
0.970000
20
0.429790
30
0.312261
0
VERTEX
8
0
6
CONTINUOUS
62
252
70
192
10
0.970000
20
0.460076
30
0.265625
0
VERTEX
8
0
6
CONTINUOUS
62
252
70
192
10
0.970000
20
0.485321
30
0.216079
0
VERTEX
8
0
6
CONTINUOUS
62
252
70
192
10
0.970000
20
0.505249
30
0.164165
0
VERTEX
8
0
6
CONTINUOUS
62
252
70
192
10
0.970000
20
0.519641
30
0.110453
0
VERTEX
8
0
6
CONTINUOUS
62
252
70
192
10
0.970000
20
0.528340
30
0.055531
0
VERTEX
8
0
6
CONTINUOUS
62
252
70
192
10
0.970000
20
0.531250
30
0.000000
0
VERTEX
8
0
6
CONTINUOUS
62
252
70
192
10
0.970000
20
0.528340
30
-0.055531
0
VERTEX
8
0
6
CONTINUOUS
62
252
70
192
10
0.970000
20
0.519641
30
-0.110453
0
VERTEX
8
0
6
CONTINUOUS
62
252
70
192
10
0.970000
20
0.505249
30
-0.164165
0
VERTEX
8
0
6
CONTINUOUS
62
252
70
192
10
0.970000
20
0.485321
30
-0.216079
0
VERTEX
8
0
6
CONTINUOUS
62
252
70
192
10
0.970000
20
0.460076
30
-0.265625
0
VERTEX
8
0
6
CONTINUOUS
62
252
70
192
10
0.970000
20
0.429790
30
-0.312261
0
VERTEX
8
0
6
CONTINUOUS
62
252
70
192
10
0.970000
20
0.394796
30
-0.355476
0
VERTEX
8
0
6
CONTINUOUS
62
252
70
192
10
0.970000
20
0.355476
30
-0.394796
0
VERTEX
8
0
6
CONTINUOUS
62
252
70
192
10
0.970000
20
0.312261
30
-0.429790
0
VERTEX
8
0
6
CONTINUOUS
62
252
70
192
10
0.970000
20
0.265625
30
-0.460076
0
VERTEX
8
0
6
CONTINUOUS
62
252
70
192
10
0.970000
20
0.216079
30
-0.485321
0
VERTEX
8
0
6
CONTINUOUS
62
252
70
192
10
0.970000
20
0.164165
30
-0.505249
0
VERTEX
8
0
6
CONTINUOUS
62
252
70
192
10
0.970000
20
0.110453
30
-0.519641
0
VERTEX
8
0
6
CONTINUOUS
62
252
70
192
10
0.970000
20
0.055531
30
-0.528340
0
VERTEX
8
0
6
CONTINUOUS
62
252
70
128
10
0.000000
20
0.000000
30
0.000000
71
2
72
90
73
1
0
VERTEX
8
0
6
CONTINUOUS
62
252
70
128
10
0.000000
20
0.000000
30
0.000000
71
1
72
90
73
91
0
VERTEX
8
0
6
CONTINUOUS
62
252
70
128
10
0.000000
20
0.000000
30
0.000000
71
1
72
91
73
60
0
VERTEX
8
0
6
CONTINUOUS
62
252
70
128
10
0.000000
20
0.000000
30
0.000000
71
60
72
91
73
92
0
VERTEX
8
0
6
CONTINUOUS
62
252
70
128
10
0.000000
20
0.000000
30
0.000000
71
60
72
92
73
93
0
VERTEX
8
0
6
CONTINUOUS
62
252
70
128
10
0.000000
20
0.000000
30
0.000000
71
2
72
3
73
90
0
VERTEX
8
0
6
CONTINUOUS
62
252
70
128
10
0.000000
20
0.000000
30
0.000000
71
90
72
3
73
89
0
VERTEX
8
0
6
CONTINUOUS
62
252
70
128
10
0.000000
20
0.000000
30
0.000000
71
89
72
3
73
88
0
VERTEX
8
0
6
CONTINUOUS
62
252
70
128
10
0.000000
20
0.000000
30
0.000000
71
88
72
3
73
4
0
VERTEX
8
0
6
CONTINUOUS
62
252
70
128
10
0.000000
20
0.000000
30
0.000000
71
88
72
4
73
5
0
VERTEX
8
0
6
CONTINUOUS
62
252
70
128
10
0.000000
20
0.000000
30
0.000000
71
88
72
5
73
87
0
VERTEX
8
0
6
CONTINUOUS
62
252
70
128
10
0.000000
20
0.000000
30
0.000000
71
87
72
5
73
6
0
VERTEX
8
0
6
CONTINUOUS
62
252
70
128
10
0.000000
20
0.000000
30
0.000000
71
87
72
6
73
86
0
VERTEX
8
0
6
CONTINUOUS
62
252
70
128
10
0.000000
20
0.000000
30
0.000000
71
86
72
6
73
85
0
VERTEX
8
0
6
CONTINUOUS
62
252
70
128
10
0.000000
20
0.000000
30
0.000000
71
85
72
6
73
7
0
VERTEX
8
0
6
CONTINUOUS
62
252
70
128
10
0.000000
20
0.000000
30
0.000000
71
85
72
7
73
8
0
VERTEX
8
0
6
CONTINUOUS
62
252
70
128
10
0.000000
20
0.000000
30
0.000000
71
9
72
83
73
8
0
VERTEX
8
0
6
CONTINUOUS
62
252
70
128
10
0.000000
20
0.000000
30
0.000000
71
8
72
83
73
84
0
VERTEX
8
0
6
CONTINUOUS
62
252
70
128
10
0.000000
20
0.000000
30
0.000000
71
8
72
84
73
85
0
VERTEX
8
0
6
CONTINUOUS
62
252
70
128
10
0.000000
20
0.000000
30
0.000000
71
9
72
10
73
83
0
VERTEX
8
0
6
CONTINUOUS
62
252
70
128
10
0.000000
20
0.000000
30
0.000000
71
83
72
10
73
82
0
VERTEX
8
0
6
CONTINUOUS
62
252
70
128
10
0.000000
20
0.000000
30
0.000000
71
82
72
10
73
11
0
VERTEX
8
0
6
CONTINUOUS
62
252
70
128
10
0.000000
20
0.000000
30
0.000000
71
82
72
11
73
81
0
VERTEX
8
0
6
CONTINUOUS
62
252
70
128
10
0.000000
20
0.000000
30
0.000000
71
81
72
11
73
12
0
VERTEX
8
0
6
CONTINUOUS
62
252
70
128
10
0.000000
20
0.000000
30
0.000000
71
81
72
12
73
80
0
VERTEX
8
0
6
CONTINUOUS
62
252
70
128
10
0.000000
20
0.000000
30
0.000000
71
80
72
12
73
13
0
VERTEX
8
0
6
CONTINUOUS
62
252
70
128
10
0.000000
20
0.000000
30
0.000000
71
80
72
13
73
79
0
VERTEX
8
0
6
CONTINUOUS
62
252
70
128
10
0.000000
20
0.000000
30
0.000000
71
79
72
13
73
78
0
VERTEX
8
0
6
CONTINUOUS
62
252
70
128
10
0.000000
20
0.000000
30
0.000000
71
78
72
13
73
14
0
VERTEX
8
0
6
CONTINUOUS
62
252
70
128
10
0.000000
20
0.000000
30
0.000000
71
78
72
14
73
15
0
VERTEX
8
0
6
CONTINUOUS
62
252
70
128
10
0.000000
20
0.000000
30
0.000000
71
16
72
76
73
15
0
VERTEX
8
0
6
CONTINUOUS
62
252
70
128
10
0.000000
20
0.000000
30
0.000000
71
15
72
76
73
77
0
VERTEX
8
0
6
CONTINUOUS
62
252
70
128
10
0.000000
20
0.000000
30
0.000000
71
15
72
77
73
78
0
VERTEX
8
0
6
CONTINUOUS
62
252
70
128
10
0.000000
20
0.000000
30
0.000000
71
16
72
17
73
76
0
VERTEX
8
0
6
CONTINUOUS
62
252
70
128
10
0.000000
20
0.000000
30
0.000000
71
76
72
17
73
75
0
VERTEX
8
0
6
CONTINUOUS
62
252
70
128
10
0.000000
20
0.000000
30
0.000000
71
75
72
17
73
74
0
VERTEX
8
0
6
CONTINUOUS
62
252
70
128
10
0.000000
20
0.000000
30
0.000000
71
74
72
17
73
18
0
VERTEX
8
0
6
CONTINUOUS
62
252
70
128
10
0.000000
20
0.000000
30
0.000000
71
74
72
18
73
19
0
VERTEX
8
0
6
CONTINUOUS
62
252
70
128
10
0.000000
20
0.000000
30
0.000000
71
74
72
19
73
73
0
VERTEX
8
0
6
CONTINUOUS
62
252
70
128
10
0.000000
20
0.000000
30
0.000000
71
73
72
19
73
20
0
VERTEX
8
0
6
CONTINUOUS
62
252
70
128
10
0.000000
20
0.000000
30
0.000000
71
73
72
20
73
72
0
VERTEX
8
0
6
CONTINUOUS
62
252
70
128
10
0.000000
20
0.000000
30
0.000000
71
72
72
20
73
21
0
VERTEX
8
0
6
CONTINUOUS
62
252
70
128
10
0.000000
20
0.000000
30
0.000000
71
72
72
21
73
71
0
VERTEX
8
0
6
CONTINUOUS
62
252
70
128
10
0.000000
20
0.000000
30
0.000000
71
71
72
21
73
22
0
VERTEX
8
0
6
CONTINUOUS
62
252
70
128
10
0.000000
20
0.000000
30
0.000000
71
71
72
22
73
70
0
VERTEX
8
0
6
CONTINUOUS
62
252
70
128
10
0.000000
20
0.000000
30
0.000000
71
70
72
22
73
23
0
VERTEX
8
0
6
CONTINUOUS
62
252
70
128
10
0.000000
20
0.000000
30
0.000000
71
70
72
23
73
69
0
VERTEX
8
0
6
CONTINUOUS
62
252
70
128
10
0.000000
20
0.000000
30
0.000000
71
69
72
23
73
24
0
VERTEX
8
0
6
CONTINUOUS
62
252
70
128
10
0.000000
20
0.000000
30
0.000000
71
69
72
24
73
68
0
VERTEX
8
0
6
CONTINUOUS
62
252
70
128
10
0.000000
20
0.000000
30
0.000000
71
68
72
24
73
25
0
VERTEX
8
0
6
CONTINUOUS
62
252
70
128
10
0.000000
20
0.000000
30
0.000000
71
68
72
25
73
67
0
VERTEX
8
0
6
CONTINUOUS
62
252
70
128
10
0.000000
20
0.000000
30
0.000000
71
67
72
25
73
26
0
VERTEX
8
0
6
CONTINUOUS
62
252
70
128
10
0.000000
20
0.000000
30
0.000000
71
67
72
26
73
66
0
VERTEX
8
0
6
CONTINUOUS
62
252
70
128
10
0.000000
20
0.000000
30
0.000000
71
66
72
26
73
65
0
VERTEX
8
0
6
CONTINUOUS
62
252
70
128
10
0.000000
20
0.000000
30
0.000000
71
65
72
26
73
27
0
VERTEX
8
0
6
CONTINUOUS
62
252
70
128
10
0.000000
20
0.000000
30
0.000000
71
65
72
27
73
28
0
VERTEX
8
0
6
CONTINUOUS
62
252
70
128
10
0.000000
20
0.000000
30
0.000000
71
65
72
28
73
64
0
VERTEX
8
0
6
CONTINUOUS
62
252
70
128
10
0.000000
20
0.000000
30
0.000000
71
64
72
28
73
29
0
VERTEX
8
0
6
CONTINUOUS
62
252
70
128
10
0.000000
20
0.000000
30
0.000000
71
64
72
29
73
63
0
VERTEX
8
0
6
CONTINUOUS
62
252
70
128
10
0.000000
20
0.000000
30
0.000000
71
63
72
29
73
62
0
VERTEX
8
0
6
CONTINUOUS
62
252
70
128
10
0.000000
20
0.000000
30
0.000000
71
62
72
29
73
30
0
VERTEX
8
0
6
CONTINUOUS
62
252
70
128
10
0.000000
20
0.000000
30
0.000000
71
62
72
30
73
31
0
VERTEX
8
0
6
CONTINUOUS
62
252
70
128
10
0.000000
20
0.000000
30
0.000000
71
62
72
31
73
61
0
VERTEX
8
0
6
CONTINUOUS
62
252
70
128
10
0.000000
20
0.000000
30
0.000000
71
61
72
31
73
32
0
VERTEX
8
0
6
CONTINUOUS
62
252
70
128
10
0.000000
20
0.000000
30
0.000000
71
61
72
32
73
120
0
VERTEX
8
0
6
CONTINUOUS
62
252
70
128
10
0.000000
20
0.000000
30
0.000000
71
120
72
32
73
33
0
VERTEX
8
0
6
CONTINUOUS
62
252
70
128
10
0.000000
20
0.000000
30
0.000000
71
120
72
33
73
119
0
VERTEX
8
0
6
CONTINUOUS
62
252
70
128
10
0.000000
20
0.000000
30
0.000000
71
119
72
33
73
34
0
VERTEX
8
0
6
CONTINUOUS
62
252
70
128
10
0.000000
20
0.000000
30
0.000000
71
119
72
34
73
118
0
VERTEX
8
0
6
CONTINUOUS
62
252
70
128
10
0.000000
20
0.000000
30
0.000000
71
118
72
34
73
35
0
VERTEX
8
0
6
CONTINUOUS
62
252
70
128
10
0.000000
20
0.000000
30
0.000000
71
118
72
35
73
117
0
VERTEX
8
0
6
CONTINUOUS
62
252
70
128
10
0.000000
20
0.000000
30
0.000000
71
117
72
35
73
36
0
VERTEX
8
0
6
CONTINUOUS
62
252
70
128
10
0.000000
20
0.000000
30
0.000000
71
117
72
36
73
116
0
VERTEX
8
0
6
CONTINUOUS
62
252
70
128
10
0.000000
20
0.000000
30
0.000000
71
116
72
36
73
37
0
VERTEX
8
0
6
CONTINUOUS
62
252
70
128
10
0.000000
20
0.000000
30
0.000000
71
116
72
37
73
115
0
VERTEX
8
0
6
CONTINUOUS
62
252
70
128
10
0.000000
20
0.000000
30
0.000000
71
115
72
37
73
38
0
VERTEX
8
0
6
CONTINUOUS
62
252
70
128
10
0.000000
20
0.000000
30
0.000000
71
115
72
38
73
114
0
VERTEX
8
0
6
CONTINUOUS
62
252
70
128
10
0.000000
20
0.000000
30
0.000000
71
114
72
38
73
39
0
VERTEX
8
0
6
CONTINUOUS
62
252
70
128
10
0.000000
20
0.000000
30
0.000000
71
114
72
39
73
113
0
VERTEX
8
0
6
CONTINUOUS
62
252
70
128
10
0.000000
20
0.000000
30
0.000000
71
113
72
39
73
40
0
VERTEX
8
0
6
CONTINUOUS
62
252
70
128
10
0.000000
20
0.000000
30
0.000000
71
113
72
40
73
112
0
VERTEX
8
0
6
CONTINUOUS
62
252
70
128
10
0.000000
20
0.000000
30
0.000000
71
112
72
40
73
41
0
VERTEX
8
0
6
CONTINUOUS
62
252
70
128
10
0.000000
20
0.000000
30
0.000000
71
112
72
41
73
111
0
VERTEX
8
0
6
CONTINUOUS
62
252
70
128
10
0.000000
20
0.000000
30
0.000000
71
111
72
41
73
42
0
VERTEX
8
0
6
CONTINUOUS
62
252
70
128
10
0.000000
20
0.000000
30
0.000000
71
111
72
42
73
110
0
VERTEX
8
0
6
CONTINUOUS
62
252
70
128
10
0.000000
20
0.000000
30
0.000000
71
110
72
42
73
43
0
VERTEX
8
0
6
CONTINUOUS
62
252
70
128
10
0.000000
20
0.000000
30
0.000000
71
110
72
43
73
109
0
VERTEX
8
0
6
CONTINUOUS
62
252
70
128
10
0.000000
20
0.000000
30
0.000000
71
109
72
43
73
44
0
VERTEX
8
0
6
CONTINUOUS
62
252
70
128
10
0.000000
20
0.000000
30
0.000000
71
109
72
44
73
108
0
VERTEX
8
0
6
CONTINUOUS
62
252
70
128
10
0.000000
20
0.000000
30
0.000000
71
108
72
44
73
45
0
VERTEX
8
0
6
CONTINUOUS
62
252
70
128
10
0.000000
20
0.000000
30
0.000000
71
108
72
45
73
107
0
VERTEX
8
0
6
CONTINUOUS
62
252
70
128
10
0.000000
20
0.000000
30
0.000000
71
107
72
45
73
46
0
VERTEX
8
0
6
CONTINUOUS
62
252
70
128
10
0.000000
20
0.000000
30
0.000000
71
107
72
46
73
106
0
VERTEX
8
0
6
CONTINUOUS
62
252
70
128
10
0.000000
20
0.000000
30
0.000000
71
106
72
46
73
47
0
VERTEX
8
0
6
CONTINUOUS
62
252
70
128
10
0.000000
20
0.000000
30
0.000000
71
106
72
47
73
105
0
VERTEX
8
0
6
CONTINUOUS
62
252
70
128
10
0.000000
20
0.000000
30
0.000000
71
105
72
47
73
48
0
VERTEX
8
0
6
CONTINUOUS
62
252
70
128
10
0.000000
20
0.000000
30
0.000000
71
105
72
48
73
104
0
VERTEX
8
0
6
CONTINUOUS
62
252
70
128
10
0.000000
20
0.000000
30
0.000000
71
104
72
48
73
49
0
VERTEX
8
0
6
CONTINUOUS
62
252
70
128
10
0.000000
20
0.000000
30
0.000000
71
104
72
49
73
103
0
VERTEX
8
0
6
CONTINUOUS
62
252
70
128
10
0.000000
20
0.000000
30
0.000000
71
103
72
49
73
50
0
VERTEX
8
0
6
CONTINUOUS
62
252
70
128
10
0.000000
20
0.000000
30
0.000000
71
103
72
50
73
102
0
VERTEX
8
0
6
CONTINUOUS
62
252
70
128
10
0.000000
20
0.000000
30
0.000000
71
102
72
50
73
51
0
VERTEX
8
0
6
CONTINUOUS
62
252
70
128
10
0.000000
20
0.000000
30
0.000000
71
102
72
51
73
101
0
VERTEX
8
0
6
CONTINUOUS
62
252
70
128
10
0.000000
20
0.000000
30
0.000000
71
101
72
51
73
52
0
VERTEX
8
0
6
CONTINUOUS
62
252
70
128
10
0.000000
20
0.000000
30
0.000000
71
101
72
52
73
100
0
VERTEX
8
0
6
CONTINUOUS
62
252
70
128
10
0.000000
20
0.000000
30
0.000000
71
100
72
52
73
53
0
VERTEX
8
0
6
CONTINUOUS
62
252
70
128
10
0.000000
20
0.000000
30
0.000000
71
100
72
53
73
99
0
VERTEX
8
0
6
CONTINUOUS
62
252
70
128
10
0.000000
20
0.000000
30
0.000000
71
99
72
53
73
54
0
VERTEX
8
0
6
CONTINUOUS
62
252
70
128
10
0.000000
20
0.000000
30
0.000000
71
99
72
54
73
98
0
VERTEX
8
0
6
CONTINUOUS
62
252
70
128
10
0.000000
20
0.000000
30
0.000000
71
98
72
54
73
55
0
VERTEX
8
0
6
CONTINUOUS
62
252
70
128
10
0.000000
20
0.000000
30
0.000000
71
98
72
55
73
97
0
VERTEX
8
0
6
CONTINUOUS
62
252
70
128
10
0.000000
20
0.000000
30
0.000000
71
97
72
55
73
96
0
VERTEX
8
0
6
CONTINUOUS
62
252
70
128
10
0.000000
20
0.000000
30
0.000000
71
96
72
55
73
56
0
VERTEX
8
0
6
CONTINUOUS
62
252
70
128
10
0.000000
20
0.000000
30
0.000000
71
96
72
56
73
57
0
VERTEX
8
0
6
CONTINUOUS
62
252
70
128
10
0.000000
20
0.000000
30
0.000000
71
96
72
57
73
95
0
VERTEX
8
0
6
CONTINUOUS
62
252
70
128
10
0.000000
20
0.000000
30
0.000000
71
95
72
57
73
58
0
VERTEX
8
0
6
CONTINUOUS
62
252
70
128
10
0.000000
20
0.000000
30
0.000000
71
95
72
58
73
94
0
VERTEX
8
0
6
CONTINUOUS
62
252
70
128
10
0.000000
20
0.000000
30
0.000000
71
94
72
58
73
59
0
VERTEX
8
0
6
CONTINUOUS
62
252
70
128
10
0.000000
20
0.000000
30
0.000000
71
94
72
59
73
93
0
VERTEX
8
0
6
CONTINUOUS
62
252
70
128
10
0.000000
20
0.000000
30
0.000000
71
93
72
59
73
60
0
SEQEND
0
POLYLINE
66
1
8
0
6
CONTINUOUS
62
252
70
64
75
0
10
0.000000
20
0.000000
30
0.000000
0
VERTEX
8
0
6
CONTINUOUS
62
252
70
192
10
1.111000
20
0.265625
30
0.460076
0
VERTEX
8
0
6
CONTINUOUS
62
252
70
192
10
1.113362
20
0.329304
30
0.423311
0
VERTEX
8
0
6
CONTINUOUS
62
252
70
192
10
1.120402
20
0.393581
30
0.386201
0
VERTEX
8
0
6
CONTINUOUS
62
252
70
192
10
1.132254
20
0.460252
30
0.347708
0
VERTEX
8
0
6
CONTINUOUS
62
252
70
192
10
1.149323
20
0.531250
30
0.306717
0
VERTEX
8
0
6
CONTINUOUS
62
252
70
192
10
1.132254
20
0.531250
30
0.224736
0
VERTEX
8
0
6
CONTINUOUS
62
252
70
192
10
1.120402
20
0.531250
30
0.147751
0
VERTEX
8
0
6
CONTINUOUS
62
252
70
192
10
1.113362
20
0.531250
30
0.073530
0
VERTEX
8
0
6
CONTINUOUS
62
252
70
192
10
1.111000
20
0.531250
30
0.000000
0
VERTEX
8
0
6
CONTINUOUS
62
252
70
192
10
1.111000
20
0.528340
30
0.055531
0
VERTEX
8
0
6
CONTINUOUS
62
252
70
192
10
1.111000
20
0.519641
30
0.110453
0
VERTEX
8
0
6
CONTINUOUS
62
252
70
192
10
1.111000
20
0.505249
30
0.164165
0
VERTEX
8
0
6
CONTINUOUS
62
252
70
192
10
1.111000
20
0.485321
30
0.216079
0
VERTEX
8
0
6
CONTINUOUS
62
252
70
192
10
1.111000
20
0.460076
30
0.265625
0
VERTEX
8
0
6
CONTINUOUS
62
252
70
192
10
1.111000
20
0.429790
30
0.312261
0
VERTEX
8
0
6
CONTINUOUS
62
252
70
192
10
1.111000
20
0.394796
30
0.355476
0
VERTEX
8
0
6
CONTINUOUS
62
252
70
192
10
1.111000
20
0.355476
30
0.394796
0
VERTEX
8
0
6
CONTINUOUS
62
252
70
192
10
1.111000
20
0.312261
30
0.429790
0
VERTEX
8
0
6
CONTINUOUS
62
252
70
128
10
0.000000
20
0.000000
30
0.000000
71
1
72
2
73
18
0
VERTEX
8
0
6
CONTINUOUS
62
252
70
128
10
0.000000
20
0.000000
30
0.000000
71
18
72
2
73
17
0
VERTEX
8
0
6
CONTINUOUS
62
252
70
128
10
0.000000
20
0.000000
30
0.000000
71
17
72
2
73
3
0
VERTEX
8
0
6
CONTINUOUS
62
252
70
128
10
0.000000
20
0.000000
30
0.000000
71
17
72
3
73
16
0
VERTEX
8
0
6
CONTINUOUS
62
252
70
128
10
0.000000
20
0.000000
30
0.000000
71
16
72
3
73
4
0
VERTEX
8
0
6
CONTINUOUS
62
252
70
128
10
0.000000
20
0.000000
30
0.000000
71
16
72
4
73
15
0
VERTEX
8
0
6
CONTINUOUS
62
252
70
128
10
0.000000
20
0.000000
30
0.000000
71
15
72
4
73
5
0
VERTEX
8
0
6
CONTINUOUS
62
252
70
128
10
0.000000
20
0.000000
30
0.000000
71
15
72
5
73
14
0
VERTEX
8
0
6
CONTINUOUS
62
252
70
128
10
0.000000
20
0.000000
30
0.000000
71
14
72
5
73
13
0
VERTEX
8
0
6
CONTINUOUS
62
252
70
128
10
0.000000
20
0.000000
30
0.000000
71
13
72
5
73
6
0
VERTEX
8
0
6
CONTINUOUS
62
252
70
128
10
0.000000
20
0.000000
30
0.000000
71
13
72
6
73
12
0
VERTEX
8
0
6
CONTINUOUS
62
252
70
128
10
0.000000
20
0.000000
30
0.000000
71
12
72
6
73
7
0
VERTEX
8
0
6
CONTINUOUS
62
252
70
128
10
0.000000
20
0.000000
30
0.000000
71
12
72
7
73
11
0
VERTEX
8
0
6
CONTINUOUS
62
252
70
128
10
0.000000
20
0.000000
30
0.000000
71
11
72
7
73
8
0
VERTEX
8
0
6
CONTINUOUS
62
252
70
128
10
0.000000
20
0.000000
30
0.000000
71
11
72
8
73
10
0
VERTEX
8
0
6
CONTINUOUS
62
252
70
128
10
0.000000
20
0.000000
30
0.000000
71
10
72
8
73
9
0
SEQEND
0
POLYLINE
66
1
8
0
6
CONTINUOUS
62
252
70
64
75
0
10
0.000000
20
0.000000
30
0.000000
0
VERTEX
8
0
6
CONTINUOUS
62
252
70
192
10
1.149323
20
0.531250
30
-0.306717
0
VERTEX
8
0
6
CONTINUOUS
62
252
70
192
10
1.132254
20
0.460252
30
-0.347708
0
VERTEX
8
0
6
CONTINUOUS
62
252
70
192
10
1.120402
20
0.393581
30
-0.386201
0
VERTEX
8
0
6
CONTINUOUS
62
252
70
192
10
1.113362
20
0.329304
30
-0.423311
0
VERTEX
8
0
6
CONTINUOUS
62
252
70
192
10
1.111000
20
0.265625
30
-0.460076
0
VERTEX
8
0
6
CONTINUOUS
62
252
70
192
10
1.111000
20
0.312261
30
-0.429790
0
VERTEX
8
0
6
CONTINUOUS
62
252
70
192
10
1.111000
20
0.355476
30
-0.394796
0
VERTEX
8
0
6
CONTINUOUS
62
252
70
192
10
1.111000
20
0.394796
30
-0.355476
0
VERTEX
8
0
6
CONTINUOUS
62
252
70
192
10
1.111000
20
0.429790
30
-0.312261
0
VERTEX
8
0
6
CONTINUOUS
62
252
70
192
10
1.111000
20
0.460076
30
-0.265625
0
VERTEX
8
0
6
CONTINUOUS
62
252
70
192
10
1.111000
20
0.485321
30
-0.216079
0
VERTEX
8
0
6
CONTINUOUS
62
252
70
192
10
1.111000
20
0.505249
30
-0.164165
0
VERTEX
8
0
6
CONTINUOUS
62
252
70
192
10
1.111000
20
0.519641
30
-0.110453
0
VERTEX
8
0
6
CONTINUOUS
62
252
70
192
10
1.111000
20
0.528340
30
-0.055531
0
VERTEX
8
0
6
CONTINUOUS
62
252
70
192
10
1.111000
20
0.531250
30
0.000000
0
VERTEX
8
0
6
CONTINUOUS
62
252
70
192
10
1.113362
20
0.531250
30
-0.073530
0
VERTEX
8
0
6
CONTINUOUS
62
252
70
192
10
1.120402
20
0.531250
30
-0.147751
0
VERTEX
8
0
6
CONTINUOUS
62
252
70
192
10
1.132254
20
0.531250
30
-0.224736
0
VERTEX
8
0
6
CONTINUOUS
62
252
70
128
10
0.000000
20
0.000000
30
0.000000
71
2
72
9
73
1
0
VERTEX
8
0
6
CONTINUOUS
62
252
70
128
10
0.000000
20
0.000000
30
0.000000
71
1
72
9
73
10
0
VERTEX
8
0
6
CONTINUOUS
62
252
70
128
10
0.000000
20
0.000000
30
0.000000
71
1
72
10
73
11
0
VERTEX
8
0
6
CONTINUOUS
62
252
70
128
10
0.000000
20
0.000000
30
0.000000
71
9
72
2
73
8
0
VERTEX
8
0
6
CONTINUOUS
62
252
70
128
10
0.000000
20
0.000000
30
0.000000
71
8
72
2
73
3
0
VERTEX
8
0
6
CONTINUOUS
62
252
70
128
10
0.000000
20
0.000000
30
0.000000
71
8
72
3
73
7
0
VERTEX
8
0
6
CONTINUOUS
62
252
70
128
10
0.000000
20
0.000000
30
0.000000
71
7
72
3
73
4
0
VERTEX
8
0
6
CONTINUOUS
62
252
70
128
10
0.000000
20
0.000000
30
0.000000
71
7
72
4
73
6
0
VERTEX
8
0
6
CONTINUOUS
62
252
70
128
10
0.000000
20
0.000000
30
0.000000
71
6
72
4
73
5
0
VERTEX
8
0
6
CONTINUOUS
62
252
70
128
10
0.000000
20
0.000000
30
0.000000
71
1
72
11
73
18
0
VERTEX
8
0
6
CONTINUOUS
62
252
70
128
10
0.000000
20
0.000000
30
0.000000
71
18
72
11
73
12
0
VERTEX
8
0
6
CONTINUOUS
62
252
70
128
10
0.000000
20
0.000000
30
0.000000
71
18
72
12
73
17
0
VERTEX
8
0
6
CONTINUOUS
62
252
70
128
10
0.000000
20
0.000000
30
0.000000
71
17
72
12
73
13
0
VERTEX
8
0
6
CONTINUOUS
62
252
70
128
10
0.000000
20
0.000000
30
0.000000
71
17
72
13
73
16
0
VERTEX
8
0
6
CONTINUOUS
62
252
70
128
10
0.000000
20
0.000000
30
0.000000
71
16
72
13
73
14
0
VERTEX
8
0
6
CONTINUOUS
62
252
70
128
10
0.000000
20
0.000000
30
0.000000
71
16
72
14
73
15
0
SEQEND
0
POLYLINE
66
1
8
0
6
CONTINUOUS
62
252
70
64
75
0
10
0.000000
20
0.000000
30
0.000000
0
VERTEX
8
0
6
CONTINUOUS
62
252
70
192
10
1.111000
20
-0.265625
30
0.460076
0
VERTEX
8
0
6
CONTINUOUS
62
252
70
192
10
1.113362
20
-0.201946
30
0.496841
0
VERTEX
8
0
6
CONTINUOUS
62
252
70
192
10
1.120402
20
-0.137669
30
0.533951
0
VERTEX
8
0
6
CONTINUOUS
62
252
70
192
10
1.132254
20
-0.070998
30
0.572444
0
VERTEX
8
0
6
CONTINUOUS
62
252
70
192
10
1.149323
20
0.000000
30
0.613435
0
VERTEX
8
0
6
CONTINUOUS
62
252
70
192
10
1.132254
20
0.070998
30
0.572444
0
VERTEX
8
0
6
CONTINUOUS
62
252
70
192
10
1.120402
20
0.137669
30
0.533951
0
VERTEX
8
0
6
CONTINUOUS
62
252
70
192
10
1.113362
20
0.201946
30
0.496841
0
VERTEX
8
0
6
CONTINUOUS
62
252
70
192
10
1.111000
20
0.265625
30
0.460076
0
VERTEX
8
0
6
CONTINUOUS
62
252
70
192
10
1.111000
20
0.216079
30
0.485321
0
VERTEX
8
0
6
CONTINUOUS
62
252
70
192
10
1.111000
20
0.164165
30
0.505249
0
VERTEX
8
0
6
CONTINUOUS
62
252
70
192
10
1.111000
20
0.110453
30
0.519641
0
VERTEX
8
0
6
CONTINUOUS
62
252
70
192
10
1.111000
20
0.055531
30
0.528340
0
VERTEX
8
0
6
CONTINUOUS
62
252
70
192
10
1.111000
20
0.000000
30
0.531250
0
VERTEX
8
0
6
CONTINUOUS
62
252
70
192
10
1.111000
20
-0.055531
30
0.528340
0
VERTEX
8
0
6
CONTINUOUS
62
252
70
192
10
1.111000
20
-0.110453
30
0.519641
0
VERTEX
8
0
6
CONTINUOUS
62
252
70
192
10
1.111000
20
-0.164165
30
0.505249
0
VERTEX
8
0
6
CONTINUOUS
62
252
70
192
10
1.111000
20
-0.216079
30
0.485321
0
VERTEX
8
0
6
CONTINUOUS
62
252
70
128
10
0.000000
20
0.000000
30
0.000000
71
1
72
2
73
18
0
VERTEX
8
0
6
CONTINUOUS
62
252
70
128
10
0.000000
20
0.000000
30
0.000000
71
18
72
2
73
17
0
VERTEX
8
0
6
CONTINUOUS
62
252
70
128
10
0.000000
20
0.000000
30
0.000000
71
17
72
2
73
3
0
VERTEX
8
0
6
CONTINUOUS
62
252
70
128
10
0.000000
20
0.000000
30
0.000000
71
17
72
3
73
16
0
VERTEX
8
0
6
CONTINUOUS
62
252
70
128
10
0.000000
20
0.000000
30
0.000000
71
16
72
3
73
4
0
VERTEX
8
0
6
CONTINUOUS
62
252
70
128
10
0.000000
20
0.000000
30
0.000000
71
16
72
4
73
15
0
VERTEX
8
0
6
CONTINUOUS
62
252
70
128
10
0.000000
20
0.000000
30
0.000000
71
15
72
4
73
5
0
VERTEX
8
0
6
CONTINUOUS
62
252
70
128
10
0.000000
20
0.000000
30
0.000000
71
15
72
5
73
14
0
VERTEX
8
0
6
CONTINUOUS
62
252
70
128
10
0.000000
20
0.000000
30
0.000000
71
14
72
5
73
13
0
VERTEX
8
0
6
CONTINUOUS
62
252
70
128
10
0.000000
20
0.000000
30
0.000000
71
13
72
5
73
6
0
VERTEX
8
0
6
CONTINUOUS
62
252
70
128
10
0.000000
20
0.000000
30
0.000000
71
13
72
6
73
12
0
VERTEX
8
0
6
CONTINUOUS
62
252
70
128
10
0.000000
20
0.000000
30
0.000000
71
12
72
6
73
7
0
VERTEX
8
0
6
CONTINUOUS
62
252
70
128
10
0.000000
20
0.000000
30
0.000000
71
12
72
7
73
11
0
VERTEX
8
0
6
CONTINUOUS
62
252
70
128
10
0.000000
20
0.000000
30
0.000000
71
11
72
7
73
8
0
VERTEX
8
0
6
CONTINUOUS
62
252
70
128
10
0.000000
20
0.000000
30
0.000000
71
11
72
8
73
10
0
VERTEX
8
0
6
CONTINUOUS
62
252
70
128
10
0.000000
20
0.000000
30
0.000000
71
10
72
8
73
9
0
SEQEND
0
POLYLINE
66
1
8
0
6
CONTINUOUS
62
252
70
64
75
0
10
0.000000
20
0.000000
30
0.000000
0
VERTEX
8
0
6
CONTINUOUS
62
252
70
192
10
1.111000
20
-0.531250
30
0.000000
0
VERTEX
8
0
6
CONTINUOUS
62
252
70
192
10
1.113362
20
-0.531250
30
0.073530
0
VERTEX
8
0
6
CONTINUOUS
62
252
70
192
10
1.120402
20
-0.531250
30
0.147751
0
VERTEX
8
0
6
CONTINUOUS
62
252
70
192
10
1.132254
20
-0.531250
30
0.224736
0
VERTEX
8
0
6
CONTINUOUS
62
252
70
192
10
1.149323
20
-0.531250
30
0.306717
0
VERTEX
8
0
6
CONTINUOUS
62
252
70
192
10
1.132254
20
-0.460252
30
0.347708
0
VERTEX
8
0
6
CONTINUOUS
62
252
70
192
10
1.120402
20
-0.393581
30
0.386201
0
VERTEX
8
0
6
CONTINUOUS
62
252
70
192
10
1.113362
20
-0.329304
30
0.423311
0
VERTEX
8
0
6
CONTINUOUS
62
252
70
192
10
1.111000
20
-0.265625
30
0.460076
0
VERTEX
8
0
6
CONTINUOUS
62
252
70
192
10
1.111000
20
-0.312261
30
0.429790
0
VERTEX
8
0
6
CONTINUOUS
62
252
70
192
10
1.111000
20
-0.355476
30
0.394796
0
VERTEX
8
0
6
CONTINUOUS
62
252
70
192
10
1.111000
20
-0.394796
30
0.355476
0
VERTEX
8
0
6
CONTINUOUS
62
252
70
192
10
1.111000
20
-0.429790
30
0.312261
0
VERTEX
8
0
6
CONTINUOUS
62
252
70
192
10
1.111000
20
-0.460076
30
0.265625
0
VERTEX
8
0
6
CONTINUOUS
62
252
70
192
10
1.111000
20
-0.485321
30
0.216079
0
VERTEX
8
0
6
CONTINUOUS
62
252
70
192
10
1.111000
20
-0.505249
30
0.164165
0
VERTEX
8
0
6
CONTINUOUS
62
252
70
192
10
1.111000
20
-0.519641
30
0.110453
0
VERTEX
8
0
6
CONTINUOUS
62
252
70
192
10
1.111000
20
-0.528340
30
0.055531
0
VERTEX
8
0
6
CONTINUOUS
62
252
70
128
10
0.000000
20
0.000000
30
0.000000
71
1
72
2
73
18
0
VERTEX
8
0
6
CONTINUOUS
62
252
70
128
10
0.000000
20
0.000000
30
0.000000
71
18
72
2
73
17
0
VERTEX
8
0
6
CONTINUOUS
62
252
70
128
10
0.000000
20
0.000000
30
0.000000
71
17
72
2
73
3
0
VERTEX
8
0
6
CONTINUOUS
62
252
70
128
10
0.000000
20
0.000000
30
0.000000
71
17
72
3
73
16
0
VERTEX
8
0
6
CONTINUOUS
62
252
70
128
10
0.000000
20
0.000000
30
0.000000
71
16
72
3
73
4
0
VERTEX
8
0
6
CONTINUOUS
62
252
70
128
10
0.000000
20
0.000000
30
0.000000
71
16
72
4
73
15
0
VERTEX
8
0
6
CONTINUOUS
62
252
70
128
10
0.000000
20
0.000000
30
0.000000
71
15
72
4
73
5
0
VERTEX
8
0
6
CONTINUOUS
62
252
70
128
10
0.000000
20
0.000000
30
0.000000
71
15
72
5
73
14
0
VERTEX
8
0
6
CONTINUOUS
62
252
70
128
10
0.000000
20
0.000000
30
0.000000
71
14
72
5
73
13
0
VERTEX
8
0
6
CONTINUOUS
62
252
70
128
10
0.000000
20
0.000000
30
0.000000
71
13
72
5
73
6
0
VERTEX
8
0
6
CONTINUOUS
62
252
70
128
10
0.000000
20
0.000000
30
0.000000
71
13
72
6
73
12
0
VERTEX
8
0
6
CONTINUOUS
62
252
70
128
10
0.000000
20
0.000000
30
0.000000
71
12
72
6
73
7
0
VERTEX
8
0
6
CONTINUOUS
62
252
70
128
10
0.000000
20
0.000000
30
0.000000
71
12
72
7
73
11
0
VERTEX
8
0
6
CONTINUOUS
62
252
70
128
10
0.000000
20
0.000000
30
0.000000
71
11
72
7
73
8
0
VERTEX
8
0
6
CONTINUOUS
62
252
70
128
10
0.000000
20
0.000000
30
0.000000
71
11
72
8
73
10
0
VERTEX
8
0
6
CONTINUOUS
62
252
70
128
10
0.000000
20
0.000000
30
0.000000
71
10
72
8
73
9
0
SEQEND
0
POLYLINE
66
1
8
0
6
CONTINUOUS
62
252
70
64
75
0
10
0.000000
20
0.000000
30
0.000000
0
VERTEX
8
0
6
CONTINUOUS
62
252
70
192
10
1.149323
20
0.000000
30
-0.613435
0
VERTEX
8
0
6
CONTINUOUS
62
252
70
192
10
1.132254
20
-0.070998
30
-0.572444
0
VERTEX
8
0
6
CONTINUOUS
62
252
70
192
10
1.120402
20
-0.137669
30
-0.533951
0
VERTEX
8
0
6
CONTINUOUS
62
252
70
192
10
1.113362
20
-0.201946
30
-0.496841
0
VERTEX
8
0
6
CONTINUOUS
62
252
70
192
10
1.111000
20
-0.265625
30
-0.460076
0
VERTEX
8
0
6
CONTINUOUS
62
252
70
192
10
1.111000
20
-0.216079
30
-0.485321
0
VERTEX
8
0
6
CONTINUOUS
62
252
70
192
10
1.111000
20
-0.164165
30
-0.505249
0
VERTEX
8
0
6
CONTINUOUS
62
252
70
192
10
1.111000
20
-0.110453
30
-0.519641
0
VERTEX
8
0
6
CONTINUOUS
62
252
70
192
10
1.111000
20
-0.055531
30
-0.528340
0
VERTEX
8
0
6
CONTINUOUS
62
252
70
192
10
1.111000
20
0.000000
30
-0.531250
0
VERTEX
8
0
6
CONTINUOUS
62
252
70
192
10
1.111000
20
0.055531
30
-0.528340
0
VERTEX
8
0
6
CONTINUOUS
62
252
70
192
10
1.111000
20
0.110453
30
-0.519641
0
VERTEX
8
0
6
CONTINUOUS
62
252
70
192
10
1.111000
20
0.164165
30
-0.505249
0
VERTEX
8
0
6
CONTINUOUS
62
252
70
192
10
1.111000
20
0.216079
30
-0.485321
0
VERTEX
8
0
6
CONTINUOUS
62
252
70
192
10
1.111000
20
0.265625
30
-0.460076
0
VERTEX
8
0
6
CONTINUOUS
62
252
70
192
10
1.113362
20
0.201946
30
-0.496841
0
VERTEX
8
0
6
CONTINUOUS
62
252
70
192
10
1.120402
20
0.137669
30
-0.533951
0
VERTEX
8
0
6
CONTINUOUS
62
252
70
192
10
1.132254
20
0.070998
30
-0.572444
0
VERTEX
8
0
6
CONTINUOUS
62
252
70
128
10
0.000000
20
0.000000
30
0.000000
71
2
72
9
73
1
0
VERTEX
8
0
6
CONTINUOUS
62
252
70
128
10
0.000000
20
0.000000
30
0.000000
71
1
72
9
73
10
0
VERTEX
8
0
6
CONTINUOUS
62
252
70
128
10
0.000000
20
0.000000
30
0.000000
71
1
72
10
73
11
0
VERTEX
8
0
6
CONTINUOUS
62
252
70
128
10
0.000000
20
0.000000
30
0.000000
71
9
72
2
73
8
0
VERTEX
8
0
6
CONTINUOUS
62
252
70
128
10
0.000000
20
0.000000
30
0.000000
71
8
72
2
73
3
0
VERTEX
8
0
6
CONTINUOUS
62
252
70
128
10
0.000000
20
0.000000
30
0.000000
71
8
72
3
73
7
0
VERTEX
8
0
6
CONTINUOUS
62
252
70
128
10
0.000000
20
0.000000
30
0.000000
71
7
72
3
73
4
0
VERTEX
8
0
6
CONTINUOUS
62
252
70
128
10
0.000000
20
0.000000
30
0.000000
71
7
72
4
73
6
0
VERTEX
8
0
6
CONTINUOUS
62
252
70
128
10
0.000000
20
0.000000
30
0.000000
71
6
72
4
73
5
0
VERTEX
8
0
6
CONTINUOUS
62
252
70
128
10
0.000000
20
0.000000
30
0.000000
71
1
72
11
73
18
0
VERTEX
8
0
6
CONTINUOUS
62
252
70
128
10
0.000000
20
0.000000
30
0.000000
71
18
72
11
73
12
0
VERTEX
8
0
6
CONTINUOUS
62
252
70
128
10
0.000000
20
0.000000
30
0.000000
71
18
72
12
73
17
0
VERTEX
8
0
6
CONTINUOUS
62
252
70
128
10
0.000000
20
0.000000
30
0.000000
71
17
72
12
73
13
0
VERTEX
8
0
6
CONTINUOUS
62
252
70
128
10
0.000000
20
0.000000
30
0.000000
71
17
72
13
73
16
0
VERTEX
8
0
6
CONTINUOUS
62
252
70
128
10
0.000000
20
0.000000
30
0.000000
71
16
72
13
73
14
0
VERTEX
8
0
6
CONTINUOUS
62
252
70
128
10
0.000000
20
0.000000
30
0.000000
71
16
72
14
73
15
0
SEQEND
0
POLYLINE
66
1
8
0
6
CONTINUOUS
62
252
70
64
75
0
10
0.000000
20
0.000000
30
0.000000
0
VERTEX
8
0
6
CONTINUOUS
62
252
70
192
10
1.111000
20
-0.265625
30
-0.460076
0
VERTEX
8
0
6
CONTINUOUS
62
252
70
192
10
1.113362
20
-0.329304
30
-0.423311
0
VERTEX
8
0
6
CONTINUOUS
62
252
70
192
10
1.120402
20
-0.393581
30
-0.386201
0
VERTEX
8
0
6
CONTINUOUS
62
252
70
192
10
1.132254
20
-0.460252
30
-0.347708
0
VERTEX
8
0
6
CONTINUOUS
62
252
70
192
10
1.149323
20
-0.531250
30
-0.306717
0
VERTEX
8
0
6
CONTINUOUS
62
252
70
192
10
1.132254
20
-0.531250
30
-0.224736
0
VERTEX
8
0
6
CONTINUOUS
62
252
70
192
10
1.120402
20
-0.531250
30
-0.147751
0
VERTEX
8
0
6
CONTINUOUS
62
252
70
192
10
1.113362
20
-0.531250
30
-0.073530
0
VERTEX
8
0
6
CONTINUOUS
62
252
70
192
10
1.111000
20
-0.531250
30
0.000000
0
VERTEX
8
0
6
CONTINUOUS
62
252
70
192
10
1.111000
20
-0.528340
30
-0.055531
0
VERTEX
8
0
6
CONTINUOUS
62
252
70
192
10
1.111000
20
-0.519641
30
-0.110453
0
VERTEX
8
0
6
CONTINUOUS
62
252
70
192
10
1.111000
20
-0.505249
30
-0.164165
0
VERTEX
8
0
6
CONTINUOUS
62
252
70
192
10
1.111000
20
-0.485321
30
-0.216079
0
VERTEX
8
0
6
CONTINUOUS
62
252
70
192
10
1.111000
20
-0.460076
30
-0.265625
0
VERTEX
8
0
6
CONTINUOUS
62
252
70
192
10
1.111000
20
-0.429790
30
-0.312261
0
VERTEX
8
0
6
CONTINUOUS
62
252
70
192
10
1.111000
20
-0.394796
30
-0.355476
0
VERTEX
8
0
6
CONTINUOUS
62
252
70
192
10
1.111000
20
-0.355476
30
-0.394796
0
VERTEX
8
0
6
CONTINUOUS
62
252
70
192
10
1.111000
20
-0.312261
30
-0.429790
0
VERTEX
8
0
6
CONTINUOUS
62
252
70
128
10
0.000000
20
0.000000
30
0.000000
71
1
72
2
73
18
0
VERTEX
8
0
6
CONTINUOUS
62
252
70
128
10
0.000000
20
0.000000
30
0.000000
71
18
72
2
73
17
0
VERTEX
8
0
6
CONTINUOUS
62
252
70
128
10
0.000000
20
0.000000
30
0.000000
71
17
72
2
73
3
0
VERTEX
8
0
6
CONTINUOUS
62
252
70
128
10
0.000000
20
0.000000
30
0.000000
71
17
72
3
73
16
0
VERTEX
8
0
6
CONTINUOUS
62
252
70
128
10
0.000000
20
0.000000
30
0.000000
71
16
72
3
73
4
0
VERTEX
8
0
6
CONTINUOUS
62
252
70
128
10
0.000000
20
0.000000
30
0.000000
71
16
72
4
73
15
0
VERTEX
8
0
6
CONTINUOUS
62
252
70
128
10
0.000000
20
0.000000
30
0.000000
71
15
72
4
73
5
0
VERTEX
8
0
6
CONTINUOUS
62
252
70
128
10
0.000000
20
0.000000
30
0.000000
71
15
72
5
73
14
0
VERTEX
8
0
6
CONTINUOUS
62
252
70
128
10
0.000000
20
0.000000
30
0.000000
71
14
72
5
73
13
0
VERTEX
8
0
6
CONTINUOUS
62
252
70
128
10
0.000000
20
0.000000
30
0.000000
71
13
72
5
73
6
0
VERTEX
8
0
6
CONTINUOUS
62
252
70
128
10
0.000000
20
0.000000
30
0.000000
71
13
72
6
73
12
0
VERTEX
8
0
6
CONTINUOUS
62
252
70
128
10
0.000000
20
0.000000
30
0.000000
71
12
72
6
73
7
0
VERTEX
8
0
6
CONTINUOUS
62
252
70
128
10
0.000000
20
0.000000
30
0.000000
71
12
72
7
73
11
0
VERTEX
8
0
6
CONTINUOUS
62
252
70
128
10
0.000000
20
0.000000
30
0.000000
71
11
72
7
73
8
0
VERTEX
8
0
6
CONTINUOUS
62
252
70
128
10
0.000000
20
0.000000
30
0.000000
71
11
72
8
73
10
0
VERTEX
8
0
6
CONTINUOUS
62
252
70
128
10
0.000000
20
0.000000
30
0.000000
71
10
72
8
73
9
0
SEQEND
0
POLYLINE
66
1
8
0
6
CONTINUOUS
62
252
70
64
75
0
10
0.000000
20
0.000000
30
0.000000
0
VERTEX
8
0
6
CONTINUOUS
62
252
70
192
10
1.149323
20
-0.531250
30
-0.306717
0
VERTEX
8
0
6
CONTINUOUS
62
252
70
192
10
1.132254
20
-0.460252
30
-0.347708
0
VERTEX
8
0
6
CONTINUOUS
62
252
70
192
10
1.120402
20
-0.393581
30
-0.386201
0
VERTEX
8
0
6
CONTINUOUS
62
252
70
192
10
1.113362
20
-0.329304
30
-0.423311
0
VERTEX
8
0
6
CONTINUOUS
62
252
70
192
10
1.111000
20
-0.265625
30
-0.460076
0
VERTEX
8
0
6
CONTINUOUS
62
252
70
192
10
1.113362
20
-0.201946
30
-0.496841
0
VERTEX
8
0
6
CONTINUOUS
62
252
70
192
10
1.120402
20
-0.137669
30
-0.533951
0
VERTEX
8
0
6
CONTINUOUS
62
252
70
192
10
1.132254
20
-0.070998
30
-0.572444
0
VERTEX
8
0
6
CONTINUOUS
62
252
70
192
10
1.149323
20
0.000000
30
-0.613435
0
VERTEX
8
0
6
CONTINUOUS
62
252
70
192
10
1.871677
20
0.000000
30
-0.613435
0
VERTEX
8
0
6
CONTINUOUS
62
252
70
192
10
1.888746
20
-0.070998
30
-0.572444
0
VERTEX
8
0
6
CONTINUOUS
62
252
70
192
10
1.900598
20
-0.137669
30
-0.533951
0
VERTEX
8
0
6
CONTINUOUS
62
252
70
192
10
1.907638
20
-0.201946
30
-0.496841
0
VERTEX
8
0
6
CONTINUOUS
62
252
70
192
10
1.910000
20
-0.265625
30
-0.460076
0
VERTEX
8
0
6
CONTINUOUS
62
252
70
192
10
1.907638
20
-0.329304
30
-0.423311
0
VERTEX
8
0
6
CONTINUOUS
62
252
70
192
10
1.900598
20
-0.393581
30
-0.386201
0
VERTEX
8
0
6
CONTINUOUS
62
252
70
192
10
1.888746
20
-0.460252
30
-0.347708
0
VERTEX
8
0
6
CONTINUOUS
62
252
70
192
10
1.871677
20
-0.531250
30
-0.306717
0
VERTEX
8
0
6
CONTINUOUS
62
252
70
128
10
0.000000
20
0.000000
30
0.000000
71
1
72
2
73
18
0
VERTEX
8
0
6
CONTINUOUS
62
252
70
128
10
0.000000
20
0.000000
30
0.000000
71
18
72
2
73
17
0
VERTEX
8
0
6
CONTINUOUS
62
252
70
128
10
0.000000
20
0.000000
30
0.000000
71
17
72
2
73
16
0
VERTEX
8
0
6
CONTINUOUS
62
252
70
128
10
0.000000
20
0.000000
30
0.000000
71
16
72
2
73
3
0
VERTEX
8
0
6
CONTINUOUS
62
252
70
128
10
0.000000
20
0.000000
30
0.000000
71
16
72
3
73
15
0
VERTEX
8
0
6
CONTINUOUS
62
252
70
128
10
0.000000
20
0.000000
30
0.000000
71
15
72
3
73
4
0
VERTEX
8
0
6
CONTINUOUS
62
252
70
128
10
0.000000
20
0.000000
30
0.000000
71
15
72
4
73
5
0
VERTEX
8
0
6
CONTINUOUS
62
252
70
128
10
0.000000
20
0.000000
30
0.000000
71
6
72
13
73
5
0
VERTEX
8
0
6
CONTINUOUS
62
252
70
128
10
0.000000
20
0.000000
30
0.000000
71
5
72
13
73
14
0
VERTEX
8
0
6
CONTINUOUS
62
252
70
128
10
0.000000
20
0.000000
30
0.000000
71
5
72
14
73
15
0
VERTEX
8
0
6
CONTINUOUS
62
252
70
128
10
0.000000
20
0.000000
30
0.000000
71
6
72
7
73
13
0
VERTEX
8
0
6
CONTINUOUS
62
252
70
128
10
0.000000
20
0.000000
30
0.000000
71
13
72
7
73
12
0
VERTEX
8
0
6
CONTINUOUS
62
252
70
128
10
0.000000
20
0.000000
30
0.000000
71
12
72
7
73
8
0
VERTEX
8
0
6
CONTINUOUS
62
252
70
128
10
0.000000
20
0.000000
30
0.000000
71
12
72
8
73
11
0
VERTEX
8
0
6
CONTINUOUS
62
252
70
128
10
0.000000
20
0.000000
30
0.000000
71
11
72
8
73
10
0
VERTEX
8
0
6
CONTINUOUS
62
252
70
128
10
0.000000
20
0.000000
30
0.000000
71
10
72
8
73
9
0
SEQEND
0
POLYLINE
66
1
8
0
6
CONTINUOUS
62
252
70
64
75
0
10
0.000000
20
0.000000
30
0.000000
0
VERTEX
8
0
6
CONTINUOUS
62
252
70
192
10
1.149323
20
0.000000
30
-0.613435
0
VERTEX
8
0
6
CONTINUOUS
62
252
70
192
10
1.132254
20
0.070998
30
-0.572444
0
VERTEX
8
0
6
CONTINUOUS
62
252
70
192
10
1.120402
20
0.137669
30
-0.533951
0
VERTEX
8
0
6
CONTINUOUS
62
252
70
192
10
1.113362
20
0.201946
30
-0.496841
0
VERTEX
8
0
6
CONTINUOUS
62
252
70
192
10
1.111000
20
0.265625
30
-0.460076
0
VERTEX
8
0
6
CONTINUOUS
62
252
70
192
10
1.113362
20
0.329304
30
-0.423311
0
VERTEX
8
0
6
CONTINUOUS
62
252
70
192
10
1.120402
20
0.393581
30
-0.386201
0
VERTEX
8
0
6
CONTINUOUS
62
252
70
192
10
1.132254
20
0.460252
30
-0.347708
0
VERTEX
8
0
6
CONTINUOUS
62
252
70
192
10
1.149323
20
0.531250
30
-0.306717
0
VERTEX
8
0
6
CONTINUOUS
62
252
70
192
10
1.871677
20
0.531250
30
-0.306717
0
VERTEX
8
0
6
CONTINUOUS
62
252
70
192
10
1.888746
20
0.460252
30
-0.347708
0
VERTEX
8
0
6
CONTINUOUS
62
252
70
192
10
1.900598
20
0.393581
30
-0.386201
0
VERTEX
8
0
6
CONTINUOUS
62
252
70
192
10
1.907638
20
0.329304
30
-0.423311
0
VERTEX
8
0
6
CONTINUOUS
62
252
70
192
10
1.910000
20
0.265625
30
-0.460076
0
VERTEX
8
0
6
CONTINUOUS
62
252
70
192
10
1.907638
20
0.201946
30
-0.496841
0
VERTEX
8
0
6
CONTINUOUS
62
252
70
192
10
1.900598
20
0.137669
30
-0.533951
0
VERTEX
8
0
6
CONTINUOUS
62
252
70
192
10
1.888746
20
0.070998
30
-0.572444
0
VERTEX
8
0
6
CONTINUOUS
62
252
70
192
10
1.871677
20
0.000000
30
-0.613435
0
VERTEX
8
0
6
CONTINUOUS
62
252
70
128
10
0.000000
20
0.000000
30
0.000000
71
1
72
2
73
18
0
VERTEX
8
0
6
CONTINUOUS
62
252
70
128
10
0.000000
20
0.000000
30
0.000000
71
18
72
2
73
17
0
VERTEX
8
0
6
CONTINUOUS
62
252
70
128
10
0.000000
20
0.000000
30
0.000000
71
17
72
2
73
16
0
VERTEX
8
0
6
CONTINUOUS
62
252
70
128
10
0.000000
20
0.000000
30
0.000000
71
16
72
2
73
3
0
VERTEX
8
0
6
CONTINUOUS
62
252
70
128
10
0.000000
20
0.000000
30
0.000000
71
16
72
3
73
15
0
VERTEX
8
0
6
CONTINUOUS
62
252
70
128
10
0.000000
20
0.000000
30
0.000000
71
15
72
3
73
4
0
VERTEX
8
0
6
CONTINUOUS
62
252
70
128
10
0.000000
20
0.000000
30
0.000000
71
15
72
4
73
5
0
VERTEX
8
0
6
CONTINUOUS
62
252
70
128
10
0.000000
20
0.000000
30
0.000000
71
6
72
13
73
5
0
VERTEX
8
0
6
CONTINUOUS
62
252
70
128
10
0.000000
20
0.000000
30
0.000000
71
5
72
13
73
14
0
VERTEX
8
0
6
CONTINUOUS
62
252
70
128
10
0.000000
20
0.000000
30
0.000000
71
5
72
14
73
15
0
VERTEX
8
0
6
CONTINUOUS
62
252
70
128
10
0.000000
20
0.000000
30
0.000000
71
6
72
7
73
13
0
VERTEX
8
0
6
CONTINUOUS
62
252
70
128
10
0.000000
20
0.000000
30
0.000000
71
13
72
7
73
12
0
VERTEX
8
0
6
CONTINUOUS
62
252
70
128
10
0.000000
20
0.000000
30
0.000000
71
12
72
7
73
8
0
VERTEX
8
0
6
CONTINUOUS
62
252
70
128
10
0.000000
20
0.000000
30
0.000000
71
12
72
8
73
11
0
VERTEX
8
0
6
CONTINUOUS
62
252
70
128
10
0.000000
20
0.000000
30
0.000000
71
11
72
8
73
10
0
VERTEX
8
0
6
CONTINUOUS
62
252
70
128
10
0.000000
20
0.000000
30
0.000000
71
10
72
8
73
9
0
SEQEND
0
POLYLINE
66
1
8
0
6
CONTINUOUS
62
252
70
64
75
0
10
0.000000
20
0.000000
30
0.000000
0
VERTEX
8
0
6
CONTINUOUS
62
252
70
192
10
1.149323
20
0.531250
30
-0.306717
0
VERTEX
8
0
6
CONTINUOUS
62
252
70
192
10
1.132254
20
0.531250
30
-0.224736
0
VERTEX
8
0
6
CONTINUOUS
62
252
70
192
10
1.120402
20
0.531250
30
-0.147751
0
VERTEX
8
0
6
CONTINUOUS
62
252
70
192
10
1.113362
20
0.531250
30
-0.073530
0
VERTEX
8
0
6
CONTINUOUS
62
252
70
192
10
1.111000
20
0.531250
30
0.000000
0
VERTEX
8
0
6
CONTINUOUS
62
252
70
192
10
1.113362
20
0.531250
30
0.073530
0
VERTEX
8
0
6
CONTINUOUS
62
252
70
192
10
1.120402
20
0.531250
30
0.147751
0
VERTEX
8
0
6
CONTINUOUS
62
252
70
192
10
1.132254
20
0.531250
30
0.224736
0
VERTEX
8
0
6
CONTINUOUS
62
252
70
192
10
1.149323
20
0.531250
30
0.306717
0
VERTEX
8
0
6
CONTINUOUS
62
252
70
192
10
1.871677
20
0.531250
30
0.306717
0
VERTEX
8
0
6
CONTINUOUS
62
252
70
192
10
1.888746
20
0.531250
30
0.224736
0
VERTEX
8
0
6
CONTINUOUS
62
252
70
192
10
1.900598
20
0.531250
30
0.147751
0
VERTEX
8
0
6
CONTINUOUS
62
252
70
192
10
1.907638
20
0.531250
30
0.073530
0
VERTEX
8
0
6
CONTINUOUS
62
252
70
192
10
1.910000
20
0.531250
30
0.000000
0
VERTEX
8
0
6
CONTINUOUS
62
252
70
192
10
1.907638
20
0.531250
30
-0.073530
0
VERTEX
8
0
6
CONTINUOUS
62
252
70
192
10
1.900598
20
0.531250
30
-0.147751
0
VERTEX
8
0
6
CONTINUOUS
62
252
70
192
10
1.888746
20
0.531250
30
-0.224736
0
VERTEX
8
0
6
CONTINUOUS
62
252
70
192
10
1.871677
20
0.531250
30
-0.306717
0
VERTEX
8
0
6
CONTINUOUS
62
252
70
128
10
0.000000
20
0.000000
30
0.000000
71
18
72
1
73
17
0
VERTEX
8
0
6
CONTINUOUS
62
252
70
128
10
0.000000
20
0.000000
30
0.000000
71
17
72
1
73
2
0
VERTEX
8
0
6
CONTINUOUS
62
252
70
128
10
0.000000
20
0.000000
30
0.000000
71
17
72
2
73
3
0
VERTEX
8
0
6
CONTINUOUS
62
252
70
128
10
0.000000
20
0.000000
30
0.000000
71
17
72
3
73
16
0
VERTEX
8
0
6
CONTINUOUS
62
252
70
128
10
0.000000
20
0.000000
30
0.000000
71
16
72
3
73
4
0
VERTEX
8
0
6
CONTINUOUS
62
252
70
128
10
0.000000
20
0.000000
30
0.000000
71
16
72
4
73
15
0
VERTEX
8
0
6
CONTINUOUS
62
252
70
128
10
0.000000
20
0.000000
30
0.000000
71
15
72
4
73
14
0
VERTEX
8
0
6
CONTINUOUS
62
252
70
128
10
0.000000
20
0.000000
30
0.000000
71
14
72
4
73
5
0
VERTEX
8
0
6
CONTINUOUS
62
252
70
128
10
0.000000
20
0.000000
30
0.000000
71
14
72
5
73
6
0
VERTEX
8
0
6
CONTINUOUS
62
252
70
128
10
0.000000
20
0.000000
30
0.000000
71
7
72
12
73
6
0
VERTEX
8
0
6
CONTINUOUS
62
252
70
128
10
0.000000
20
0.000000
30
0.000000
71
6
72
12
73
13
0
VERTEX
8
0
6
CONTINUOUS
62
252
70
128
10
0.000000
20
0.000000
30
0.000000
71
6
72
13
73
14
0
VERTEX
8
0
6
CONTINUOUS
62
252
70
128
10
0.000000
20
0.000000
30
0.000000
71
12
72
7
73
11
0
VERTEX
8
0
6
CONTINUOUS
62
252
70
128
10
0.000000
20
0.000000
30
0.000000
71
11
72
7
73
8
0
VERTEX
8
0
6
CONTINUOUS
62
252
70
128
10
0.000000
20
0.000000
30
0.000000
71
11
72
8
73
9
0
VERTEX
8
0
6
CONTINUOUS
62
252
70
128
10
0.000000
20
0.000000
30
0.000000
71
9
72
10
73
11
0
SEQEND
0
POLYLINE
66
1
8
0
6
CONTINUOUS
62
252
70
64
75
0
10
0.000000
20
0.000000
30
0.000000
0
VERTEX
8
0
6
CONTINUOUS
62
252
70
192
10
1.871677
20
0.000000
30
0.613435
0
VERTEX
8
0
6
CONTINUOUS
62
252
70
192
10
1.888746
20
-0.070998
30
0.572444
0
VERTEX
8
0
6
CONTINUOUS
62
252
70
192
10
1.900598
20
-0.137669
30
0.533951
0
VERTEX
8
0
6
CONTINUOUS
62
252
70
192
10
1.907638
20
-0.201946
30
0.496841
0
VERTEX
8
0
6
CONTINUOUS
62
252
70
192
10
1.910000
20
-0.265625
30
0.460076
0
VERTEX
8
0
6
CONTINUOUS
62
252
70
192
10
1.910000
20
-0.216079
30
0.485321
0
VERTEX
8
0
6
CONTINUOUS
62
252
70
192
10
1.910000
20
-0.164165
30
0.505249
0
VERTEX
8
0
6
CONTINUOUS
62
252
70
192
10
1.910000
20
-0.110453
30
0.519641
0
VERTEX
8
0
6
CONTINUOUS
62
252
70
192
10
1.910000
20
-0.055531
30
0.528340
0
VERTEX
8
0
6
CONTINUOUS
62
252
70
192
10
1.910000
20
0.000000
30
0.531250
0
VERTEX
8
0
6
CONTINUOUS
62
252
70
192
10
1.910000
20
0.055531
30
0.528340
0
VERTEX
8
0
6
CONTINUOUS
62
252
70
192
10
1.910000
20
0.110453
30
0.519641
0
VERTEX
8
0
6
CONTINUOUS
62
252
70
192
10
1.910000
20
0.164165
30
0.505249
0
VERTEX
8
0
6
CONTINUOUS
62
252
70
192
10
1.910000
20
0.216079
30
0.485321
0
VERTEX
8
0
6
CONTINUOUS
62
252
70
192
10
1.910000
20
0.265625
30
0.460076
0
VERTEX
8
0
6
CONTINUOUS
62
252
70
192
10
1.907638
20
0.201946
30
0.496841
0
VERTEX
8
0
6
CONTINUOUS
62
252
70
192
10
1.900598
20
0.137669
30
0.533951
0
VERTEX
8
0
6
CONTINUOUS
62
252
70
192
10
1.888746
20
0.070998
30
0.572444
0
VERTEX
8
0
6
CONTINUOUS
62
252
70
128
10
0.000000
20
0.000000
30
0.000000
71
2
72
9
73
1
0
VERTEX
8
0
6
CONTINUOUS
62
252
70
128
10
0.000000
20
0.000000
30
0.000000
71
1
72
9
73
10
0
VERTEX
8
0
6
CONTINUOUS
62
252
70
128
10
0.000000
20
0.000000
30
0.000000
71
1
72
10
73
11
0
VERTEX
8
0
6
CONTINUOUS
62
252
70
128
10
0.000000
20
0.000000
30
0.000000
71
9
72
2
73
8
0
VERTEX
8
0
6
CONTINUOUS
62
252
70
128
10
0.000000
20
0.000000
30
0.000000
71
8
72
2
73
3
0
VERTEX
8
0
6
CONTINUOUS
62
252
70
128
10
0.000000
20
0.000000
30
0.000000
71
8
72
3
73
7
0
VERTEX
8
0
6
CONTINUOUS
62
252
70
128
10
0.000000
20
0.000000
30
0.000000
71
7
72
3
73
4
0
VERTEX
8
0
6
CONTINUOUS
62
252
70
128
10
0.000000
20
0.000000
30
0.000000
71
7
72
4
73
6
0
VERTEX
8
0
6
CONTINUOUS
62
252
70
128
10
0.000000
20
0.000000
30
0.000000
71
6
72
4
73
5
0
VERTEX
8
0
6
CONTINUOUS
62
252
70
128
10
0.000000
20
0.000000
30
0.000000
71
1
72
11
73
18
0
VERTEX
8
0
6
CONTINUOUS
62
252
70
128
10
0.000000
20
0.000000
30
0.000000
71
18
72
11
73
12
0
VERTEX
8
0
6
CONTINUOUS
62
252
70
128
10
0.000000
20
0.000000
30
0.000000
71
18
72
12
73
17
0
VERTEX
8
0
6
CONTINUOUS
62
252
70
128
10
0.000000
20
0.000000
30
0.000000
71
17
72
12
73
13
0
VERTEX
8
0
6
CONTINUOUS
62
252
70
128
10
0.000000
20
0.000000
30
0.000000
71
17
72
13
73
16
0
VERTEX
8
0
6
CONTINUOUS
62
252
70
128
10
0.000000
20
0.000000
30
0.000000
71
16
72
13
73
14
0
VERTEX
8
0
6
CONTINUOUS
62
252
70
128
10
0.000000
20
0.000000
30
0.000000
71
16
72
14
73
15
0
SEQEND
0
POLYLINE
66
1
8
0
6
CONTINUOUS
62
252
70
64
75
0
10
0.000000
20
0.000000
30
0.000000
0
VERTEX
8
0
6
CONTINUOUS
62
252
70
192
10
1.871677
20
-0.531250
30
0.306717
0
VERTEX
8
0
6
CONTINUOUS
62
252
70
192
10
1.888746
20
-0.531250
30
0.224736
0
VERTEX
8
0
6
CONTINUOUS
62
252
70
192
10
1.900598
20
-0.531250
30
0.147751
0
VERTEX
8
0
6
CONTINUOUS
62
252
70
192
10
1.907638
20
-0.531250
30
0.073530
0
VERTEX
8
0
6
CONTINUOUS
62
252
70
192
10
1.910000
20
-0.531250
30
-0.000000
0
VERTEX
8
0
6
CONTINUOUS
62
252
70
192
10
1.910000
20
-0.528340
30
0.055531
0
VERTEX
8
0
6
CONTINUOUS
62
252
70
192
10
1.910000
20
-0.519641
30
0.110453
0
VERTEX
8
0
6
CONTINUOUS
62
252
70
192
10
1.910000
20
-0.505249
30
0.164165
0
VERTEX
8
0
6
CONTINUOUS
62
252
70
192
10
1.910000
20
-0.485321
30
0.216079
0
VERTEX
8
0
6
CONTINUOUS
62
252
70
192
10
1.910000
20
-0.460076
30
0.265625
0
VERTEX
8
0
6
CONTINUOUS
62
252
70
192
10
1.910000
20
-0.429790
30
0.312261
0
VERTEX
8
0
6
CONTINUOUS
62
252
70
192
10
1.910000
20
-0.394796
30
0.355476
0
VERTEX
8
0
6
CONTINUOUS
62
252
70
192
10
1.910000
20
-0.355476
30
0.394796
0
VERTEX
8
0
6
CONTINUOUS
62
252
70
192
10
1.910000
20
-0.312261
30
0.429790
0
VERTEX
8
0
6
CONTINUOUS
62
252
70
192
10
1.910000
20
-0.265625
30
0.460076
0
VERTEX
8
0
6
CONTINUOUS
62
252
70
192
10
1.907638
20
-0.329304
30
0.423311
0
VERTEX
8
0
6
CONTINUOUS
62
252
70
192
10
1.900598
20
-0.393581
30
0.386201
0
VERTEX
8
0
6
CONTINUOUS
62
252
70
192
10
1.888746
20
-0.460252
30
0.347708
0
VERTEX
8
0
6
CONTINUOUS
62
252
70
128
10
0.000000
20
0.000000
30
0.000000
71
2
72
9
73
1
0
VERTEX
8
0
6
CONTINUOUS
62
252
70
128
10
0.000000
20
0.000000
30
0.000000
71
1
72
9
73
10
0
VERTEX
8
0
6
CONTINUOUS
62
252
70
128
10
0.000000
20
0.000000
30
0.000000
71
1
72
10
73
11
0
VERTEX
8
0
6
CONTINUOUS
62
252
70
128
10
0.000000
20
0.000000
30
0.000000
71
9
72
2
73
8
0
VERTEX
8
0
6
CONTINUOUS
62
252
70
128
10
0.000000
20
0.000000
30
0.000000
71
8
72
2
73
3
0
VERTEX
8
0
6
CONTINUOUS
62
252
70
128
10
0.000000
20
0.000000
30
0.000000
71
8
72
3
73
7
0
VERTEX
8
0
6
CONTINUOUS
62
252
70
128
10
0.000000
20
0.000000
30
0.000000
71
7
72
3
73
4
0
VERTEX
8
0
6
CONTINUOUS
62
252
70
128
10
0.000000
20
0.000000
30
0.000000
71
7
72
4
73
6
0
VERTEX
8
0
6
CONTINUOUS
62
252
70
128
10
0.000000
20
0.000000
30
0.000000
71
6
72
4
73
5
0
VERTEX
8
0
6
CONTINUOUS
62
252
70
128
10
0.000000
20
0.000000
30
0.000000
71
1
72
11
73
18
0
VERTEX
8
0
6
CONTINUOUS
62
252
70
128
10
0.000000
20
0.000000
30
0.000000
71
18
72
11
73
12
0
VERTEX
8
0
6
CONTINUOUS
62
252
70
128
10
0.000000
20
0.000000
30
0.000000
71
18
72
12
73
17
0
VERTEX
8
0
6
CONTINUOUS
62
252
70
128
10
0.000000
20
0.000000
30
0.000000
71
17
72
12
73
13
0
VERTEX
8
0
6
CONTINUOUS
62
252
70
128
10
0.000000
20
0.000000
30
0.000000
71
17
72
13
73
16
0
VERTEX
8
0
6
CONTINUOUS
62
252
70
128
10
0.000000
20
0.000000
30
0.000000
71
16
72
13
73
14
0
VERTEX
8
0
6
CONTINUOUS
62
252
70
128
10
0.000000
20
0.000000
30
0.000000
71
16
72
14
73
15
0
SEQEND
0
POLYLINE
66
1
8
0
6
CONTINUOUS
62
252
70
64
75
0
10
0.000000
20
0.000000
30
0.000000
0
VERTEX
8
0
6
CONTINUOUS
62
252
70
192
10
1.910000
20
0.531250
30
0.000000
0
VERTEX
8
0
6
CONTINUOUS
62
252
70
192
10
1.907638
20
0.531250
30
0.073530
0
VERTEX
8
0
6
CONTINUOUS
62
252
70
192
10
1.900598
20
0.531250
30
0.147751
0
VERTEX
8
0
6
CONTINUOUS
62
252
70
192
10
1.888746
20
0.531250
30
0.224736
0
VERTEX
8
0
6
CONTINUOUS
62
252
70
192
10
1.871677
20
0.531250
30
0.306717
0
VERTEX
8
0
6
CONTINUOUS
62
252
70
192
10
1.888746
20
0.460252
30
0.347708
0
VERTEX
8
0
6
CONTINUOUS
62
252
70
192
10
1.900598
20
0.393581
30
0.386201
0
VERTEX
8
0
6
CONTINUOUS
62
252
70
192
10
1.907638
20
0.329304
30
0.423311
0
VERTEX
8
0
6
CONTINUOUS
62
252
70
192
10
1.910000
20
0.265625
30
0.460076
0
VERTEX
8
0
6
CONTINUOUS
62
252
70
192
10
1.910000
20
0.312261
30
0.429790
0
VERTEX
8
0
6
CONTINUOUS
62
252
70
192
10
1.910000
20
0.355476
30
0.394796
0
VERTEX
8
0
6
CONTINUOUS
62
252
70
192
10
1.910000
20
0.394796
30
0.355476
0
VERTEX
8
0
6
CONTINUOUS
62
252
70
192
10
1.910000
20
0.429790
30
0.312261
0
VERTEX
8
0
6
CONTINUOUS
62
252
70
192
10
1.910000
20
0.460076
30
0.265625
0
VERTEX
8
0
6
CONTINUOUS
62
252
70
192
10
1.910000
20
0.485321
30
0.216079
0
VERTEX
8
0
6
CONTINUOUS
62
252
70
192
10
1.910000
20
0.505249
30
0.164165
0
VERTEX
8
0
6
CONTINUOUS
62
252
70
192
10
1.910000
20
0.519641
30
0.110453
0
VERTEX
8
0
6
CONTINUOUS
62
252
70
192
10
1.910000
20
0.528340
30
0.055531
0
VERTEX
8
0
6
CONTINUOUS
62
252
70
128
10
0.000000
20
0.000000
30
0.000000
71
1
72
2
73
18
0
VERTEX
8
0
6
CONTINUOUS
62
252
70
128
10
0.000000
20
0.000000
30
0.000000
71
18
72
2
73
17
0
VERTEX
8
0
6
CONTINUOUS
62
252
70
128
10
0.000000
20
0.000000
30
0.000000
71
17
72
2
73
3
0
VERTEX
8
0
6
CONTINUOUS
62
252
70
128
10
0.000000
20
0.000000
30
0.000000
71
17
72
3
73
16
0
VERTEX
8
0
6
CONTINUOUS
62
252
70
128
10
0.000000
20
0.000000
30
0.000000
71
16
72
3
73
4
0
VERTEX
8
0
6
CONTINUOUS
62
252
70
128
10
0.000000
20
0.000000
30
0.000000
71
16
72
4
73
15
0
VERTEX
8
0
6
CONTINUOUS
62
252
70
128
10
0.000000
20
0.000000
30
0.000000
71
15
72
4
73
5
0
VERTEX
8
0
6
CONTINUOUS
62
252
70
128
10
0.000000
20
0.000000
30
0.000000
71
15
72
5
73
14
0
VERTEX
8
0
6
CONTINUOUS
62
252
70
128
10
0.000000
20
0.000000
30
0.000000
71
14
72
5
73
13
0
VERTEX
8
0
6
CONTINUOUS
62
252
70
128
10
0.000000
20
0.000000
30
0.000000
71
13
72
5
73
6
0
VERTEX
8
0
6
CONTINUOUS
62
252
70
128
10
0.000000
20
0.000000
30
0.000000
71
13
72
6
73
12
0
VERTEX
8
0
6
CONTINUOUS
62
252
70
128
10
0.000000
20
0.000000
30
0.000000
71
12
72
6
73
7
0
VERTEX
8
0
6
CONTINUOUS
62
252
70
128
10
0.000000
20
0.000000
30
0.000000
71
12
72
7
73
11
0
VERTEX
8
0
6
CONTINUOUS
62
252
70
128
10
0.000000
20
0.000000
30
0.000000
71
11
72
7
73
8
0
VERTEX
8
0
6
CONTINUOUS
62
252
70
128
10
0.000000
20
0.000000
30
0.000000
71
11
72
8
73
10
0
VERTEX
8
0
6
CONTINUOUS
62
252
70
128
10
0.000000
20
0.000000
30
0.000000
71
10
72
8
73
9
0
SEQEND
0
POLYLINE
66
1
8
0
6
CONTINUOUS
62
252
70
64
75
0
10
0.000000
20
0.000000
30
0.000000
0
VERTEX
8
0
6
CONTINUOUS
62
252
70
192
10
1.910000
20
0.265625
30
-0.460076
0
VERTEX
8
0
6
CONTINUOUS
62
252
70
192
10
1.907638
20
0.329304
30
-0.423311
0
VERTEX
8
0
6
CONTINUOUS
62
252
70
192
10
1.900598
20
0.393581
30
-0.386201
0
VERTEX
8
0
6
CONTINUOUS
62
252
70
192
10
1.888746
20
0.460252
30
-0.347708
0
VERTEX
8
0
6
CONTINUOUS
62
252
70
192
10
1.871677
20
0.531250
30
-0.306717
0
VERTEX
8
0
6
CONTINUOUS
62
252
70
192
10
1.888746
20
0.531250
30
-0.224736
0
VERTEX
8
0
6
CONTINUOUS
62
252
70
192
10
1.900598
20
0.531250
30
-0.147751
0
VERTEX
8
0
6
CONTINUOUS
62
252
70
192
10
1.907638
20
0.531250
30
-0.073530
0
VERTEX
8
0
6
CONTINUOUS
62
252
70
192
10
1.910000
20
0.531250
30
0.000000
0
VERTEX
8
0
6
CONTINUOUS
62
252
70
192
10
1.910000
20
0.528340
30
-0.055531
0
VERTEX
8
0
6
CONTINUOUS
62
252
70
192
10
1.910000
20
0.519641
30
-0.110453
0
VERTEX
8
0
6
CONTINUOUS
62
252
70
192
10
1.910000
20
0.505249
30
-0.164165
0
VERTEX
8
0
6
CONTINUOUS
62
252
70
192
10
1.910000
20
0.485321
30
-0.216079
0
VERTEX
8
0
6
CONTINUOUS
62
252
70
192
10
1.910000
20
0.460076
30
-0.265625
0
VERTEX
8
0
6
CONTINUOUS
62
252
70
192
10
1.910000
20
0.429790
30
-0.312261
0
VERTEX
8
0
6
CONTINUOUS
62
252
70
192
10
1.910000
20
0.394796
30
-0.355476
0
VERTEX
8
0
6
CONTINUOUS
62
252
70
192
10
1.910000
20
0.355476
30
-0.394796
0
VERTEX
8
0
6
CONTINUOUS
62
252
70
192
10
1.910000
20
0.312261
30
-0.429790
0
VERTEX
8
0
6
CONTINUOUS
62
252
70
128
10
0.000000
20
0.000000
30
0.000000
71
1
72
2
73
18
0
VERTEX
8
0
6
CONTINUOUS
62
252
70
128
10
0.000000
20
0.000000
30
0.000000
71
18
72
2
73
17
0
VERTEX
8
0
6
CONTINUOUS
62
252
70
128
10
0.000000
20
0.000000
30
0.000000
71
17
72
2
73
3
0
VERTEX
8
0
6
CONTINUOUS
62
252
70
128
10
0.000000
20
0.000000
30
0.000000
71
17
72
3
73
16
0
VERTEX
8
0
6
CONTINUOUS
62
252
70
128
10
0.000000
20
0.000000
30
0.000000
71
16
72
3
73
4
0
VERTEX
8
0
6
CONTINUOUS
62
252
70
128
10
0.000000
20
0.000000
30
0.000000
71
16
72
4
73
15
0
VERTEX
8
0
6
CONTINUOUS
62
252
70
128
10
0.000000
20
0.000000
30
0.000000
71
15
72
4
73
5
0
VERTEX
8
0
6
CONTINUOUS
62
252
70
128
10
0.000000
20
0.000000
30
0.000000
71
15
72
5
73
14
0
VERTEX
8
0
6
CONTINUOUS
62
252
70
128
10
0.000000
20
0.000000
30
0.000000
71
14
72
5
73
13
0
VERTEX
8
0
6
CONTINUOUS
62
252
70
128
10
0.000000
20
0.000000
30
0.000000
71
13
72
5
73
6
0
VERTEX
8
0
6
CONTINUOUS
62
252
70
128
10
0.000000
20
0.000000
30
0.000000
71
13
72
6
73
12
0
VERTEX
8
0
6
CONTINUOUS
62
252
70
128
10
0.000000
20
0.000000
30
0.000000
71
12
72
6
73
7
0
VERTEX
8
0
6
CONTINUOUS
62
252
70
128
10
0.000000
20
0.000000
30
0.000000
71
12
72
7
73
11
0
VERTEX
8
0
6
CONTINUOUS
62
252
70
128
10
0.000000
20
0.000000
30
0.000000
71
11
72
7
73
8
0
VERTEX
8
0
6
CONTINUOUS
62
252
70
128
10
0.000000
20
0.000000
30
0.000000
71
11
72
8
73
10
0
VERTEX
8
0
6
CONTINUOUS
62
252
70
128
10
0.000000
20
0.000000
30
0.000000
71
10
72
8
73
9
0
SEQEND
0
POLYLINE
66
1
8
0
6
CONTINUOUS
62
252
70
64
75
0
10
0.000000
20
0.000000
30
0.000000
0
VERTEX
8
0
6
CONTINUOUS
62
252
70
192
10
1.871677
20
-0.531250
30
-0.306717
0
VERTEX
8
0
6
CONTINUOUS
62
252
70
192
10
1.888746
20
-0.460252
30
-0.347708
0
VERTEX
8
0
6
CONTINUOUS
62
252
70
192
10
1.900598
20
-0.393581
30
-0.386201
0
VERTEX
8
0
6
CONTINUOUS
62
252
70
192
10
1.907638
20
-0.329304
30
-0.423311
0
VERTEX
8
0
6
CONTINUOUS
62
252
70
192
10
1.910000
20
-0.265625
30
-0.460076
0
VERTEX
8
0
6
CONTINUOUS
62
252
70
192
10
1.910000
20
-0.312261
30
-0.429790
0
VERTEX
8
0
6
CONTINUOUS
62
252
70
192
10
1.910000
20
-0.355476
30
-0.394796
0
VERTEX
8
0
6
CONTINUOUS
62
252
70
192
10
1.910000
20
-0.394796
30
-0.355476
0
VERTEX
8
0
6
CONTINUOUS
62
252
70
192
10
1.910000
20
-0.429790
30
-0.312261
0
VERTEX
8
0
6
CONTINUOUS
62
252
70
192
10
1.910000
20
-0.460076
30
-0.265625
0
VERTEX
8
0
6
CONTINUOUS
62
252
70
192
10
1.910000
20
-0.485321
30
-0.216079
0
VERTEX
8
0
6
CONTINUOUS
62
252
70
192
10
1.910000
20
-0.505249
30
-0.164165
0
VERTEX
8
0
6
CONTINUOUS
62
252
70
192
10
1.910000
20
-0.519641
30
-0.110453
0
VERTEX
8
0
6
CONTINUOUS
62
252
70
192
10
1.910000
20
-0.528340
30
-0.055531
0
VERTEX
8
0
6
CONTINUOUS
62
252
70
192
10
1.910000
20
-0.531250
30
-0.000000
0
VERTEX
8
0
6
CONTINUOUS
62
252
70
192
10
1.907638
20
-0.531250
30
-0.073530
0
VERTEX
8
0
6
CONTINUOUS
62
252
70
192
10
1.900598
20
-0.531250
30
-0.147751
0
VERTEX
8
0
6
CONTINUOUS
62
252
70
192
10
1.888746
20
-0.531250
30
-0.224736
0
VERTEX
8
0
6
CONTINUOUS
62
252
70
128
10
0.000000
20
0.000000
30
0.000000
71
2
72
9
73
1
0
VERTEX
8
0
6
CONTINUOUS
62
252
70
128
10
0.000000
20
0.000000
30
0.000000
71
1
72
9
73
10
0
VERTEX
8
0
6
CONTINUOUS
62
252
70
128
10
0.000000
20
0.000000
30
0.000000
71
1
72
10
73
11
0
VERTEX
8
0
6
CONTINUOUS
62
252
70
128
10
0.000000
20
0.000000
30
0.000000
71
9
72
2
73
8
0
VERTEX
8
0
6
CONTINUOUS
62
252
70
128
10
0.000000
20
0.000000
30
0.000000
71
8
72
2
73
3
0
VERTEX
8
0
6
CONTINUOUS
62
252
70
128
10
0.000000
20
0.000000
30
0.000000
71
8
72
3
73
7
0
VERTEX
8
0
6
CONTINUOUS
62
252
70
128
10
0.000000
20
0.000000
30
0.000000
71
7
72
3
73
4
0
VERTEX
8
0
6
CONTINUOUS
62
252
70
128
10
0.000000
20
0.000000
30
0.000000
71
7
72
4
73
6
0
VERTEX
8
0
6
CONTINUOUS
62
252
70
128
10
0.000000
20
0.000000
30
0.000000
71
6
72
4
73
5
0
VERTEX
8
0
6
CONTINUOUS
62
252
70
128
10
0.000000
20
0.000000
30
0.000000
71
1
72
11
73
18
0
VERTEX
8
0
6
CONTINUOUS
62
252
70
128
10
0.000000
20
0.000000
30
0.000000
71
18
72
11
73
12
0
VERTEX
8
0
6
CONTINUOUS
62
252
70
128
10
0.000000
20
0.000000
30
0.000000
71
18
72
12
73
17
0
VERTEX
8
0
6
CONTINUOUS
62
252
70
128
10
0.000000
20
0.000000
30
0.000000
71
17
72
12
73
13
0
VERTEX
8
0
6
CONTINUOUS
62
252
70
128
10
0.000000
20
0.000000
30
0.000000
71
17
72
13
73
16
0
VERTEX
8
0
6
CONTINUOUS
62
252
70
128
10
0.000000
20
0.000000
30
0.000000
71
16
72
13
73
14
0
VERTEX
8
0
6
CONTINUOUS
62
252
70
128
10
0.000000
20
0.000000
30
0.000000
71
16
72
14
73
15
0
SEQEND
0
POLYLINE
66
1
8
0
6
CONTINUOUS
62
252
70
64
75
0
10
0.000000
20
0.000000
30
0.000000
0
VERTEX
8
0
6
CONTINUOUS
62
252
70
192
10
1.871677
20
0.000000
30
-0.613435
0
VERTEX
8
0
6
CONTINUOUS
62
252
70
192
10
1.888746
20
0.070998
30
-0.572444
0
VERTEX
8
0
6
CONTINUOUS
62
252
70
192
10
1.900598
20
0.137669
30
-0.533951
0
VERTEX
8
0
6
CONTINUOUS
62
252
70
192
10
1.907638
20
0.201946
30
-0.496841
0
VERTEX
8
0
6
CONTINUOUS
62
252
70
192
10
1.910000
20
0.265625
30
-0.460076
0
VERTEX
8
0
6
CONTINUOUS
62
252
70
192
10
1.910000
20
0.216079
30
-0.485321
0
VERTEX
8
0
6
CONTINUOUS
62
252
70
192
10
1.910000
20
0.164165
30
-0.505249
0
VERTEX
8
0
6
CONTINUOUS
62
252
70
192
10
1.910000
20
0.110453
30
-0.519641
0
VERTEX
8
0
6
CONTINUOUS
62
252
70
192
10
1.910000
20
0.055531
30
-0.528340
0
VERTEX
8
0
6
CONTINUOUS
62
252
70
192
10
1.910000
20
0.000000
30
-0.531250
0
VERTEX
8
0
6
CONTINUOUS
62
252
70
192
10
1.910000
20
-0.055531
30
-0.528340
0
VERTEX
8
0
6
CONTINUOUS
62
252
70
192
10
1.910000
20
-0.110453
30
-0.519641
0
VERTEX
8
0
6
CONTINUOUS
62
252
70
192
10
1.910000
20
-0.164165
30
-0.505249
0
VERTEX
8
0
6
CONTINUOUS
62
252
70
192
10
1.910000
20
-0.216079
30
-0.485321
0
VERTEX
8
0
6
CONTINUOUS
62
252
70
192
10
1.910000
20
-0.265625
30
-0.460076
0
VERTEX
8
0
6
CONTINUOUS
62
252
70
192
10
1.907638
20
-0.201946
30
-0.496841
0
VERTEX
8
0
6
CONTINUOUS
62
252
70
192
10
1.900598
20
-0.137669
30
-0.533951
0
VERTEX
8
0
6
CONTINUOUS
62
252
70
192
10
1.888746
20
-0.070998
30
-0.572444
0
VERTEX
8
0
6
CONTINUOUS
62
252
70
128
10
0.000000
20
0.000000
30
0.000000
71
2
72
9
73
1
0
VERTEX
8
0
6
CONTINUOUS
62
252
70
128
10
0.000000
20
0.000000
30
0.000000
71
1
72
9
73
10
0
VERTEX
8
0
6
CONTINUOUS
62
252
70
128
10
0.000000
20
0.000000
30
0.000000
71
1
72
10
73
11
0
VERTEX
8
0
6
CONTINUOUS
62
252
70
128
10
0.000000
20
0.000000
30
0.000000
71
9
72
2
73
8
0
VERTEX
8
0
6
CONTINUOUS
62
252
70
128
10
0.000000
20
0.000000
30
0.000000
71
8
72
2
73
3
0
VERTEX
8
0
6
CONTINUOUS
62
252
70
128
10
0.000000
20
0.000000
30
0.000000
71
8
72
3
73
7
0
VERTEX
8
0
6
CONTINUOUS
62
252
70
128
10
0.000000
20
0.000000
30
0.000000
71
7
72
3
73
4
0
VERTEX
8
0
6
CONTINUOUS
62
252
70
128
10
0.000000
20
0.000000
30
0.000000
71
7
72
4
73
6
0
VERTEX
8
0
6
CONTINUOUS
62
252
70
128
10
0.000000
20
0.000000
30
0.000000
71
6
72
4
73
5
0
VERTEX
8
0
6
CONTINUOUS
62
252
70
128
10
0.000000
20
0.000000
30
0.000000
71
1
72
11
73
18
0
VERTEX
8
0
6
CONTINUOUS
62
252
70
128
10
0.000000
20
0.000000
30
0.000000
71
18
72
11
73
12
0
VERTEX
8
0
6
CONTINUOUS
62
252
70
128
10
0.000000
20
0.000000
30
0.000000
71
18
72
12
73
17
0
VERTEX
8
0
6
CONTINUOUS
62
252
70
128
10
0.000000
20
0.000000
30
0.000000
71
17
72
12
73
13
0
VERTEX
8
0
6
CONTINUOUS
62
252
70
128
10
0.000000
20
0.000000
30
0.000000
71
17
72
13
73
16
0
VERTEX
8
0
6
CONTINUOUS
62
252
70
128
10
0.000000
20
0.000000
30
0.000000
71
16
72
13
73
14
0
VERTEX
8
0
6
CONTINUOUS
62
252
70
128
10
0.000000
20
0.000000
30
0.000000
71
16
72
14
73
15
0
SEQEND
0
POLYLINE
66
1
8
0
6
CONTINUOUS
62
252
70
64
75
0
10
0.000000
20
0.000000
30
0.000000
0
VERTEX
8
0
6
CONTINUOUS
62
252
70
192
10
1.111000
20
-0.531250
30
0.000000
0
VERTEX
8
0
6
CONTINUOUS
62
252
70
192
10
1.113362
20
-0.531250
30
-0.073530
0
VERTEX
8
0
6
CONTINUOUS
62
252
70
192
10
1.120402
20
-0.531250
30
-0.147751
0
VERTEX
8
0
6
CONTINUOUS
62
252
70
192
10
1.132254
20
-0.531250
30
-0.224736
0
VERTEX
8
0
6
CONTINUOUS
62
252
70
192
10
1.149323
20
-0.531250
30
-0.306717
0
VERTEX
8
0
6
CONTINUOUS
62
252
70
192
10
1.871677
20
-0.531250
30
-0.306717
0
VERTEX
8
0
6
CONTINUOUS
62
252
70
192
10
1.888746
20
-0.531250
30
-0.224736
0
VERTEX
8
0
6
CONTINUOUS
62
252
70
192
10
1.900598
20
-0.531250
30
-0.147751
0
VERTEX
8
0
6
CONTINUOUS
62
252
70
192
10
1.907638
20
-0.531250
30
-0.073530
0
VERTEX
8
0
6
CONTINUOUS
62
252
70
192
10
1.910000
20
-0.531250
30
-0.000000
0
VERTEX
8
0
6
CONTINUOUS
62
252
70
192
10
1.907638
20
-0.531250
30
0.073530
0
VERTEX
8
0
6
CONTINUOUS
62
252
70
192
10
1.900598
20
-0.531250
30
0.147751
0
VERTEX
8
0
6
CONTINUOUS
62
252
70
192
10
1.888746
20
-0.531250
30
0.224736
0
VERTEX
8
0
6
CONTINUOUS
62
252
70
192
10
1.871677
20
-0.531250
30
0.306717
0
VERTEX
8
0
6
CONTINUOUS
62
252
70
192
10
1.149323
20
-0.531250
30
0.306717
0
VERTEX
8
0
6
CONTINUOUS
62
252
70
192
10
1.132254
20
-0.531250
30
0.224736
0
VERTEX
8
0
6
CONTINUOUS
62
252
70
192
10
1.120402
20
-0.531250
30
0.147751
0
VERTEX
8
0
6
CONTINUOUS
62
252
70
192
10
1.113362
20
-0.531250
30
0.073530
0
VERTEX
8
0
6
CONTINUOUS
62
252
70
128
10
0.000000
20
0.000000
30
0.000000
71
2
72
9
73
1
0
VERTEX
8
0
6
CONTINUOUS
62
252
70
128
10
0.000000
20
0.000000
30
0.000000
71
1
72
9
73
10
0
VERTEX
8
0
6
CONTINUOUS
62
252
70
128
10
0.000000
20
0.000000
30
0.000000
71
1
72
10
73
11
0
VERTEX
8
0
6
CONTINUOUS
62
252
70
128
10
0.000000
20
0.000000
30
0.000000
71
2
72
3
73
9
0
VERTEX
8
0
6
CONTINUOUS
62
252
70
128
10
0.000000
20
0.000000
30
0.000000
71
9
72
3
73
8
0
VERTEX
8
0
6
CONTINUOUS
62
252
70
128
10
0.000000
20
0.000000
30
0.000000
71
8
72
3
73
4
0
VERTEX
8
0
6
CONTINUOUS
62
252
70
128
10
0.000000
20
0.000000
30
0.000000
71
8
72
4
73
7
0
VERTEX
8
0
6
CONTINUOUS
62
252
70
128
10
0.000000
20
0.000000
30
0.000000
71
7
72
4
73
6
0
VERTEX
8
0
6
CONTINUOUS
62
252
70
128
10
0.000000
20
0.000000
30
0.000000
71
6
72
4
73
5
0
VERTEX
8
0
6
CONTINUOUS
62
252
70
128
10
0.000000
20
0.000000
30
0.000000
71
12
72
17
73
11
0
VERTEX
8
0
6
CONTINUOUS
62
252
70
128
10
0.000000
20
0.000000
30
0.000000
71
11
72
17
73
18
0
VERTEX
8
0
6
CONTINUOUS
62
252
70
128
10
0.000000
20
0.000000
30
0.000000
71
11
72
18
73
1
0
VERTEX
8
0
6
CONTINUOUS
62
252
70
128
10
0.000000
20
0.000000
30
0.000000
71
17
72
12
73
16
0
VERTEX
8
0
6
CONTINUOUS
62
252
70
128
10
0.000000
20
0.000000
30
0.000000
71
16
72
12
73
13
0
VERTEX
8
0
6
CONTINUOUS
62
252
70
128
10
0.000000
20
0.000000
30
0.000000
71
16
72
13
73
14
0
VERTEX
8
0
6
CONTINUOUS
62
252
70
128
10
0.000000
20
0.000000
30
0.000000
71
14
72
15
73
16
0
SEQEND
0
POLYLINE
66
1
8
0
6
CONTINUOUS
62
252
70
64
75
0
10
0.000000
20
0.000000
30
0.000000
0
VERTEX
8
0
6
CONTINUOUS
62
252
70
192
10
1.111000
20
-0.265625
30
0.460076
0
VERTEX
8
0
6
CONTINUOUS
62
252
70
192
10
1.113362
20
-0.329304
30
0.423311
0
VERTEX
8
0
6
CONTINUOUS
62
252
70
192
10
1.120402
20
-0.393581
30
0.386201
0
VERTEX
8
0
6
CONTINUOUS
62
252
70
192
10
1.132254
20
-0.460252
30
0.347708
0
VERTEX
8
0
6
CONTINUOUS
62
252
70
192
10
1.149323
20
-0.531250
30
0.306717
0
VERTEX
8
0
6
CONTINUOUS
62
252
70
192
10
1.871677
20
-0.531250
30
0.306717
0
VERTEX
8
0
6
CONTINUOUS
62
252
70
192
10
1.888746
20
-0.460252
30
0.347708
0
VERTEX
8
0
6
CONTINUOUS
62
252
70
192
10
1.900598
20
-0.393581
30
0.386201
0
VERTEX
8
0
6
CONTINUOUS
62
252
70
192
10
1.907638
20
-0.329304
30
0.423311
0
VERTEX
8
0
6
CONTINUOUS
62
252
70
192
10
1.910000
20
-0.265625
30
0.460076
0
VERTEX
8
0
6
CONTINUOUS
62
252
70
192
10
1.907638
20
-0.201946
30
0.496841
0
VERTEX
8
0
6
CONTINUOUS
62
252
70
192
10
1.900598
20
-0.137669
30
0.533951
0
VERTEX
8
0
6
CONTINUOUS
62
252
70
192
10
1.888746
20
-0.070998
30
0.572444
0
VERTEX
8
0
6
CONTINUOUS
62
252
70
192
10
1.871677
20
0.000000
30
0.613435
0
VERTEX
8
0
6
CONTINUOUS
62
252
70
192
10
1.149323
20
0.000000
30
0.613435
0
VERTEX
8
0
6
CONTINUOUS
62
252
70
192
10
1.132254
20
-0.070998
30
0.572444
0
VERTEX
8
0
6
CONTINUOUS
62
252
70
192
10
1.120402
20
-0.137669
30
0.533951
0
VERTEX
8
0
6
CONTINUOUS
62
252
70
192
10
1.113362
20
-0.201946
30
0.496841
0
VERTEX
8
0
6
CONTINUOUS
62
252
70
128
10
0.000000
20
0.000000
30
0.000000
71
2
72
10
73
1
0
VERTEX
8
0
6
CONTINUOUS
62
252
70
128
10
0.000000
20
0.000000
30
0.000000
71
1
72
10
73
11
0
VERTEX
8
0
6
CONTINUOUS
62
252
70
128
10
0.000000
20
0.000000
30
0.000000
71
1
72
11
73
18
0
VERTEX
8
0
6
CONTINUOUS
62
252
70
128
10
0.000000
20
0.000000
30
0.000000
71
18
72
11
73
17
0
VERTEX
8
0
6
CONTINUOUS
62
252
70
128
10
0.000000
20
0.000000
30
0.000000
71
17
72
11
73
12
0
VERTEX
8
0
6
CONTINUOUS
62
252
70
128
10
0.000000
20
0.000000
30
0.000000
71
17
72
12
73
16
0
VERTEX
8
0
6
CONTINUOUS
62
252
70
128
10
0.000000
20
0.000000
30
0.000000
71
16
72
12
73
13
0
VERTEX
8
0
6
CONTINUOUS
62
252
70
128
10
0.000000
20
0.000000
30
0.000000
71
16
72
13
73
14
0
VERTEX
8
0
6
CONTINUOUS
62
252
70
128
10
0.000000
20
0.000000
30
0.000000
71
10
72
2
73
9
0
VERTEX
8
0
6
CONTINUOUS
62
252
70
128
10
0.000000
20
0.000000
30
0.000000
71
9
72
2
73
3
0
VERTEX
8
0
6
CONTINUOUS
62
252
70
128
10
0.000000
20
0.000000
30
0.000000
71
9
72
3
73
8
0
VERTEX
8
0
6
CONTINUOUS
62
252
70
128
10
0.000000
20
0.000000
30
0.000000
71
8
72
3
73
4
0
VERTEX
8
0
6
CONTINUOUS
62
252
70
128
10
0.000000
20
0.000000
30
0.000000
71
8
72
4
73
7
0
VERTEX
8
0
6
CONTINUOUS
62
252
70
128
10
0.000000
20
0.000000
30
0.000000
71
7
72
4
73
6
0
VERTEX
8
0
6
CONTINUOUS
62
252
70
128
10
0.000000
20
0.000000
30
0.000000
71
6
72
4
73
5
0
VERTEX
8
0
6
CONTINUOUS
62
252
70
128
10
0.000000
20
0.000000
30
0.000000
71
14
72
15
73
16
0
SEQEND
0
POLYLINE
66
1
8
0
6
CONTINUOUS
62
252
70
64
75
0
10
0.000000
20
0.000000
30
0.000000
0
VERTEX
8
0
6
CONTINUOUS
62
252
70
192
10
1.111000
20
0.265625
30
0.460076
0
VERTEX
8
0
6
CONTINUOUS
62
252
70
192
10
1.113362
20
0.201946
30
0.496841
0
VERTEX
8
0
6
CONTINUOUS
62
252
70
192
10
1.120402
20
0.137669
30
0.533951
0
VERTEX
8
0
6
CONTINUOUS
62
252
70
192
10
1.132254
20
0.070998
30
0.572444
0
VERTEX
8
0
6
CONTINUOUS
62
252
70
192
10
1.149323
20
0.000000
30
0.613435
0
VERTEX
8
0
6
CONTINUOUS
62
252
70
192
10
1.871677
20
0.000000
30
0.613435
0
VERTEX
8
0
6
CONTINUOUS
62
252
70
192
10
1.888746
20
0.070998
30
0.572444
0
VERTEX
8
0
6
CONTINUOUS
62
252
70
192
10
1.900598
20
0.137669
30
0.533951
0
VERTEX
8
0
6
CONTINUOUS
62
252
70
192
10
1.907638
20
0.201946
30
0.496841
0
VERTEX
8
0
6
CONTINUOUS
62
252
70
192
10
1.910000
20
0.265625
30
0.460076
0
VERTEX
8
0
6
CONTINUOUS
62
252
70
192
10
1.907638
20
0.329304
30
0.423311
0
VERTEX
8
0
6
CONTINUOUS
62
252
70
192
10
1.900598
20
0.393581
30
0.386201
0
VERTEX
8
0
6
CONTINUOUS
62
252
70
192
10
1.888746
20
0.460252
30
0.347708
0
VERTEX
8
0
6
CONTINUOUS
62
252
70
192
10
1.871677
20
0.531250
30
0.306717
0
VERTEX
8
0
6
CONTINUOUS
62
252
70
192
10
1.149323
20
0.531250
30
0.306717
0
VERTEX
8
0
6
CONTINUOUS
62
252
70
192
10
1.132254
20
0.460252
30
0.347708
0
VERTEX
8
0
6
CONTINUOUS
62
252
70
192
10
1.120402
20
0.393581
30
0.386201
0
VERTEX
8
0
6
CONTINUOUS
62
252
70
192
10
1.113362
20
0.329304
30
0.423311
0
VERTEX
8
0
6
CONTINUOUS
62
252
70
128
10
0.000000
20
0.000000
30
0.000000
71
18
72
1
73
10
0
VERTEX
8
0
6
CONTINUOUS
62
252
70
128
10
0.000000
20
0.000000
30
0.000000
71
10
72
1
73
2
0
VERTEX
8
0
6
CONTINUOUS
62
252
70
128
10
0.000000
20
0.000000
30
0.000000
71
10
72
2
73
9
0
VERTEX
8
0
6
CONTINUOUS
62
252
70
128
10
0.000000
20
0.000000
30
0.000000
71
9
72
2
73
3
0
VERTEX
8
0
6
CONTINUOUS
62
252
70
128
10
0.000000
20
0.000000
30
0.000000
71
9
72
3
73
8
0
VERTEX
8
0
6
CONTINUOUS
62
252
70
128
10
0.000000
20
0.000000
30
0.000000
71
8
72
3
73
4
0
VERTEX
8
0
6
CONTINUOUS
62
252
70
128
10
0.000000
20
0.000000
30
0.000000
71
8
72
4
73
7
0
VERTEX
8
0
6
CONTINUOUS
62
252
70
128
10
0.000000
20
0.000000
30
0.000000
71
7
72
4
73
6
0
VERTEX
8
0
6
CONTINUOUS
62
252
70
128
10
0.000000
20
0.000000
30
0.000000
71
6
72
4
73
5
0
VERTEX
8
0
6
CONTINUOUS
62
252
70
128
10
0.000000
20
0.000000
30
0.000000
71
10
72
11
73
18
0
VERTEX
8
0
6
CONTINUOUS
62
252
70
128
10
0.000000
20
0.000000
30
0.000000
71
18
72
11
73
17
0
VERTEX
8
0
6
CONTINUOUS
62
252
70
128
10
0.000000
20
0.000000
30
0.000000
71
17
72
11
73
12
0
VERTEX
8
0
6
CONTINUOUS
62
252
70
128
10
0.000000
20
0.000000
30
0.000000
71
17
72
12
73
16
0
VERTEX
8
0
6
CONTINUOUS
62
252
70
128
10
0.000000
20
0.000000
30
0.000000
71
16
72
12
73
13
0
VERTEX
8
0
6
CONTINUOUS
62
252
70
128
10
0.000000
20
0.000000
30
0.000000
71
16
72
13
73
14
0
VERTEX
8
0
6
CONTINUOUS
62
252
70
128
10
0.000000
20
0.000000
30
0.000000
71
14
72
15
73
16
0
SEQEND
0
POLYLINE
66
1
8
0
6
CONTINUOUS
62
252
70
64
75
0
10
0.000000
20
0.000000
30
0.000000
0
VERTEX
8
0
6
CONTINUOUS
62
252
70
192
10
1.910000
20
0.000000
30
-0.417785
0
VERTEX
8
0
6
CONTINUOUS
62
252
70
192
10
1.910000
20
-0.043670
30
-0.415496
0
VERTEX
8
0
6
CONTINUOUS
62
252
70
192
10
1.910000
20
-0.086862
30
-0.408655
0
VERTEX
8
0
6
CONTINUOUS
62
252
70
192
10
1.910000
20
-0.129103
30
-0.397337
0
VERTEX
8
0
6
CONTINUOUS
62
252
70
192
10
1.910000
20
-0.169928
30
-0.381666
0
VERTEX
8
0
6
CONTINUOUS
62
252
70
192
10
1.910000
20
-0.208892
30
-0.361812
0
VERTEX
8
0
6
CONTINUOUS
62
252
70
192
10
1.910000
20
-0.245568
30
-0.337995
0
VERTEX
8
0
6
CONTINUOUS
62
252
70
192
10
1.910000
20
-0.279553
30
-0.310475
0
VERTEX
8
0
6
CONTINUOUS
62
252
70
192
10
1.910000
20
-0.310475
30
-0.279553
0
VERTEX
8
0
6
CONTINUOUS
62
252
70
192
10
1.910000
20
-0.337995
30
-0.245568
0
VERTEX
8
0
6
CONTINUOUS
62
252
70
192
10
1.910000
20
-0.361812
30
-0.208893
0
VERTEX
8
0
6
CONTINUOUS
62
252
70
192
10
1.910000
20
-0.381666
30
-0.169928
0
VERTEX
8
0
6
CONTINUOUS
62
252
70
192
10
1.910000
20
-0.397337
30
-0.129103
0
VERTEX
8
0
6
CONTINUOUS
62
252
70
192
10
1.910000
20
-0.408655
30
-0.086862
0
VERTEX
8
0
6
CONTINUOUS
62
252
70
192
10
1.910000
20
-0.415496
30
-0.043670
0
VERTEX
8
0
6
CONTINUOUS
62
252
70
192
10
1.910000
20
-0.417785
30
-0.000000
0
VERTEX
8
0
6
CONTINUOUS
62
252
70
192
10
1.910000
20
-0.415496
30
0.043670
0
VERTEX
8
0
6
CONTINUOUS
62
252
70
192
10
1.910000
20
-0.408655
30
0.086862
0
VERTEX
8
0
6
CONTINUOUS
62
252
70
192
10
1.910000
20
-0.397337
30
0.129103
0
VERTEX
8
0
6
CONTINUOUS
62
252
70
192
10
1.910000
20
-0.381666
30
0.169928
0
VERTEX
8
0
6
CONTINUOUS
62
252
70
192
10
1.910000
20
-0.361812
30
0.208892
0
VERTEX
8
0
6
CONTINUOUS
62
252
70
192
10
1.910000
20
-0.337995
30
0.245568
0
VERTEX
8
0
6
CONTINUOUS
62
252
70
192
10
1.910000
20
-0.310475
30
0.279553
0
VERTEX
8
0
6
CONTINUOUS
62
252
70
192
10
1.910000
20
-0.279553
30
0.310475
0
VERTEX
8
0
6
CONTINUOUS
62
252
70
192
10
1.910000
20
-0.245568
30
0.337995
0
VERTEX
8
0
6
CONTINUOUS
62
252
70
192
10
1.910000
20
-0.208893
30
0.361812
0
VERTEX
8
0
6
CONTINUOUS
62
252
70
192
10
1.910000
20
-0.169928
30
0.381666
0
VERTEX
8
0
6
CONTINUOUS
62
252
70
192
10
1.910000
20
-0.129103
30
0.397337
0
VERTEX
8
0
6
CONTINUOUS
62
252
70
192
10
1.910000
20
-0.086862
30
0.408655
0
VERTEX
8
0
6
CONTINUOUS
62
252
70
192
10
1.910000
20
-0.043670
30
0.415496
0
VERTEX
8
0
6
CONTINUOUS
62
252
70
192
10
1.910000
20
-0.000000
30
0.417785
0
VERTEX
8
0
6
CONTINUOUS
62
252
70
192
10
1.910000
20
0.043670
30
0.415496
0
VERTEX
8
0
6
CONTINUOUS
62
252
70
192
10
1.910000
20
0.086862
30
0.408655
0
VERTEX
8
0
6
CONTINUOUS
62
252
70
192
10
1.910000
20
0.129103
30
0.397337
0
VERTEX
8
0
6
CONTINUOUS
62
252
70
192
10
1.910000
20
0.169928
30
0.381666
0
VERTEX
8
0
6
CONTINUOUS
62
252
70
192
10
1.910000
20
0.208892
30
0.361812
0
VERTEX
8
0
6
CONTINUOUS
62
252
70
192
10
1.910000
20
0.245568
30
0.337995
0
VERTEX
8
0
6
CONTINUOUS
62
252
70
192
10
1.910000
20
0.279553
30
0.310475
0
VERTEX
8
0
6
CONTINUOUS
62
252
70
192
10
1.910000
20
0.310475
30
0.279553
0
VERTEX
8
0
6
CONTINUOUS
62
252
70
192
10
1.910000
20
0.337995
30
0.245568
0
VERTEX
8
0
6
CONTINUOUS
62
252
70
192
10
1.910000
20
0.361812
30
0.208893
0
VERTEX
8
0
6
CONTINUOUS
62
252
70
192
10
1.910000
20
0.381666
30
0.169928
0
VERTEX
8
0
6
CONTINUOUS
62
252
70
192
10
1.910000
20
0.397337
30
0.129103
0
VERTEX
8
0
6
CONTINUOUS
62
252
70
192
10
1.910000
20
0.408655
30
0.086862
0
VERTEX
8
0
6
CONTINUOUS
62
252
70
192
10
1.910000
20
0.415496
30
0.043670
0
VERTEX
8
0
6
CONTINUOUS
62
252
70
192
10
1.910000
20
0.417785
30
0.000000
0
VERTEX
8
0
6
CONTINUOUS
62
252
70
192
10
1.910000
20
0.415496
30
-0.043670
0
VERTEX
8
0
6
CONTINUOUS
62
252
70
192
10
1.910000
20
0.408655
30
-0.086862
0
VERTEX
8
0
6
CONTINUOUS
62
252
70
192
10
1.910000
20
0.397337
30
-0.129103
0
VERTEX
8
0
6
CONTINUOUS
62
252
70
192
10
1.910000
20
0.381666
30
-0.169928
0
VERTEX
8
0
6
CONTINUOUS
62
252
70
192
10
1.910000
20
0.361812
30
-0.208892
0
VERTEX
8
0
6
CONTINUOUS
62
252
70
192
10
1.910000
20
0.337995
30
-0.245568
0
VERTEX
8
0
6
CONTINUOUS
62
252
70
192
10
1.910000
20
0.310475
30
-0.279553
0
VERTEX
8
0
6
CONTINUOUS
62
252
70
192
10
1.910000
20
0.279553
30
-0.310475
0
VERTEX
8
0
6
CONTINUOUS
62
252
70
192
10
1.910000
20
0.245568
30
-0.337995
0
VERTEX
8
0
6
CONTINUOUS
62
252
70
192
10
1.910000
20
0.208893
30
-0.361812
0
VERTEX
8
0
6
CONTINUOUS
62
252
70
192
10
1.910000
20
0.169928
30
-0.381666
0
VERTEX
8
0
6
CONTINUOUS
62
252
70
192
10
1.910000
20
0.129103
30
-0.397337
0
VERTEX
8
0
6
CONTINUOUS
62
252
70
192
10
1.910000
20
0.086862
30
-0.408655
0
VERTEX
8
0
6
CONTINUOUS
62
252
70
192
10
1.910000
20
0.043670
30
-0.415496
0
VERTEX
8
0
6
CONTINUOUS
62
252
70
192
10
1.910000
20
0.265625
30
0.460076
0
VERTEX
8
0
6
CONTINUOUS
62
252
70
192
10
1.910000
20
0.216079
30
0.485321
0
VERTEX
8
0
6
CONTINUOUS
62
252
70
192
10
1.910000
20
0.164165
30
0.505249
0
VERTEX
8
0
6
CONTINUOUS
62
252
70
192
10
1.910000
20
0.110453
30
0.519641
0
VERTEX
8
0
6
CONTINUOUS
62
252
70
192
10
1.910000
20
0.055531
30
0.528340
0
VERTEX
8
0
6
CONTINUOUS
62
252
70
192
10
1.910000
20
0.000000
30
0.531250
0
VERTEX
8
0
6
CONTINUOUS
62
252
70
192
10
1.910000
20
-0.055531
30
0.528340
0
VERTEX
8
0
6
CONTINUOUS
62
252
70
192
10
1.910000
20
-0.110453
30
0.519641
0
VERTEX
8
0
6
CONTINUOUS
62
252
70
192
10
1.910000
20
-0.164165
30
0.505249
0
VERTEX
8
0
6
CONTINUOUS
62
252
70
192
10
1.910000
20
-0.216079
30
0.485321
0
VERTEX
8
0
6
CONTINUOUS
62
252
70
192
10
1.910000
20
-0.265625
30
0.460076
0
VERTEX
8
0
6
CONTINUOUS
62
252
70
192
10
1.910000
20
-0.312261
30
0.429790
0
VERTEX
8
0
6
CONTINUOUS
62
252
70
192
10
1.910000
20
-0.355476
30
0.394796
0
VERTEX
8
0
6
CONTINUOUS
62
252
70
192
10
1.910000
20
-0.394796
30
0.355476
0
VERTEX
8
0
6
CONTINUOUS
62
252
70
192
10
1.910000
20
-0.429790
30
0.312261
0
VERTEX
8
0
6
CONTINUOUS
62
252
70
192
10
1.910000
20
-0.460076
30
0.265625
0
VERTEX
8
0
6
CONTINUOUS
62
252
70
192
10
1.910000
20
-0.485321
30
0.216079
0
VERTEX
8
0
6
CONTINUOUS
62
252
70
192
10
1.910000
20
-0.505249
30
0.164165
0
VERTEX
8
0
6
CONTINUOUS
62
252
70
192
10
1.910000
20
-0.519641
30
0.110453
0
VERTEX
8
0
6
CONTINUOUS
62
252
70
192
10
1.910000
20
-0.528340
30
0.055531
0
VERTEX
8
0
6
CONTINUOUS
62
252
70
192
10
1.910000
20
-0.531250
30
-0.000000
0
VERTEX
8
0
6
CONTINUOUS
62
252
70
192
10
1.910000
20
-0.528340
30
-0.055531
0
VERTEX
8
0
6
CONTINUOUS
62
252
70
192
10
1.910000
20
-0.519641
30
-0.110453
0
VERTEX
8
0
6
CONTINUOUS
62
252
70
192
10
1.910000
20
-0.505249
30
-0.164165
0
VERTEX
8
0
6
CONTINUOUS
62
252
70
192
10
1.910000
20
-0.485321
30
-0.216079
0
VERTEX
8
0
6
CONTINUOUS
62
252
70
192
10
1.910000
20
-0.460076
30
-0.265625
0
VERTEX
8
0
6
CONTINUOUS
62
252
70
192
10
1.910000
20
-0.429790
30
-0.312261
0
VERTEX
8
0
6
CONTINUOUS
62
252
70
192
10
1.910000
20
-0.394796
30
-0.355476
0
VERTEX
8
0
6
CONTINUOUS
62
252
70
192
10
1.910000
20
-0.355476
30
-0.394796
0
VERTEX
8
0
6
CONTINUOUS
62
252
70
192
10
1.910000
20
-0.312261
30
-0.429790
0
VERTEX
8
0
6
CONTINUOUS
62
252
70
192
10
1.910000
20
-0.265625
30
-0.460076
0
VERTEX
8
0
6
CONTINUOUS
62
252
70
192
10
1.910000
20
-0.216079
30
-0.485321
0
VERTEX
8
0
6
CONTINUOUS
62
252
70
192
10
1.910000
20
-0.164165
30
-0.505249
0
VERTEX
8
0
6
CONTINUOUS
62
252
70
192
10
1.910000
20
-0.110453
30
-0.519641
0
VERTEX
8
0
6
CONTINUOUS
62
252
70
192
10
1.910000
20
-0.055531
30
-0.528340
0
VERTEX
8
0
6
CONTINUOUS
62
252
70
192
10
1.910000
20
0.000000
30
-0.531250
0
VERTEX
8
0
6
CONTINUOUS
62
252
70
192
10
1.910000
20
0.055531
30
-0.528340
0
VERTEX
8
0
6
CONTINUOUS
62
252
70
192
10
1.910000
20
0.110453
30
-0.519641
0
VERTEX
8
0
6
CONTINUOUS
62
252
70
192
10
1.910000
20
0.164165
30
-0.505249
0
VERTEX
8
0
6
CONTINUOUS
62
252
70
192
10
1.910000
20
0.216079
30
-0.485321
0
VERTEX
8
0
6
CONTINUOUS
62
252
70
192
10
1.910000
20
0.265625
30
-0.460076
0
VERTEX
8
0
6
CONTINUOUS
62
252
70
192
10
1.910000
20
0.312261
30
-0.429790
0
VERTEX
8
0
6
CONTINUOUS
62
252
70
192
10
1.910000
20
0.355476
30
-0.394796
0
VERTEX
8
0
6
CONTINUOUS
62
252
70
192
10
1.910000
20
0.394796
30
-0.355476
0
VERTEX
8
0
6
CONTINUOUS
62
252
70
192
10
1.910000
20
0.429790
30
-0.312261
0
VERTEX
8
0
6
CONTINUOUS
62
252
70
192
10
1.910000
20
0.460076
30
-0.265625
0
VERTEX
8
0
6
CONTINUOUS
62
252
70
192
10
1.910000
20
0.485321
30
-0.216079
0
VERTEX
8
0
6
CONTINUOUS
62
252
70
192
10
1.910000
20
0.505249
30
-0.164165
0
VERTEX
8
0
6
CONTINUOUS
62
252
70
192
10
1.910000
20
0.519641
30
-0.110453
0
VERTEX
8
0
6
CONTINUOUS
62
252
70
192
10
1.910000
20
0.528340
30
-0.055531
0
VERTEX
8
0
6
CONTINUOUS
62
252
70
192
10
1.910000
20
0.531250
30
0.000000
0
VERTEX
8
0
6
CONTINUOUS
62
252
70
192
10
1.910000
20
0.528340
30
0.055531
0
VERTEX
8
0
6
CONTINUOUS
62
252
70
192
10
1.910000
20
0.519641
30
0.110453
0
VERTEX
8
0
6
CONTINUOUS
62
252
70
192
10
1.910000
20
0.505249
30
0.164165
0
VERTEX
8
0
6
CONTINUOUS
62
252
70
192
10
1.910000
20
0.485321
30
0.216079
0
VERTEX
8
0
6
CONTINUOUS
62
252
70
192
10
1.910000
20
0.460076
30
0.265625
0
VERTEX
8
0
6
CONTINUOUS
62
252
70
192
10
1.910000
20
0.429790
30
0.312261
0
VERTEX
8
0
6
CONTINUOUS
62
252
70
192
10
1.910000
20
0.394796
30
0.355476
0
VERTEX
8
0
6
CONTINUOUS
62
252
70
192
10
1.910000
20
0.355476
30
0.394796
0
VERTEX
8
0
6
CONTINUOUS
62
252
70
192
10
1.910000
20
0.312261
30
0.429790
0
VERTEX
8
0
6
CONTINUOUS
62
252
70
128
10
0.000000
20
0.000000
30
0.000000
71
2
72
95
73
1
0
VERTEX
8
0
6
CONTINUOUS
62
252
70
128
10
0.000000
20
0.000000
30
0.000000
71
1
72
95
73
96
0
VERTEX
8
0
6
CONTINUOUS
62
252
70
128
10
0.000000
20
0.000000
30
0.000000
71
1
72
96
73
97
0
VERTEX
8
0
6
CONTINUOUS
62
252
70
128
10
0.000000
20
0.000000
30
0.000000
71
95
72
2
73
94
0
VERTEX
8
0
6
CONTINUOUS
62
252
70
128
10
0.000000
20
0.000000
30
0.000000
71
94
72
2
73
3
0
VERTEX
8
0
6
CONTINUOUS
62
252
70
128
10
0.000000
20
0.000000
30
0.000000
71
94
72
3
73
93
0
VERTEX
8
0
6
CONTINUOUS
62
252
70
128
10
0.000000
20
0.000000
30
0.000000
71
93
72
3
73
4
0
VERTEX
8
0
6
CONTINUOUS
62
252
70
128
10
0.000000
20
0.000000
30
0.000000
71
93
72
4
73
92
0
VERTEX
8
0
6
CONTINUOUS
62
252
70
128
10
0.000000
20
0.000000
30
0.000000
71
92
72
4
73
5
0
VERTEX
8
0
6
CONTINUOUS
62
252
70
128
10
0.000000
20
0.000000
30
0.000000
71
92
72
5
73
6
0
VERTEX
8
0
6
CONTINUOUS
62
252
70
128
10
0.000000
20
0.000000
30
0.000000
71
7
72
90
73
6
0
VERTEX
8
0
6
CONTINUOUS
62
252
70
128
10
0.000000
20
0.000000
30
0.000000
71
6
72
90
73
91
0
VERTEX
8
0
6
CONTINUOUS
62
252
70
128
10
0.000000
20
0.000000
30
0.000000
71
6
72
91
73
92
0
VERTEX
8
0
6
CONTINUOUS
62
252
70
128
10
0.000000
20
0.000000
30
0.000000
71
90
72
7
73
89
0
VERTEX
8
0
6
CONTINUOUS
62
252
70
128
10
0.000000
20
0.000000
30
0.000000
71
89
72
7
73
8
0
VERTEX
8
0
6
CONTINUOUS
62
252
70
128
10
0.000000
20
0.000000
30
0.000000
71
89
72
8
73
88
0
VERTEX
8
0
6
CONTINUOUS
62
252
70
128
10
0.000000
20
0.000000
30
0.000000
71
88
72
8
73
9
0
VERTEX
8
0
6
CONTINUOUS
62
252
70
128
10
0.000000
20
0.000000
30
0.000000
71
88
72
9
73
10
0
VERTEX
8
0
6
CONTINUOUS
62
252
70
128
10
0.000000
20
0.000000
30
0.000000
71
11
72
86
73
10
0
VERTEX
8
0
6
CONTINUOUS
62
252
70
128
10
0.000000
20
0.000000
30
0.000000
71
10
72
86
73
87
0
VERTEX
8
0
6
CONTINUOUS
62
252
70
128
10
0.000000
20
0.000000
30
0.000000
71
10
72
87
73
88
0
VERTEX
8
0
6
CONTINUOUS
62
252
70
128
10
0.000000
20
0.000000
30
0.000000
71
11
72
12
73
86
0
VERTEX
8
0
6
CONTINUOUS
62
252
70
128
10
0.000000
20
0.000000
30
0.000000
71
86
72
12
73
85
0
VERTEX
8
0
6
CONTINUOUS
62
252
70
128
10
0.000000
20
0.000000
30
0.000000
71
85
72
12
73
84
0
VERTEX
8
0
6
CONTINUOUS
62
252
70
128
10
0.000000
20
0.000000
30
0.000000
71
84
72
12
73
13
0
VERTEX
8
0
6
CONTINUOUS
62
252
70
128
10
0.000000
20
0.000000
30
0.000000
71
84
72
13
73
14
0
VERTEX
8
0
6
CONTINUOUS
62
252
70
128
10
0.000000
20
0.000000
30
0.000000
71
15
72
82
73
14
0
VERTEX
8
0
6
CONTINUOUS
62
252
70
128
10
0.000000
20
0.000000
30
0.000000
71
14
72
82
73
83
0
VERTEX
8
0
6
CONTINUOUS
62
252
70
128
10
0.000000
20
0.000000
30
0.000000
71
14
72
83
73
84
0
VERTEX
8
0
6
CONTINUOUS
62
252
70
128
10
0.000000
20
0.000000
30
0.000000
71
82
72
15
73
81
0
VERTEX
8
0
6
CONTINUOUS
62
252
70
128
10
0.000000
20
0.000000
30
0.000000
71
81
72
15
73
16
0
VERTEX
8
0
6
CONTINUOUS
62
252
70
128
10
0.000000
20
0.000000
30
0.000000
71
81
72
16
73
17
0
VERTEX
8
0
6
CONTINUOUS
62
252
70
128
10
0.000000
20
0.000000
30
0.000000
71
81
72
17
73
80
0
VERTEX
8
0
6
CONTINUOUS
62
252
70
128
10
0.000000
20
0.000000
30
0.000000
71
80
72
17
73
18
0
VERTEX
8
0
6
CONTINUOUS
62
252
70
128
10
0.000000
20
0.000000
30
0.000000
71
80
72
18
73
79
0
VERTEX
8
0
6
CONTINUOUS
62
252
70
128
10
0.000000
20
0.000000
30
0.000000
71
79
72
18
73
19
0
VERTEX
8
0
6
CONTINUOUS
62
252
70
128
10
0.000000
20
0.000000
30
0.000000
71
79
72
19
73
78
0
VERTEX
8
0
6
CONTINUOUS
62
252
70
128
10
0.000000
20
0.000000
30
0.000000
71
78
72
19
73
77
0
VERTEX
8
0
6
CONTINUOUS
62
252
70
128
10
0.000000
20
0.000000
30
0.000000
71
77
72
19
73
20
0
VERTEX
8
0
6
CONTINUOUS
62
252
70
128
10
0.000000
20
0.000000
30
0.000000
71
77
72
20
73
21
0
VERTEX
8
0
6
CONTINUOUS
62
252
70
128
10
0.000000
20
0.000000
30
0.000000
71
77
72
21
73
76
0
VERTEX
8
0
6
CONTINUOUS
62
252
70
128
10
0.000000
20
0.000000
30
0.000000
71
76
72
21
73
22
0
VERTEX
8
0
6
CONTINUOUS
62
252
70
128
10
0.000000
20
0.000000
30
0.000000
71
76
72
22
73
75
0
VERTEX
8
0
6
CONTINUOUS
62
252
70
128
10
0.000000
20
0.000000
30
0.000000
71
75
72
22
73
23
0
VERTEX
8
0
6
CONTINUOUS
62
252
70
128
10
0.000000
20
0.000000
30
0.000000
71
75
72
23
73
74
0
VERTEX
8
0
6
CONTINUOUS
62
252
70
128
10
0.000000
20
0.000000
30
0.000000
71
74
72
23
73
24
0
VERTEX
8
0
6
CONTINUOUS
62
252
70
128
10
0.000000
20
0.000000
30
0.000000
71
74
72
24
73
73
0
VERTEX
8
0
6
CONTINUOUS
62
252
70
128
10
0.000000
20
0.000000
30
0.000000
71
73
72
24
73
25
0
VERTEX
8
0
6
CONTINUOUS
62
252
70
128
10
0.000000
20
0.000000
30
0.000000
71
73
72
25
73
72
0
VERTEX
8
0
6
CONTINUOUS
62
252
70
128
10
0.000000
20
0.000000
30
0.000000
71
72
72
25
73
71
0
VERTEX
8
0
6
CONTINUOUS
62
252
70
128
10
0.000000
20
0.000000
30
0.000000
71
71
72
25
73
26
0
VERTEX
8
0
6
CONTINUOUS
62
252
70
128
10
0.000000
20
0.000000
30
0.000000
71
71
72
26
73
27
0
VERTEX
8
0
6
CONTINUOUS
62
252
70
128
10
0.000000
20
0.000000
30
0.000000
71
71
72
27
73
70
0
VERTEX
8
0
6
CONTINUOUS
62
252
70
128
10
0.000000
20
0.000000
30
0.000000
71
70
72
27
73
28
0
VERTEX
8
0
6
CONTINUOUS
62
252
70
128
10
0.000000
20
0.000000
30
0.000000
71
70
72
28
73
69
0
VERTEX
8
0
6
CONTINUOUS
62
252
70
128
10
0.000000
20
0.000000
30
0.000000
71
69
72
28
73
29
0
VERTEX
8
0
6
CONTINUOUS
62
252
70
128
10
0.000000
20
0.000000
30
0.000000
71
69
72
29
73
68
0
VERTEX
8
0
6
CONTINUOUS
62
252
70
128
10
0.000000
20
0.000000
30
0.000000
71
68
72
29
73
30
0
VERTEX
8
0
6
CONTINUOUS
62
252
70
128
10
0.000000
20
0.000000
30
0.000000
71
68
72
30
73
67
0
VERTEX
8
0
6
CONTINUOUS
62
252
70
128
10
0.000000
20
0.000000
30
0.000000
71
67
72
30
73
31
0
VERTEX
8
0
6
CONTINUOUS
62
252
70
128
10
0.000000
20
0.000000
30
0.000000
71
67
72
31
73
66
0
VERTEX
8
0
6
CONTINUOUS
62
252
70
128
10
0.000000
20
0.000000
30
0.000000
71
66
72
31
73
32
0
VERTEX
8
0
6
CONTINUOUS
62
252
70
128
10
0.000000
20
0.000000
30
0.000000
71
66
72
32
73
65
0
VERTEX
8
0
6
CONTINUOUS
62
252
70
128
10
0.000000
20
0.000000
30
0.000000
71
65
72
32
73
33
0
VERTEX
8
0
6
CONTINUOUS
62
252
70
128
10
0.000000
20
0.000000
30
0.000000
71
65
72
33
73
64
0
VERTEX
8
0
6
CONTINUOUS
62
252
70
128
10
0.000000
20
0.000000
30
0.000000
71
64
72
33
73
34
0
VERTEX
8
0
6
CONTINUOUS
62
252
70
128
10
0.000000
20
0.000000
30
0.000000
71
64
72
34
73
63
0
VERTEX
8
0
6
CONTINUOUS
62
252
70
128
10
0.000000
20
0.000000
30
0.000000
71
63
72
34
73
35
0
VERTEX
8
0
6
CONTINUOUS
62
252
70
128
10
0.000000
20
0.000000
30
0.000000
71
63
72
35
73
62
0
VERTEX
8
0
6
CONTINUOUS
62
252
70
128
10
0.000000
20
0.000000
30
0.000000
71
62
72
35
73
61
0
VERTEX
8
0
6
CONTINUOUS
62
252
70
128
10
0.000000
20
0.000000
30
0.000000
71
61
72
35
73
36
0
VERTEX
8
0
6
CONTINUOUS
62
252
70
128
10
0.000000
20
0.000000
30
0.000000
71
61
72
36
73
37
0
VERTEX
8
0
6
CONTINUOUS
62
252
70
128
10
0.000000
20
0.000000
30
0.000000
71
61
72
37
73
120
0
VERTEX
8
0
6
CONTINUOUS
62
252
70
128
10
0.000000
20
0.000000
30
0.000000
71
120
72
37
73
38
0
VERTEX
8
0
6
CONTINUOUS
62
252
70
128
10
0.000000
20
0.000000
30
0.000000
71
120
72
38
73
119
0
VERTEX
8
0
6
CONTINUOUS
62
252
70
128
10
0.000000
20
0.000000
30
0.000000
71
119
72
38
73
39
0
VERTEX
8
0
6
CONTINUOUS
62
252
70
128
10
0.000000
20
0.000000
30
0.000000
71
119
72
39
73
118
0
VERTEX
8
0
6
CONTINUOUS
62
252
70
128
10
0.000000
20
0.000000
30
0.000000
71
118
72
39
73
40
0
VERTEX
8
0
6
CONTINUOUS
62
252
70
128
10
0.000000
20
0.000000
30
0.000000
71
118
72
40
73
117
0
VERTEX
8
0
6
CONTINUOUS
62
252
70
128
10
0.000000
20
0.000000
30
0.000000
71
117
72
40
73
41
0
VERTEX
8
0
6
CONTINUOUS
62
252
70
128
10
0.000000
20
0.000000
30
0.000000
71
117
72
41
73
116
0
VERTEX
8
0
6
CONTINUOUS
62
252
70
128
10
0.000000
20
0.000000
30
0.000000
71
116
72
41
73
42
0
VERTEX
8
0
6
CONTINUOUS
62
252
70
128
10
0.000000
20
0.000000
30
0.000000
71
116
72
42
73
115
0
VERTEX
8
0
6
CONTINUOUS
62
252
70
128
10
0.000000
20
0.000000
30
0.000000
71
115
72
42
73
43
0
VERTEX
8
0
6
CONTINUOUS
62
252
70
128
10
0.000000
20
0.000000
30
0.000000
71
115
72
43
73
114
0
VERTEX
8
0
6
CONTINUOUS
62
252
70
128
10
0.000000
20
0.000000
30
0.000000
71
114
72
43
73
44
0
VERTEX
8
0
6
CONTINUOUS
62
252
70
128
10
0.000000
20
0.000000
30
0.000000
71
114
72
44
73
113
0
VERTEX
8
0
6
CONTINUOUS
62
252
70
128
10
0.000000
20
0.000000
30
0.000000
71
113
72
44
73
45
0
VERTEX
8
0
6
CONTINUOUS
62
252
70
128
10
0.000000
20
0.000000
30
0.000000
71
113
72
45
73
112
0
VERTEX
8
0
6
CONTINUOUS
62
252
70
128
10
0.000000
20
0.000000
30
0.000000
71
112
72
45
73
111
0
VERTEX
8
0
6
CONTINUOUS
62
252
70
128
10
0.000000
20
0.000000
30
0.000000
71
111
72
45
73
46
0
VERTEX
8
0
6
CONTINUOUS
62
252
70
128
10
0.000000
20
0.000000
30
0.000000
71
111
72
46
73
47
0
VERTEX
8
0
6
CONTINUOUS
62
252
70
128
10
0.000000
20
0.000000
30
0.000000
71
111
72
47
73
110
0
VERTEX
8
0
6
CONTINUOUS
62
252
70
128
10
0.000000
20
0.000000
30
0.000000
71
110
72
47
73
48
0
VERTEX
8
0
6
CONTINUOUS
62
252
70
128
10
0.000000
20
0.000000
30
0.000000
71
110
72
48
73
109
0
VERTEX
8
0
6
CONTINUOUS
62
252
70
128
10
0.000000
20
0.000000
30
0.000000
71
109
72
48
73
49
0
VERTEX
8
0
6
CONTINUOUS
62
252
70
128
10
0.000000
20
0.000000
30
0.000000
71
109
72
49
73
108
0
VERTEX
8
0
6
CONTINUOUS
62
252
70
128
10
0.000000
20
0.000000
30
0.000000
71
108
72
49
73
50
0
VERTEX
8
0
6
CONTINUOUS
62
252
70
128
10
0.000000
20
0.000000
30
0.000000
71
108
72
50
73
107
0
VERTEX
8
0
6
CONTINUOUS
62
252
70
128
10
0.000000
20
0.000000
30
0.000000
71
107
72
50
73
51
0
VERTEX
8
0
6
CONTINUOUS
62
252
70
128
10
0.000000
20
0.000000
30
0.000000
71
107
72
51
73
106
0
VERTEX
8
0
6
CONTINUOUS
62
252
70
128
10
0.000000
20
0.000000
30
0.000000
71
106
72
51
73
105
0
VERTEX
8
0
6
CONTINUOUS
62
252
70
128
10
0.000000
20
0.000000
30
0.000000
71
105
72
51
73
52
0
VERTEX
8
0
6
CONTINUOUS
62
252
70
128
10
0.000000
20
0.000000
30
0.000000
71
105
72
52
73
104
0
VERTEX
8
0
6
CONTINUOUS
62
252
70
128
10
0.000000
20
0.000000
30
0.000000
71
104
72
52
73
53
0
VERTEX
8
0
6
CONTINUOUS
62
252
70
128
10
0.000000
20
0.000000
30
0.000000
71
104
72
53
73
54
0
VERTEX
8
0
6
CONTINUOUS
62
252
70
128
10
0.000000
20
0.000000
30
0.000000
71
104
72
54
73
103
0
VERTEX
8
0
6
CONTINUOUS
62
252
70
128
10
0.000000
20
0.000000
30
0.000000
71
103
72
54
73
55
0
VERTEX
8
0
6
CONTINUOUS
62
252
70
128
10
0.000000
20
0.000000
30
0.000000
71
103
72
55
73
102
0
VERTEX
8
0
6
CONTINUOUS
62
252
70
128
10
0.000000
20
0.000000
30
0.000000
71
102
72
55
73
101
0
VERTEX
8
0
6
CONTINUOUS
62
252
70
128
10
0.000000
20
0.000000
30
0.000000
71
101
72
55
73
56
0
VERTEX
8
0
6
CONTINUOUS
62
252
70
128
10
0.000000
20
0.000000
30
0.000000
71
101
72
56
73
57
0
VERTEX
8
0
6
CONTINUOUS
62
252
70
128
10
0.000000
20
0.000000
30
0.000000
71
101
72
57
73
100
0
VERTEX
8
0
6
CONTINUOUS
62
252
70
128
10
0.000000
20
0.000000
30
0.000000
71
100
72
57
73
58
0
VERTEX
8
0
6
CONTINUOUS
62
252
70
128
10
0.000000
20
0.000000
30
0.000000
71
100
72
58
73
99
0
VERTEX
8
0
6
CONTINUOUS
62
252
70
128
10
0.000000
20
0.000000
30
0.000000
71
99
72
58
73
98
0
VERTEX
8
0
6
CONTINUOUS
62
252
70
128
10
0.000000
20
0.000000
30
0.000000
71
98
72
58
73
59
0
VERTEX
8
0
6
CONTINUOUS
62
252
70
128
10
0.000000
20
0.000000
30
0.000000
71
98
72
59
73
60
0
VERTEX
8
0
6
CONTINUOUS
62
252
70
128
10
0.000000
20
0.000000
30
0.000000
71
98
72
60
73
97
0
VERTEX
8
0
6
CONTINUOUS
62
252
70
128
10
0.000000
20
0.000000
30
0.000000
71
97
72
60
73
1
0
SEQEND
0
ENDSEC
0
EOF
