0
SECTION
2
HEADER
9
$ACADVER
1
AC1009
9
$INSBASE
10
0.0
20
0.0
30
0.0
9
$EXTMIN
10
0.000000
20
0.000000
30
0.000000
9
$EXTMAX
10
0.000000
20
0.000000
30
0.000000
9
$UCSORG
10
0.0
20
0.0
30
0.0
9
$UCSXDIR
10
1.0
20
0.0
30
0.0
9
$UCSYDIR
10
0.0
20
1.0
30
0.0
9
$CLAYER
8
0
9
$SHADEDGE
70
3
0
ENDSEC
0
SECTION
2
TABLES
0
TABLE
2
LTYPE
70
2
0
LTYPE
2
CONTINUOUS
70
0
3
Solid line
72
65
73
0
40
0.0
0
ENDTAB
0
TABLE
2
LAYER
70
5
0
LAYER
2
0
70
0
62
7
6
CONTINUOUS
0
ENDTAB
0
TABLE
2
APPID
70
1
0
APPID
2
ACAD
70
64
0
ENDTAB
0
ENDSEC
0
SECTION
2
BLOCKS
0
ENDSEC
0
SECTION
2
ENTITIES
0
POLYLINE
66
1
8
0
6
CONTINUOUS
62
252
70
64
75
0
10
0.000000
20
0.000000
30
0.000000
0
VERTEX
8
0
6
CONTINUOUS
62
252
70
192
10
0.000000
20
0.000000
30
-0.195000
0
VERTEX
8
0
6
CONTINUOUS
62
252
70
192
10
0.000000
20
0.020383
30
-0.193932
0
VERTEX
8
0
6
CONTINUOUS
62
252
70
192
10
0.000000
20
0.040543
30
-0.190739
0
VERTEX
8
0
6
CONTINUOUS
62
252
70
192
10
0.000000
20
0.060258
30
-0.185456
0
VERTEX
8
0
6
CONTINUOUS
62
252
70
192
10
0.000000
20
0.079314
30
-0.178141
0
VERTEX
8
0
6
CONTINUOUS
62
252
70
192
10
0.000000
20
0.097500
30
-0.168875
0
VERTEX
8
0
6
CONTINUOUS
62
252
70
192
10
0.000000
20
0.114618
30
-0.157758
0
VERTEX
8
0
6
CONTINUOUS
62
252
70
192
10
0.000000
20
0.130480
30
-0.144913
0
VERTEX
8
0
6
CONTINUOUS
62
252
70
192
10
0.000000
20
0.144913
30
-0.130480
0
VERTEX
8
0
6
CONTINUOUS
62
252
70
192
10
0.000000
20
0.157758
30
-0.114618
0
VERTEX
8
0
6
CONTINUOUS
62
252
70
192
10
0.000000
20
0.168875
30
-0.097500
0
VERTEX
8
0
6
CONTINUOUS
62
252
70
192
10
0.000000
20
0.178141
30
-0.079314
0
VERTEX
8
0
6
CONTINUOUS
62
252
70
192
10
0.000000
20
0.185456
30
-0.060258
0
VERTEX
8
0
6
CONTINUOUS
62
252
70
192
10
0.000000
20
0.190739
30
-0.040543
0
VERTEX
8
0
6
CONTINUOUS
62
252
70
192
10
0.000000
20
0.193932
30
-0.020383
0
VERTEX
8
0
6
CONTINUOUS
62
252
70
192
10
0.000000
20
0.195000
30
-0.000000
0
VERTEX
8
0
6
CONTINUOUS
62
252
70
192
10
-0.000000
20
0.193932
30
0.020383
0
VERTEX
8
0
6
CONTINUOUS
62
252
70
192
10
-0.000000
20
0.190739
30
0.040543
0
VERTEX
8
0
6
CONTINUOUS
62
252
70
192
10
-0.000000
20
0.185456
30
0.060258
0
VERTEX
8
0
6
CONTINUOUS
62
252
70
192
10
-0.000000
20
0.178141
30
0.079314
0
VERTEX
8
0
6
CONTINUOUS
62
252
70
192
10
-0.000000
20
0.168875
30
0.097500
0
VERTEX
8
0
6
CONTINUOUS
62
252
70
192
10
-0.000000
20
0.157758
30
0.114618
0
VERTEX
8
0
6
CONTINUOUS
62
252
70
192
10
-0.000000
20
0.144913
30
0.130480
0
VERTEX
8
0
6
CONTINUOUS
62
252
70
192
10
-0.000000
20
0.130480
30
0.144913
0
VERTEX
8
0
6
CONTINUOUS
62
252
70
192
10
-0.000000
20
0.114618
30
0.157758
0
VERTEX
8
0
6
CONTINUOUS
62
252
70
192
10
-0.000000
20
0.097500
30
0.168875
0
VERTEX
8
0
6
CONTINUOUS
62
252
70
192
10
-0.000000
20
0.079314
30
0.178141
0
VERTEX
8
0
6
CONTINUOUS
62
252
70
192
10
-0.000000
20
0.060258
30
0.185456
0
VERTEX
8
0
6
CONTINUOUS
62
252
70
192
10
-0.000000
20
0.040543
30
0.190739
0
VERTEX
8
0
6
CONTINUOUS
62
252
70
192
10
-0.000000
20
0.020383
30
0.193932
0
VERTEX
8
0
6
CONTINUOUS
62
252
70
192
10
-0.000000
20
0.000000
30
0.195000
0
VERTEX
8
0
6
CONTINUOUS
62
252
70
192
10
-0.000000
20
-0.020383
30
0.193932
0
VERTEX
8
0
6
CONTINUOUS
62
252
70
192
10
-0.000000
20
-0.040543
30
0.190739
0
VERTEX
8
0
6
CONTINUOUS
62
252
70
192
10
-0.000000
20
-0.060258
30
0.185456
0
VERTEX
8
0
6
CONTINUOUS
62
252
70
192
10
-0.000000
20
-0.079314
30
0.178141
0
VERTEX
8
0
6
CONTINUOUS
62
252
70
192
10
-0.000000
20
-0.097500
30
0.168875
0
VERTEX
8
0
6
CONTINUOUS
62
252
70
192
10
-0.000000
20
-0.114618
30
0.157758
0
VERTEX
8
0
6
CONTINUOUS
62
252
70
192
10
-0.000000
20
-0.130480
30
0.144913
0
VERTEX
8
0
6
CONTINUOUS
62
252
70
192
10
-0.000000
20
-0.144913
30
0.130480
0
VERTEX
8
0
6
CONTINUOUS
62
252
70
192
10
-0.000000
20
-0.157758
30
0.114618
0
VERTEX
8
0
6
CONTINUOUS
62
252
70
192
10
-0.000000
20
-0.168875
30
0.097500
0
VERTEX
8
0
6
CONTINUOUS
62
252
70
192
10
-0.000000
20
-0.178141
30
0.079314
0
VERTEX
8
0
6
CONTINUOUS
62
252
70
192
10
-0.000000
20
-0.185456
30
0.060258
0
VERTEX
8
0
6
CONTINUOUS
62
252
70
192
10
-0.000000
20
-0.190739
30
0.040543
0
VERTEX
8
0
6
CONTINUOUS
62
252
70
192
10
-0.000000
20
-0.193932
30
0.020383
0
VERTEX
8
0
6
CONTINUOUS
62
252
70
192
10
-0.000000
20
-0.195000
30
0.000000
0
VERTEX
8
0
6
CONTINUOUS
62
252
70
192
10
0.000000
20
-0.193932
30
-0.020383
0
VERTEX
8
0
6
CONTINUOUS
62
252
70
192
10
0.000000
20
-0.190739
30
-0.040543
0
VERTEX
8
0
6
CONTINUOUS
62
252
70
192
10
0.000000
20
-0.185456
30
-0.060258
0
VERTEX
8
0
6
CONTINUOUS
62
252
70
192
10
0.000000
20
-0.178141
30
-0.079314
0
VERTEX
8
0
6
CONTINUOUS
62
252
70
192
10
0.000000
20
-0.168875
30
-0.097500
0
VERTEX
8
0
6
CONTINUOUS
62
252
70
192
10
0.000000
20
-0.157758
30
-0.114618
0
VERTEX
8
0
6
CONTINUOUS
62
252
70
192
10
0.000000
20
-0.144913
30
-0.130480
0
VERTEX
8
0
6
CONTINUOUS
62
252
70
192
10
0.000000
20
-0.130480
30
-0.144913
0
VERTEX
8
0
6
CONTINUOUS
62
252
70
192
10
0.000000
20
-0.114618
30
-0.157758
0
VERTEX
8
0
6
CONTINUOUS
62
252
70
192
10
0.000000
20
-0.097500
30
-0.168875
0
VERTEX
8
0
6
CONTINUOUS
62
252
70
192
10
0.000000
20
-0.079314
30
-0.178141
0
VERTEX
8
0
6
CONTINUOUS
62
252
70
192
10
0.000000
20
-0.060258
30
-0.185456
0
VERTEX
8
0
6
CONTINUOUS
62
252
70
192
10
0.000000
20
-0.040543
30
-0.190739
0
VERTEX
8
0
6
CONTINUOUS
62
252
70
192
10
0.000000
20
-0.020383
30
-0.193932
0
VERTEX
8
0
6
CONTINUOUS
62
252
70
192
10
0.000000
20
0.000000
30
0.250000
0
VERTEX
8
0
6
CONTINUOUS
62
252
70
192
10
-0.000000
20
0.026132
30
0.248630
0
VERTEX
8
0
6
CONTINUOUS
62
252
70
192
10
-0.000000
20
0.051978
30
0.244537
0
VERTEX
8
0
6
CONTINUOUS
62
252
70
192
10
-0.000000
20
0.077254
30
0.237764
0
VERTEX
8
0
6
CONTINUOUS
62
252
70
192
10
-0.000000
20
0.101684
30
0.228386
0
VERTEX
8
0
6
CONTINUOUS
62
252
70
192
10
-0.000000
20
0.125000
30
0.216506
0
VERTEX
8
0
6
CONTINUOUS
62
252
70
192
10
-0.000000
20
0.146946
30
0.202254
0
VERTEX
8
0
6
CONTINUOUS
62
252
70
192
10
-0.000000
20
0.167283
30
0.185786
0
VERTEX
8
0
6
CONTINUOUS
62
252
70
192
10
-0.000000
20
0.185786
30
0.167283
0
VERTEX
8
0
6
CONTINUOUS
62
252
70
192
10
-0.000000
20
0.202254
30
0.146946
0
VERTEX
8
0
6
CONTINUOUS
62
252
70
192
10
-0.000000
20
0.216506
30
0.125000
0
VERTEX
8
0
6
CONTINUOUS
62
252
70
192
10
-0.000000
20
0.228386
30
0.101684
0
VERTEX
8
0
6
CONTINUOUS
62
252
70
192
10
-0.000000
20
0.237764
30
0.077254
0
VERTEX
8
0
6
CONTINUOUS
62
252
70
192
10
-0.000000
20
0.244537
30
0.051978
0
VERTEX
8
0
6
CONTINUOUS
62
252
70
192
10
-0.000000
20
0.248630
30
0.026132
0
VERTEX
8
0
6
CONTINUOUS
62
252
70
192
10
0.000000
20
0.250000
30
-0.000000
0
VERTEX
8
0
6
CONTINUOUS
62
252
70
192
10
0.000000
20
0.248630
30
-0.026132
0
VERTEX
8
0
6
CONTINUOUS
62
252
70
192
10
0.000000
20
0.244537
30
-0.051978
0
VERTEX
8
0
6
CONTINUOUS
62
252
70
192
10
0.000000
20
0.237764
30
-0.077254
0
VERTEX
8
0
6
CONTINUOUS
62
252
70
192
10
0.000000
20
0.228386
30
-0.101684
0
VERTEX
8
0
6
CONTINUOUS
62
252
70
192
10
0.000000
20
0.216506
30
-0.125000
0
VERTEX
8
0
6
CONTINUOUS
62
252
70
192
10
0.000000
20
0.202254
30
-0.146946
0
VERTEX
8
0
6
CONTINUOUS
62
252
70
192
10
0.000000
20
0.185786
30
-0.167283
0
VERTEX
8
0
6
CONTINUOUS
62
252
70
192
10
0.000000
20
0.167283
30
-0.185786
0
VERTEX
8
0
6
CONTINUOUS
62
252
70
192
10
0.000000
20
0.146946
30
-0.202254
0
VERTEX
8
0
6
CONTINUOUS
62
252
70
192
10
0.000000
20
0.125000
30
-0.216506
0
VERTEX
8
0
6
CONTINUOUS
62
252
70
192
10
0.000000
20
0.101684
30
-0.228386
0
VERTEX
8
0
6
CONTINUOUS
62
252
70
192
10
0.000000
20
0.077254
30
-0.237764
0
VERTEX
8
0
6
CONTINUOUS
62
252
70
192
10
0.000000
20
0.051978
30
-0.244537
0
VERTEX
8
0
6
CONTINUOUS
62
252
70
192
10
0.000000
20
0.026132
30
-0.248630
0
VERTEX
8
0
6
CONTINUOUS
62
252
70
192
10
0.000000
20
-0.000000
30
-0.250000
0
VERTEX
8
0
6
CONTINUOUS
62
252
70
192
10
0.000000
20
-0.026132
30
-0.248630
0
VERTEX
8
0
6
CONTINUOUS
62
252
70
192
10
0.000000
20
-0.051978
30
-0.244537
0
VERTEX
8
0
6
CONTINUOUS
62
252
70
192
10
0.000000
20
-0.077254
30
-0.237764
0
VERTEX
8
0
6
CONTINUOUS
62
252
70
192
10
0.000000
20
-0.101684
30
-0.228386
0
VERTEX
8
0
6
CONTINUOUS
62
252
70
192
10
0.000000
20
-0.125000
30
-0.216506
0
VERTEX
8
0
6
CONTINUOUS
62
252
70
192
10
0.000000
20
-0.146946
30
-0.202254
0
VERTEX
8
0
6
CONTINUOUS
62
252
70
192
10
0.000000
20
-0.167283
30
-0.185786
0
VERTEX
8
0
6
CONTINUOUS
62
252
70
192
10
0.000000
20
-0.185786
30
-0.167283
0
VERTEX
8
0
6
CONTINUOUS
62
252
70
192
10
0.000000
20
-0.202254
30
-0.146946
0
VERTEX
8
0
6
CONTINUOUS
62
252
70
192
10
0.000000
20
-0.216506
30
-0.125000
0
VERTEX
8
0
6
CONTINUOUS
62
252
70
192
10
0.000000
20
-0.228386
30
-0.101684
0
VERTEX
8
0
6
CONTINUOUS
62
252
70
192
10
0.000000
20
-0.237764
30
-0.077254
0
VERTEX
8
0
6
CONTINUOUS
62
252
70
192
10
0.000000
20
-0.244537
30
-0.051978
0
VERTEX
8
0
6
CONTINUOUS
62
252
70
192
10
0.000000
20
-0.248630
30
-0.026132
0
VERTEX
8
0
6
CONTINUOUS
62
252
70
192
10
-0.000000
20
-0.250000
30
-0.000000
0
VERTEX
8
0
6
CONTINUOUS
62
252
70
192
10
-0.000000
20
-0.248630
30
0.026132
0
VERTEX
8
0
6
CONTINUOUS
62
252
70
192
10
-0.000000
20
-0.244537
30
0.051978
0
VERTEX
8
0
6
CONTINUOUS
62
252
70
192
10
-0.000000
20
-0.237764
30
0.077254
0
VERTEX
8
0
6
CONTINUOUS
62
252
70
192
10
-0.000000
20
-0.228386
30
0.101684
0
VERTEX
8
0
6
CONTINUOUS
62
252
70
192
10
-0.000000
20
-0.216506
30
0.125000
0
VERTEX
8
0
6
CONTINUOUS
62
252
70
192
10
-0.000000
20
-0.202254
30
0.146946
0
VERTEX
8
0
6
CONTINUOUS
62
252
70
192
10
-0.000000
20
-0.185786
30
0.167283
0
VERTEX
8
0
6
CONTINUOUS
62
252
70
192
10
-0.000000
20
-0.167283
30
0.185786
0
VERTEX
8
0
6
CONTINUOUS
62
252
70
192
10
-0.000000
20
-0.146946
30
0.202254
0
VERTEX
8
0
6
CONTINUOUS
62
252
70
192
10
-0.000000
20
-0.125000
30
0.216506
0
VERTEX
8
0
6
CONTINUOUS
62
252
70
192
10
-0.000000
20
-0.101684
30
0.228386
0
VERTEX
8
0
6
CONTINUOUS
62
252
70
192
10
-0.000000
20
-0.077254
30
0.237764
0
VERTEX
8
0
6
CONTINUOUS
62
252
70
192
10
-0.000000
20
-0.051978
30
0.244537
0
VERTEX
8
0
6
CONTINUOUS
62
252
70
192
10
-0.000000
20
-0.026132
30
0.248630
0
VERTEX
8
0
6
CONTINUOUS
62
252
70
128
10
0.000000
20
0.000000
30
0.000000
71
60
72
1
73
91
0
VERTEX
8
0
6
CONTINUOUS
62
252
70
128
10
0.000000
20
0.000000
30
0.000000
71
91
72
1
73
2
0
VERTEX
8
0
6
CONTINUOUS
62
252
70
128
10
0.000000
20
0.000000
30
0.000000
71
91
72
2
73
90
0
VERTEX
8
0
6
CONTINUOUS
62
252
70
128
10
0.000000
20
0.000000
30
0.000000
71
90
72
2
73
3
0
VERTEX
8
0
6
CONTINUOUS
62
252
70
128
10
0.000000
20
0.000000
30
0.000000
71
90
72
3
73
89
0
VERTEX
8
0
6
CONTINUOUS
62
252
70
128
10
0.000000
20
0.000000
30
0.000000
71
89
72
3
73
4
0
VERTEX
8
0
6
CONTINUOUS
62
252
70
128
10
0.000000
20
0.000000
30
0.000000
71
89
72
4
73
88
0
VERTEX
8
0
6
CONTINUOUS
62
252
70
128
10
0.000000
20
0.000000
30
0.000000
71
88
72
4
73
5
0
VERTEX
8
0
6
CONTINUOUS
62
252
70
128
10
0.000000
20
0.000000
30
0.000000
71
88
72
5
73
87
0
VERTEX
8
0
6
CONTINUOUS
62
252
70
128
10
0.000000
20
0.000000
30
0.000000
71
87
72
5
73
6
0
VERTEX
8
0
6
CONTINUOUS
62
252
70
128
10
0.000000
20
0.000000
30
0.000000
71
87
72
6
73
86
0
VERTEX
8
0
6
CONTINUOUS
62
252
70
128
10
0.000000
20
0.000000
30
0.000000
71
86
72
6
73
7
0
VERTEX
8
0
6
CONTINUOUS
62
252
70
128
10
0.000000
20
0.000000
30
0.000000
71
86
72
7
73
85
0
VERTEX
8
0
6
CONTINUOUS
62
252
70
128
10
0.000000
20
0.000000
30
0.000000
71
85
72
7
73
8
0
VERTEX
8
0
6
CONTINUOUS
62
252
70
128
10
0.000000
20
0.000000
30
0.000000
71
85
72
8
73
84
0
VERTEX
8
0
6
CONTINUOUS
62
252
70
128
10
0.000000
20
0.000000
30
0.000000
71
84
72
8
73
9
0
VERTEX
8
0
6
CONTINUOUS
62
252
70
128
10
0.000000
20
0.000000
30
0.000000
71
84
72
9
73
83
0
VERTEX
8
0
6
CONTINUOUS
62
252
70
128
10
0.000000
20
0.000000
30
0.000000
71
83
72
9
73
10
0
VERTEX
8
0
6
CONTINUOUS
62
252
70
128
10
0.000000
20
0.000000
30
0.000000
71
83
72
10
73
82
0
VERTEX
8
0
6
CONTINUOUS
62
252
70
128
10
0.000000
20
0.000000
30
0.000000
71
82
72
10
73
11
0
VERTEX
8
0
6
CONTINUOUS
62
252
70
128
10
0.000000
20
0.000000
30
0.000000
71
82
72
11
73
81
0
VERTEX
8
0
6
CONTINUOUS
62
252
70
128
10
0.000000
20
0.000000
30
0.000000
71
81
72
11
73
12
0
VERTEX
8
0
6
CONTINUOUS
62
252
70
128
10
0.000000
20
0.000000
30
0.000000
71
81
72
12
73
80
0
VERTEX
8
0
6
CONTINUOUS
62
252
70
128
10
0.000000
20
0.000000
30
0.000000
71
80
72
12
73
13
0
VERTEX
8
0
6
CONTINUOUS
62
252
70
128
10
0.000000
20
0.000000
30
0.000000
71
80
72
13
73
79
0
VERTEX
8
0
6
CONTINUOUS
62
252
70
128
10
0.000000
20
0.000000
30
0.000000
71
79
72
13
73
14
0
VERTEX
8
0
6
CONTINUOUS
62
252
70
128
10
0.000000
20
0.000000
30
0.000000
71
79
72
14
73
78
0
VERTEX
8
0
6
CONTINUOUS
62
252
70
128
10
0.000000
20
0.000000
30
0.000000
71
78
72
14
73
15
0
VERTEX
8
0
6
CONTINUOUS
62
252
70
128
10
0.000000
20
0.000000
30
0.000000
71
78
72
15
73
77
0
VERTEX
8
0
6
CONTINUOUS
62
252
70
128
10
0.000000
20
0.000000
30
0.000000
71
77
72
15
73
16
0
VERTEX
8
0
6
CONTINUOUS
62
252
70
128
10
0.000000
20
0.000000
30
0.000000
71
77
72
16
73
76
0
VERTEX
8
0
6
CONTINUOUS
62
252
70
128
10
0.000000
20
0.000000
30
0.000000
71
76
72
16
73
75
0
VERTEX
8
0
6
CONTINUOUS
62
252
70
128
10
0.000000
20
0.000000
30
0.000000
71
75
72
16
73
17
0
VERTEX
8
0
6
CONTINUOUS
62
252
70
128
10
0.000000
20
0.000000
30
0.000000
71
75
72
17
73
74
0
VERTEX
8
0
6
CONTINUOUS
62
252
70
128
10
0.000000
20
0.000000
30
0.000000
71
74
72
17
73
18
0
VERTEX
8
0
6
CONTINUOUS
62
252
70
128
10
0.000000
20
0.000000
30
0.000000
71
74
72
18
73
73
0
VERTEX
8
0
6
CONTINUOUS
62
252
70
128
10
0.000000
20
0.000000
30
0.000000
71
73
72
18
73
19
0
VERTEX
8
0
6
CONTINUOUS
62
252
70
128
10
0.000000
20
0.000000
30
0.000000
71
73
72
19
73
72
0
VERTEX
8
0
6
CONTINUOUS
62
252
70
128
10
0.000000
20
0.000000
30
0.000000
71
72
72
19
73
20
0
VERTEX
8
0
6
CONTINUOUS
62
252
70
128
10
0.000000
20
0.000000
30
0.000000
71
72
72
20
73
71
0
VERTEX
8
0
6
CONTINUOUS
62
252
70
128
10
0.000000
20
0.000000
30
0.000000
71
71
72
20
73
21
0
VERTEX
8
0
6
CONTINUOUS
62
252
70
128
10
0.000000
20
0.000000
30
0.000000
71
71
72
21
73
70
0
VERTEX
8
0
6
CONTINUOUS
62
252
70
128
10
0.000000
20
0.000000
30
0.000000
71
70
72
21
73
22
0
VERTEX
8
0
6
CONTINUOUS
62
252
70
128
10
0.000000
20
0.000000
30
0.000000
71
70
72
22
73
69
0
VERTEX
8
0
6
CONTINUOUS
62
252
70
128
10
0.000000
20
0.000000
30
0.000000
71
69
72
22
73
23
0
VERTEX
8
0
6
CONTINUOUS
62
252
70
128
10
0.000000
20
0.000000
30
0.000000
71
69
72
23
73
68
0
VERTEX
8
0
6
CONTINUOUS
62
252
70
128
10
0.000000
20
0.000000
30
0.000000
71
68
72
23
73
24
0
VERTEX
8
0
6
CONTINUOUS
62
252
70
128
10
0.000000
20
0.000000
30
0.000000
71
68
72
24
73
67
0
VERTEX
8
0
6
CONTINUOUS
62
252
70
128
10
0.000000
20
0.000000
30
0.000000
71
67
72
24
73
25
0
VERTEX
8
0
6
CONTINUOUS
62
252
70
128
10
0.000000
20
0.000000
30
0.000000
71
67
72
25
73
66
0
VERTEX
8
0
6
CONTINUOUS
62
252
70
128
10
0.000000
20
0.000000
30
0.000000
71
66
72
25
73
26
0
VERTEX
8
0
6
CONTINUOUS
62
252
70
128
10
0.000000
20
0.000000
30
0.000000
71
66
72
26
73
65
0
VERTEX
8
0
6
CONTINUOUS
62
252
70
128
10
0.000000
20
0.000000
30
0.000000
71
65
72
26
73
27
0
VERTEX
8
0
6
CONTINUOUS
62
252
70
128
10
0.000000
20
0.000000
30
0.000000
71
65
72
27
73
64
0
VERTEX
8
0
6
CONTINUOUS
62
252
70
128
10
0.000000
20
0.000000
30
0.000000
71
64
72
27
73
28
0
VERTEX
8
0
6
CONTINUOUS
62
252
70
128
10
0.000000
20
0.000000
30
0.000000
71
64
72
28
73
63
0
VERTEX
8
0
6
CONTINUOUS
62
252
70
128
10
0.000000
20
0.000000
30
0.000000
71
63
72
28
73
29
0
VERTEX
8
0
6
CONTINUOUS
62
252
70
128
10
0.000000
20
0.000000
30
0.000000
71
63
72
29
73
62
0
VERTEX
8
0
6
CONTINUOUS
62
252
70
128
10
0.000000
20
0.000000
30
0.000000
71
62
72
29
73
30
0
VERTEX
8
0
6
CONTINUOUS
62
252
70
128
10
0.000000
20
0.000000
30
0.000000
71
62
72
30
73
61
0
VERTEX
8
0
6
CONTINUOUS
62
252
70
128
10
0.000000
20
0.000000
30
0.000000
71
61
72
30
73
31
0
VERTEX
8
0
6
CONTINUOUS
62
252
70
128
10
0.000000
20
0.000000
30
0.000000
71
61
72
31
73
32
0
VERTEX
8
0
6
CONTINUOUS
62
252
70
128
10
0.000000
20
0.000000
30
0.000000
71
61
72
32
73
120
0
VERTEX
8
0
6
CONTINUOUS
62
252
70
128
10
0.000000
20
0.000000
30
0.000000
71
120
72
32
73
33
0
VERTEX
8
0
6
CONTINUOUS
62
252
70
128
10
0.000000
20
0.000000
30
0.000000
71
120
72
33
73
119
0
VERTEX
8
0
6
CONTINUOUS
62
252
70
128
10
0.000000
20
0.000000
30
0.000000
71
119
72
33
73
34
0
VERTEX
8
0
6
CONTINUOUS
62
252
70
128
10
0.000000
20
0.000000
30
0.000000
71
119
72
34
73
118
0
VERTEX
8
0
6
CONTINUOUS
62
252
70
128
10
0.000000
20
0.000000
30
0.000000
71
118
72
34
73
35
0
VERTEX
8
0
6
CONTINUOUS
62
252
70
128
10
0.000000
20
0.000000
30
0.000000
71
118
72
35
73
117
0
VERTEX
8
0
6
CONTINUOUS
62
252
70
128
10
0.000000
20
0.000000
30
0.000000
71
117
72
35
73
36
0
VERTEX
8
0
6
CONTINUOUS
62
252
70
128
10
0.000000
20
0.000000
30
0.000000
71
117
72
36
73
116
0
VERTEX
8
0
6
CONTINUOUS
62
252
70
128
10
0.000000
20
0.000000
30
0.000000
71
116
72
36
73
37
0
VERTEX
8
0
6
CONTINUOUS
62
252
70
128
10
0.000000
20
0.000000
30
0.000000
71
116
72
37
73
115
0
VERTEX
8
0
6
CONTINUOUS
62
252
70
128
10
0.000000
20
0.000000
30
0.000000
71
115
72
37
73
38
0
VERTEX
8
0
6
CONTINUOUS
62
252
70
128
10
0.000000
20
0.000000
30
0.000000
71
115
72
38
73
114
0
VERTEX
8
0
6
CONTINUOUS
62
252
70
128
10
0.000000
20
0.000000
30
0.000000
71
114
72
38
73
39
0
VERTEX
8
0
6
CONTINUOUS
62
252
70
128
10
0.000000
20
0.000000
30
0.000000
71
114
72
39
73
113
0
VERTEX
8
0
6
CONTINUOUS
62
252
70
128
10
0.000000
20
0.000000
30
0.000000
71
113
72
39
73
40
0
VERTEX
8
0
6
CONTINUOUS
62
252
70
128
10
0.000000
20
0.000000
30
0.000000
71
113
72
40
73
112
0
VERTEX
8
0
6
CONTINUOUS
62
252
70
128
10
0.000000
20
0.000000
30
0.000000
71
112
72
40
73
41
0
VERTEX
8
0
6
CONTINUOUS
62
252
70
128
10
0.000000
20
0.000000
30
0.000000
71
112
72
41
73
111
0
VERTEX
8
0
6
CONTINUOUS
62
252
70
128
10
0.000000
20
0.000000
30
0.000000
71
111
72
41
73
42
0
VERTEX
8
0
6
CONTINUOUS
62
252
70
128
10
0.000000
20
0.000000
30
0.000000
71
111
72
42
73
110
0
VERTEX
8
0
6
CONTINUOUS
62
252
70
128
10
0.000000
20
0.000000
30
0.000000
71
110
72
42
73
43
0
VERTEX
8
0
6
CONTINUOUS
62
252
70
128
10
0.000000
20
0.000000
30
0.000000
71
110
72
43
73
109
0
VERTEX
8
0
6
CONTINUOUS
62
252
70
128
10
0.000000
20
0.000000
30
0.000000
71
109
72
43
73
44
0
VERTEX
8
0
6
CONTINUOUS
62
252
70
128
10
0.000000
20
0.000000
30
0.000000
71
109
72
44
73
108
0
VERTEX
8
0
6
CONTINUOUS
62
252
70
128
10
0.000000
20
0.000000
30
0.000000
71
108
72
44
73
45
0
VERTEX
8
0
6
CONTINUOUS
62
252
70
128
10
0.000000
20
0.000000
30
0.000000
71
108
72
45
73
107
0
VERTEX
8
0
6
CONTINUOUS
62
252
70
128
10
0.000000
20
0.000000
30
0.000000
71
107
72
45
73
46
0
VERTEX
8
0
6
CONTINUOUS
62
252
70
128
10
0.000000
20
0.000000
30
0.000000
71
107
72
46
73
106
0
VERTEX
8
0
6
CONTINUOUS
62
252
70
128
10
0.000000
20
0.000000
30
0.000000
71
106
72
46
73
105
0
VERTEX
8
0
6
CONTINUOUS
62
252
70
128
10
0.000000
20
0.000000
30
0.000000
71
105
72
46
73
47
0
VERTEX
8
0
6
CONTINUOUS
62
252
70
128
10
0.000000
20
0.000000
30
0.000000
71
105
72
47
73
104
0
VERTEX
8
0
6
CONTINUOUS
62
252
70
128
10
0.000000
20
0.000000
30
0.000000
71
104
72
47
73
48
0
VERTEX
8
0
6
CONTINUOUS
62
252
70
128
10
0.000000
20
0.000000
30
0.000000
71
104
72
48
73
103
0
VERTEX
8
0
6
CONTINUOUS
62
252
70
128
10
0.000000
20
0.000000
30
0.000000
71
103
72
48
73
49
0
VERTEX
8
0
6
CONTINUOUS
62
252
70
128
10
0.000000
20
0.000000
30
0.000000
71
103
72
49
73
102
0
VERTEX
8
0
6
CONTINUOUS
62
252
70
128
10
0.000000
20
0.000000
30
0.000000
71
102
72
49
73
50
0
VERTEX
8
0
6
CONTINUOUS
62
252
70
128
10
0.000000
20
0.000000
30
0.000000
71
102
72
50
73
101
0
VERTEX
8
0
6
CONTINUOUS
62
252
70
128
10
0.000000
20
0.000000
30
0.000000
71
101
72
50
73
51
0
VERTEX
8
0
6
CONTINUOUS
62
252
70
128
10
0.000000
20
0.000000
30
0.000000
71
101
72
51
73
100
0
VERTEX
8
0
6
CONTINUOUS
62
252
70
128
10
0.000000
20
0.000000
30
0.000000
71
100
72
51
73
52
0
VERTEX
8
0
6
CONTINUOUS
62
252
70
128
10
0.000000
20
0.000000
30
0.000000
71
100
72
52
73
99
0
VERTEX
8
0
6
CONTINUOUS
62
252
70
128
10
0.000000
20
0.000000
30
0.000000
71
99
72
52
73
53
0
VERTEX
8
0
6
CONTINUOUS
62
252
70
128
10
0.000000
20
0.000000
30
0.000000
71
99
72
53
73
98
0
VERTEX
8
0
6
CONTINUOUS
62
252
70
128
10
0.000000
20
0.000000
30
0.000000
71
98
72
53
73
54
0
VERTEX
8
0
6
CONTINUOUS
62
252
70
128
10
0.000000
20
0.000000
30
0.000000
71
98
72
54
73
97
0
VERTEX
8
0
6
CONTINUOUS
62
252
70
128
10
0.000000
20
0.000000
30
0.000000
71
97
72
54
73
55
0
VERTEX
8
0
6
CONTINUOUS
62
252
70
128
10
0.000000
20
0.000000
30
0.000000
71
97
72
55
73
96
0
VERTEX
8
0
6
CONTINUOUS
62
252
70
128
10
0.000000
20
0.000000
30
0.000000
71
96
72
55
73
56
0
VERTEX
8
0
6
CONTINUOUS
62
252
70
128
10
0.000000
20
0.000000
30
0.000000
71
96
72
56
73
95
0
VERTEX
8
0
6
CONTINUOUS
62
252
70
128
10
0.000000
20
0.000000
30
0.000000
71
95
72
56
73
57
0
VERTEX
8
0
6
CONTINUOUS
62
252
70
128
10
0.000000
20
0.000000
30
0.000000
71
95
72
57
73
94
0
VERTEX
8
0
6
CONTINUOUS
62
252
70
128
10
0.000000
20
0.000000
30
0.000000
71
94
72
57
73
58
0
VERTEX
8
0
6
CONTINUOUS
62
252
70
128
10
0.000000
20
0.000000
30
0.000000
71
94
72
58
73
93
0
VERTEX
8
0
6
CONTINUOUS
62
252
70
128
10
0.000000
20
0.000000
30
0.000000
71
93
72
58
73
59
0
VERTEX
8
0
6
CONTINUOUS
62
252
70
128
10
0.000000
20
0.000000
30
0.000000
71
93
72
59
73
92
0
VERTEX
8
0
6
CONTINUOUS
62
252
70
128
10
0.000000
20
0.000000
30
0.000000
71
92
72
59
73
60
0
VERTEX
8
0
6
CONTINUOUS
62
252
70
128
10
0.000000
20
0.000000
30
0.000000
71
92
72
60
73
91
0
SEQEND
0
POLYLINE
66
1
8
0
6
CONTINUOUS
62
252
70
64
75
0
10
0.000000
20
0.000000
30
0.000000
0
VERTEX
8
0
6
CONTINUOUS
62
252
70
192
10
0.970000
20
0.000000
30
0.250000
0
VERTEX
8
0
6
CONTINUOUS
62
252
70
192
10
0.970000
20
0.026132
30
0.248630
0
VERTEX
8
0
6
CONTINUOUS
62
252
70
192
10
0.970000
20
0.051978
30
0.244537
0
VERTEX
8
0
6
CONTINUOUS
62
252
70
192
10
0.970000
20
0.077254
30
0.237764
0
VERTEX
8
0
6
CONTINUOUS
62
252
70
192
10
0.970000
20
0.101684
30
0.228386
0
VERTEX
8
0
6
CONTINUOUS
62
252
70
192
10
0.970000
20
0.125000
30
0.216506
0
VERTEX
8
0
6
CONTINUOUS
62
252
70
192
10
0.970000
20
0.146946
30
0.202254
0
VERTEX
8
0
6
CONTINUOUS
62
252
70
192
10
0.970000
20
0.167283
30
0.185786
0
VERTEX
8
0
6
CONTINUOUS
62
252
70
192
10
0.970000
20
0.185786
30
0.167283
0
VERTEX
8
0
6
CONTINUOUS
62
252
70
192
10
0.970000
20
0.202254
30
0.146946
0
VERTEX
8
0
6
CONTINUOUS
62
252
70
192
10
0.970000
20
0.216506
30
0.125000
0
VERTEX
8
0
6
CONTINUOUS
62
252
70
192
10
0.970000
20
0.228386
30
0.101684
0
VERTEX
8
0
6
CONTINUOUS
62
252
70
192
10
0.970000
20
0.237764
30
0.077254
0
VERTEX
8
0
6
CONTINUOUS
62
252
70
192
10
0.970000
20
0.244537
30
0.051978
0
VERTEX
8
0
6
CONTINUOUS
62
252
70
192
10
0.970000
20
0.248630
30
0.026132
0
VERTEX
8
0
6
CONTINUOUS
62
252
70
192
10
0.970000
20
0.250000
30
-0.000000
0
VERTEX
8
0
6
CONTINUOUS
62
252
70
192
10
0.970000
20
0.248630
30
-0.026132
0
VERTEX
8
0
6
CONTINUOUS
62
252
70
192
10
0.970000
20
0.244537
30
-0.051978
0
VERTEX
8
0
6
CONTINUOUS
62
252
70
192
10
0.970000
20
0.237764
30
-0.077254
0
VERTEX
8
0
6
CONTINUOUS
62
252
70
192
10
0.970000
20
0.228386
30
-0.101684
0
VERTEX
8
0
6
CONTINUOUS
62
252
70
192
10
0.970000
20
0.216506
30
-0.125000
0
VERTEX
8
0
6
CONTINUOUS
62
252
70
192
10
0.970000
20
0.202254
30
-0.146946
0
VERTEX
8
0
6
CONTINUOUS
62
252
70
192
10
0.970000
20
0.185786
30
-0.167283
0
VERTEX
8
0
6
CONTINUOUS
62
252
70
192
10
0.970000
20
0.167283
30
-0.185786
0
VERTEX
8
0
6
CONTINUOUS
62
252
70
192
10
0.970000
20
0.146946
30
-0.202254
0
VERTEX
8
0
6
CONTINUOUS
62
252
70
192
10
0.970000
20
0.125000
30
-0.216506
0
VERTEX
8
0
6
CONTINUOUS
62
252
70
192
10
0.970000
20
0.101684
30
-0.228386
0
VERTEX
8
0
6
CONTINUOUS
62
252
70
192
10
0.970000
20
0.077254
30
-0.237764
0
VERTEX
8
0
6
CONTINUOUS
62
252
70
192
10
0.970000
20
0.051978
30
-0.244537
0
VERTEX
8
0
6
CONTINUOUS
62
252
70
192
10
0.970000
20
0.026132
30
-0.248630
0
VERTEX
8
0
6
CONTINUOUS
62
252
70
192
10
0.970000
20
-0.000000
30
-0.250000
0
VERTEX
8
0
6
CONTINUOUS
62
252
70
192
10
0.970000
20
-0.026132
30
-0.248630
0
VERTEX
8
0
6
CONTINUOUS
62
252
70
192
10
0.970000
20
-0.051978
30
-0.244537
0
VERTEX
8
0
6
CONTINUOUS
62
252
70
192
10
0.970000
20
-0.077254
30
-0.237764
0
VERTEX
8
0
6
CONTINUOUS
62
252
70
192
10
0.970000
20
-0.101684
30
-0.228386
0
VERTEX
8
0
6
CONTINUOUS
62
252
70
192
10
0.970000
20
-0.125000
30
-0.216506
0
VERTEX
8
0
6
CONTINUOUS
62
252
70
192
10
0.970000
20
-0.146946
30
-0.202254
0
VERTEX
8
0
6
CONTINUOUS
62
252
70
192
10
0.970000
20
-0.167283
30
-0.185786
0
VERTEX
8
0
6
CONTINUOUS
62
252
70
192
10
0.970000
20
-0.185786
30
-0.167283
0
VERTEX
8
0
6
CONTINUOUS
62
252
70
192
10
0.970000
20
-0.202254
30
-0.146946
0
VERTEX
8
0
6
CONTINUOUS
62
252
70
192
10
0.970000
20
-0.216506
30
-0.125000
0
VERTEX
8
0
6
CONTINUOUS
62
252
70
192
10
0.970000
20
-0.228386
30
-0.101684
0
VERTEX
8
0
6
CONTINUOUS
62
252
70
192
10
0.970000
20
-0.237764
30
-0.077254
0
VERTEX
8
0
6
CONTINUOUS
62
252
70
192
10
0.970000
20
-0.244537
30
-0.051978
0
VERTEX
8
0
6
CONTINUOUS
62
252
70
192
10
0.970000
20
-0.248630
30
-0.026132
0
VERTEX
8
0
6
CONTINUOUS
62
252
70
192
10
0.970000
20
-0.250000
30
0.000000
0
VERTEX
8
0
6
CONTINUOUS
62
252
70
192
10
0.970000
20
-0.248630
30
0.026132
0
VERTEX
8
0
6
CONTINUOUS
62
252
70
192
10
0.970000
20
-0.244537
30
0.051978
0
VERTEX
8
0
6
CONTINUOUS
62
252
70
192
10
0.970000
20
-0.237764
30
0.077254
0
VERTEX
8
0
6
CONTINUOUS
62
252
70
192
10
0.970000
20
-0.228386
30
0.101684
0
VERTEX
8
0
6
CONTINUOUS
62
252
70
192
10
0.970000
20
-0.216506
30
0.125000
0
VERTEX
8
0
6
CONTINUOUS
62
252
70
192
10
0.970000
20
-0.202254
30
0.146946
0
VERTEX
8
0
6
CONTINUOUS
62
252
70
192
10
0.970000
20
-0.185786
30
0.167283
0
VERTEX
8
0
6
CONTINUOUS
62
252
70
192
10
0.970000
20
-0.167283
30
0.185786
0
VERTEX
8
0
6
CONTINUOUS
62
252
70
192
10
0.970000
20
-0.146946
30
0.202254
0
VERTEX
8
0
6
CONTINUOUS
62
252
70
192
10
0.970000
20
-0.125000
30
0.216506
0
VERTEX
8
0
6
CONTINUOUS
62
252
70
192
10
0.970000
20
-0.101684
30
0.228386
0
VERTEX
8
0
6
CONTINUOUS
62
252
70
192
10
0.970000
20
-0.077254
30
0.237764
0
VERTEX
8
0
6
CONTINUOUS
62
252
70
192
10
0.970000
20
-0.051978
30
0.244537
0
VERTEX
8
0
6
CONTINUOUS
62
252
70
192
10
0.970000
20
-0.026132
30
0.248630
0
VERTEX
8
0
6
CONTINUOUS
62
252
70
192
10
0.000000
20
0.000000
30
0.250000
0
VERTEX
8
0
6
CONTINUOUS
62
252
70
192
10
-0.000000
20
-0.026132
30
0.248630
0
VERTEX
8
0
6
CONTINUOUS
62
252
70
192
10
-0.000000
20
-0.051978
30
0.244537
0
VERTEX
8
0
6
CONTINUOUS
62
252
70
192
10
-0.000000
20
-0.077254
30
0.237764
0
VERTEX
8
0
6
CONTINUOUS
62
252
70
192
10
-0.000000
20
-0.101684
30
0.228386
0
VERTEX
8
0
6
CONTINUOUS
62
252
70
192
10
-0.000000
20
-0.125000
30
0.216506
0
VERTEX
8
0
6
CONTINUOUS
62
252
70
192
10
-0.000000
20
-0.146946
30
0.202254
0
VERTEX
8
0
6
CONTINUOUS
62
252
70
192
10
-0.000000
20
-0.167283
30
0.185786
0
VERTEX
8
0
6
CONTINUOUS
62
252
70
192
10
-0.000000
20
-0.185786
30
0.167283
0
VERTEX
8
0
6
CONTINUOUS
62
252
70
192
10
-0.000000
20
-0.202254
30
0.146946
0
VERTEX
8
0
6
CONTINUOUS
62
252
70
192
10
-0.000000
20
-0.216506
30
0.125000
0
VERTEX
8
0
6
CONTINUOUS
62
252
70
192
10
-0.000000
20
-0.228386
30
0.101684
0
VERTEX
8
0
6
CONTINUOUS
62
252
70
192
10
-0.000000
20
-0.237764
30
0.077254
0
VERTEX
8
0
6
CONTINUOUS
62
252
70
192
10
-0.000000
20
-0.244537
30
0.051978
0
VERTEX
8
0
6
CONTINUOUS
62
252
70
192
10
-0.000000
20
-0.248630
30
0.026132
0
VERTEX
8
0
6
CONTINUOUS
62
252
70
192
10
-0.000000
20
-0.250000
30
-0.000000
0
VERTEX
8
0
6
CONTINUOUS
62
252
70
192
10
0.000000
20
-0.248630
30
-0.026132
0
VERTEX
8
0
6
CONTINUOUS
62
252
70
192
10
0.000000
20
-0.244537
30
-0.051978
0
VERTEX
8
0
6
CONTINUOUS
62
252
70
192
10
0.000000
20
-0.237764
30
-0.077254
0
VERTEX
8
0
6
CONTINUOUS
62
252
70
192
10
0.000000
20
-0.228386
30
-0.101684
0
VERTEX
8
0
6
CONTINUOUS
62
252
70
192
10
0.000000
20
-0.216506
30
-0.125000
0
VERTEX
8
0
6
CONTINUOUS
62
252
70
192
10
0.000000
20
-0.202254
30
-0.146946
0
VERTEX
8
0
6
CONTINUOUS
62
252
70
192
10
0.000000
20
-0.185786
30
-0.167283
0
VERTEX
8
0
6
CONTINUOUS
62
252
70
192
10
0.000000
20
-0.167283
30
-0.185786
0
VERTEX
8
0
6
CONTINUOUS
62
252
70
192
10
0.000000
20
-0.146946
30
-0.202254
0
VERTEX
8
0
6
CONTINUOUS
62
252
70
192
10
0.000000
20
-0.125000
30
-0.216506
0
VERTEX
8
0
6
CONTINUOUS
62
252
70
192
10
0.000000
20
-0.101684
30
-0.228386
0
VERTEX
8
0
6
CONTINUOUS
62
252
70
192
10
0.000000
20
-0.077254
30
-0.237764
0
VERTEX
8
0
6
CONTINUOUS
62
252
70
192
10
0.000000
20
-0.051978
30
-0.244537
0
VERTEX
8
0
6
CONTINUOUS
62
252
70
192
10
0.000000
20
-0.026132
30
-0.248630
0
VERTEX
8
0
6
CONTINUOUS
62
252
70
192
10
0.000000
20
-0.000000
30
-0.250000
0
VERTEX
8
0
6
CONTINUOUS
62
252
70
192
10
0.000000
20
0.026132
30
-0.248630
0
VERTEX
8
0
6
CONTINUOUS
62
252
70
192
10
0.000000
20
0.051978
30
-0.244537
0
VERTEX
8
0
6
CONTINUOUS
62
252
70
192
10
0.000000
20
0.077254
30
-0.237764
0
VERTEX
8
0
6
CONTINUOUS
62
252
70
192
10
0.000000
20
0.101684
30
-0.228386
0
VERTEX
8
0
6
CONTINUOUS
62
252
70
192
10
0.000000
20
0.125000
30
-0.216506
0
VERTEX
8
0
6
CONTINUOUS
62
252
70
192
10
0.000000
20
0.146946
30
-0.202254
0
VERTEX
8
0
6
CONTINUOUS
62
252
70
192
10
0.000000
20
0.167283
30
-0.185786
0
VERTEX
8
0
6
CONTINUOUS
62
252
70
192
10
0.000000
20
0.185786
30
-0.167283
0
VERTEX
8
0
6
CONTINUOUS
62
252
70
192
10
0.000000
20
0.202254
30
-0.146946
0
VERTEX
8
0
6
CONTINUOUS
62
252
70
192
10
0.000000
20
0.216506
30
-0.125000
0
VERTEX
8
0
6
CONTINUOUS
62
252
70
192
10
0.000000
20
0.228386
30
-0.101684
0
VERTEX
8
0
6
CONTINUOUS
62
252
70
192
10
0.000000
20
0.237764
30
-0.077254
0
VERTEX
8
0
6
CONTINUOUS
62
252
70
192
10
0.000000
20
0.244537
30
-0.051978
0
VERTEX
8
0
6
CONTINUOUS
62
252
70
192
10
0.000000
20
0.248630
30
-0.026132
0
VERTEX
8
0
6
CONTINUOUS
62
252
70
192
10
0.000000
20
0.250000
30
-0.000000
0
VERTEX
8
0
6
CONTINUOUS
62
252
70
192
10
-0.000000
20
0.248630
30
0.026132
0
VERTEX
8
0
6
CONTINUOUS
62
252
70
192
10
-0.000000
20
0.244537
30
0.051978
0
VERTEX
8
0
6
CONTINUOUS
62
252
70
192
10
-0.000000
20
0.237764
30
0.077254
0
VERTEX
8
0
6
CONTINUOUS
62
252
70
192
10
-0.000000
20
0.228386
30
0.101684
0
VERTEX
8
0
6
CONTINUOUS
62
252
70
192
10
-0.000000
20
0.216506
30
0.125000
0
VERTEX
8
0
6
CONTINUOUS
62
252
70
192
10
-0.000000
20
0.202254
30
0.146946
0
VERTEX
8
0
6
CONTINUOUS
62
252
70
192
10
-0.000000
20
0.185786
30
0.167283
0
VERTEX
8
0
6
CONTINUOUS
62
252
70
192
10
-0.000000
20
0.167283
30
0.185786
0
VERTEX
8
0
6
CONTINUOUS
62
252
70
192
10
-0.000000
20
0.146946
30
0.202254
0
VERTEX
8
0
6
CONTINUOUS
62
252
70
192
10
-0.000000
20
0.125000
30
0.216506
0
VERTEX
8
0
6
CONTINUOUS
62
252
70
192
10
-0.000000
20
0.101684
30
0.228386
0
VERTEX
8
0
6
CONTINUOUS
62
252
70
192
10
-0.000000
20
0.077254
30
0.237764
0
VERTEX
8
0
6
CONTINUOUS
62
252
70
192
10
-0.000000
20
0.051978
30
0.244537
0
VERTEX
8
0
6
CONTINUOUS
62
252
70
192
10
-0.000000
20
0.026132
30
0.248630
0
VERTEX
8
0
6
CONTINUOUS
62
252
70
128
10
0.000000
20
0.000000
30
0.000000
71
2
72
61
73
1
0
VERTEX
8
0
6
CONTINUOUS
62
252
70
128
10
0.000000
20
0.000000
30
0.000000
71
1
72
61
73
62
0
VERTEX
8
0
6
CONTINUOUS
62
252
70
128
10
0.000000
20
0.000000
30
0.000000
71
1
72
62
73
60
0
VERTEX
8
0
6
CONTINUOUS
62
252
70
128
10
0.000000
20
0.000000
30
0.000000
71
60
72
62
73
63
0
VERTEX
8
0
6
CONTINUOUS
62
252
70
128
10
0.000000
20
0.000000
30
0.000000
71
60
72
63
73
59
0
VERTEX
8
0
6
CONTINUOUS
62
252
70
128
10
0.000000
20
0.000000
30
0.000000
71
59
72
63
73
64
0
VERTEX
8
0
6
CONTINUOUS
62
252
70
128
10
0.000000
20
0.000000
30
0.000000
71
59
72
64
73
58
0
VERTEX
8
0
6
CONTINUOUS
62
252
70
128
10
0.000000
20
0.000000
30
0.000000
71
58
72
64
73
65
0
VERTEX
8
0
6
CONTINUOUS
62
252
70
128
10
0.000000
20
0.000000
30
0.000000
71
58
72
65
73
57
0
VERTEX
8
0
6
CONTINUOUS
62
252
70
128
10
0.000000
20
0.000000
30
0.000000
71
57
72
65
73
66
0
VERTEX
8
0
6
CONTINUOUS
62
252
70
128
10
0.000000
20
0.000000
30
0.000000
71
57
72
66
73
56
0
VERTEX
8
0
6
CONTINUOUS
62
252
70
128
10
0.000000
20
0.000000
30
0.000000
71
56
72
66
73
67
0
VERTEX
8
0
6
CONTINUOUS
62
252
70
128
10
0.000000
20
0.000000
30
0.000000
71
56
72
67
73
55
0
VERTEX
8
0
6
CONTINUOUS
62
252
70
128
10
0.000000
20
0.000000
30
0.000000
71
55
72
67
73
68
0
VERTEX
8
0
6
CONTINUOUS
62
252
70
128
10
0.000000
20
0.000000
30
0.000000
71
55
72
68
73
54
0
VERTEX
8
0
6
CONTINUOUS
62
252
70
128
10
0.000000
20
0.000000
30
0.000000
71
54
72
68
73
69
0
VERTEX
8
0
6
CONTINUOUS
62
252
70
128
10
0.000000
20
0.000000
30
0.000000
71
54
72
69
73
53
0
VERTEX
8
0
6
CONTINUOUS
62
252
70
128
10
0.000000
20
0.000000
30
0.000000
71
53
72
69
73
70
0
VERTEX
8
0
6
CONTINUOUS
62
252
70
128
10
0.000000
20
0.000000
30
0.000000
71
53
72
70
73
52
0
VERTEX
8
0
6
CONTINUOUS
62
252
70
128
10
0.000000
20
0.000000
30
0.000000
71
52
72
70
73
71
0
VERTEX
8
0
6
CONTINUOUS
62
252
70
128
10
0.000000
20
0.000000
30
0.000000
71
52
72
71
73
51
0
VERTEX
8
0
6
CONTINUOUS
62
252
70
128
10
0.000000
20
0.000000
30
0.000000
71
51
72
71
73
72
0
VERTEX
8
0
6
CONTINUOUS
62
252
70
128
10
0.000000
20
0.000000
30
0.000000
71
51
72
72
73
50
0
VERTEX
8
0
6
CONTINUOUS
62
252
70
128
10
0.000000
20
0.000000
30
0.000000
71
50
72
72
73
73
0
VERTEX
8
0
6
CONTINUOUS
62
252
70
128
10
0.000000
20
0.000000
30
0.000000
71
50
72
73
73
49
0
VERTEX
8
0
6
CONTINUOUS
62
252
70
128
10
0.000000
20
0.000000
30
0.000000
71
49
72
73
73
74
0
VERTEX
8
0
6
CONTINUOUS
62
252
70
128
10
0.000000
20
0.000000
30
0.000000
71
49
72
74
73
48
0
VERTEX
8
0
6
CONTINUOUS
62
252
70
128
10
0.000000
20
0.000000
30
0.000000
71
48
72
74
73
75
0
VERTEX
8
0
6
CONTINUOUS
62
252
70
128
10
0.000000
20
0.000000
30
0.000000
71
48
72
75
73
47
0
VERTEX
8
0
6
CONTINUOUS
62
252
70
128
10
0.000000
20
0.000000
30
0.000000
71
47
72
75
73
76
0
VERTEX
8
0
6
CONTINUOUS
62
252
70
128
10
0.000000
20
0.000000
30
0.000000
71
47
72
76
73
46
0
VERTEX
8
0
6
CONTINUOUS
62
252
70
128
10
0.000000
20
0.000000
30
0.000000
71
46
72
76
73
77
0
VERTEX
8
0
6
CONTINUOUS
62
252
70
128
10
0.000000
20
0.000000
30
0.000000
71
46
72
77
73
45
0
VERTEX
8
0
6
CONTINUOUS
62
252
70
128
10
0.000000
20
0.000000
30
0.000000
71
45
72
77
73
78
0
VERTEX
8
0
6
CONTINUOUS
62
252
70
128
10
0.000000
20
0.000000
30
0.000000
71
45
72
78
73
44
0
VERTEX
8
0
6
CONTINUOUS
62
252
70
128
10
0.000000
20
0.000000
30
0.000000
71
44
72
78
73
79
0
VERTEX
8
0
6
CONTINUOUS
62
252
70
128
10
0.000000
20
0.000000
30
0.000000
71
44
72
79
73
43
0
VERTEX
8
0
6
CONTINUOUS
62
252
70
128
10
0.000000
20
0.000000
30
0.000000
71
43
72
79
73
80
0
VERTEX
8
0
6
CONTINUOUS
62
252
70
128
10
0.000000
20
0.000000
30
0.000000
71
43
72
80
73
42
0
VERTEX
8
0
6
CONTINUOUS
62
252
70
128
10
0.000000
20
0.000000
30
0.000000
71
42
72
80
73
81
0
VERTEX
8
0
6
CONTINUOUS
62
252
70
128
10
0.000000
20
0.000000
30
0.000000
71
42
72
81
73
41
0
VERTEX
8
0
6
CONTINUOUS
62
252
70
128
10
0.000000
20
0.000000
30
0.000000
71
41
72
81
73
82
0
VERTEX
8
0
6
CONTINUOUS
62
252
70
128
10
0.000000
20
0.000000
30
0.000000
71
41
72
82
73
40
0
VERTEX
8
0
6
CONTINUOUS
62
252
70
128
10
0.000000
20
0.000000
30
0.000000
71
40
72
82
73
83
0
VERTEX
8
0
6
CONTINUOUS
62
252
70
128
10
0.000000
20
0.000000
30
0.000000
71
40
72
83
73
39
0
VERTEX
8
0
6
CONTINUOUS
62
252
70
128
10
0.000000
20
0.000000
30
0.000000
71
39
72
83
73
84
0
VERTEX
8
0
6
CONTINUOUS
62
252
70
128
10
0.000000
20
0.000000
30
0.000000
71
39
72
84
73
38
0
VERTEX
8
0
6
CONTINUOUS
62
252
70
128
10
0.000000
20
0.000000
30
0.000000
71
38
72
84
73
85
0
VERTEX
8
0
6
CONTINUOUS
62
252
70
128
10
0.000000
20
0.000000
30
0.000000
71
38
72
85
73
37
0
VERTEX
8
0
6
CONTINUOUS
62
252
70
128
10
0.000000
20
0.000000
30
0.000000
71
37
72
85
73
86
0
VERTEX
8
0
6
CONTINUOUS
62
252
70
128
10
0.000000
20
0.000000
30
0.000000
71
37
72
86
73
36
0
VERTEX
8
0
6
CONTINUOUS
62
252
70
128
10
0.000000
20
0.000000
30
0.000000
71
36
72
86
73
87
0
VERTEX
8
0
6
CONTINUOUS
62
252
70
128
10
0.000000
20
0.000000
30
0.000000
71
36
72
87
73
35
0
VERTEX
8
0
6
CONTINUOUS
62
252
70
128
10
0.000000
20
0.000000
30
0.000000
71
35
72
87
73
88
0
VERTEX
8
0
6
CONTINUOUS
62
252
70
128
10
0.000000
20
0.000000
30
0.000000
71
35
72
88
73
34
0
VERTEX
8
0
6
CONTINUOUS
62
252
70
128
10
0.000000
20
0.000000
30
0.000000
71
34
72
88
73
89
0
VERTEX
8
0
6
CONTINUOUS
62
252
70
128
10
0.000000
20
0.000000
30
0.000000
71
34
72
89
73
33
0
VERTEX
8
0
6
CONTINUOUS
62
252
70
128
10
0.000000
20
0.000000
30
0.000000
71
33
72
89
73
90
0
VERTEX
8
0
6
CONTINUOUS
62
252
70
128
10
0.000000
20
0.000000
30
0.000000
71
33
72
90
73
32
0
VERTEX
8
0
6
CONTINUOUS
62
252
70
128
10
0.000000
20
0.000000
30
0.000000
71
32
72
90
73
91
0
VERTEX
8
0
6
CONTINUOUS
62
252
70
128
10
0.000000
20
0.000000
30
0.000000
71
32
72
91
73
31
0
VERTEX
8
0
6
CONTINUOUS
62
252
70
128
10
0.000000
20
0.000000
30
0.000000
71
31
72
91
73
92
0
VERTEX
8
0
6
CONTINUOUS
62
252
70
128
10
0.000000
20
0.000000
30
0.000000
71
31
72
92
73
30
0
VERTEX
8
0
6
CONTINUOUS
62
252
70
128
10
0.000000
20
0.000000
30
0.000000
71
30
72
92
73
93
0
VERTEX
8
0
6
CONTINUOUS
62
252
70
128
10
0.000000
20
0.000000
30
0.000000
71
30
72
93
73
29
0
VERTEX
8
0
6
CONTINUOUS
62
252
70
128
10
0.000000
20
0.000000
30
0.000000
71
29
72
93
73
94
0
VERTEX
8
0
6
CONTINUOUS
62
252
70
128
10
0.000000
20
0.000000
30
0.000000
71
29
72
94
73
28
0
VERTEX
8
0
6
CONTINUOUS
62
252
70
128
10
0.000000
20
0.000000
30
0.000000
71
28
72
94
73
95
0
VERTEX
8
0
6
CONTINUOUS
62
252
70
128
10
0.000000
20
0.000000
30
0.000000
71
28
72
95
73
27
0
VERTEX
8
0
6
CONTINUOUS
62
252
70
128
10
0.000000
20
0.000000
30
0.000000
71
27
72
95
73
96
0
VERTEX
8
0
6
CONTINUOUS
62
252
70
128
10
0.000000
20
0.000000
30
0.000000
71
27
72
96
73
26
0
VERTEX
8
0
6
CONTINUOUS
62
252
70
128
10
0.000000
20
0.000000
30
0.000000
71
26
72
96
73
97
0
VERTEX
8
0
6
CONTINUOUS
62
252
70
128
10
0.000000
20
0.000000
30
0.000000
71
26
72
97
73
25
0
VERTEX
8
0
6
CONTINUOUS
62
252
70
128
10
0.000000
20
0.000000
30
0.000000
71
25
72
97
73
24
0
VERTEX
8
0
6
CONTINUOUS
62
252
70
128
10
0.000000
20
0.000000
30
0.000000
71
24
72
97
73
98
0
VERTEX
8
0
6
CONTINUOUS
62
252
70
128
10
0.000000
20
0.000000
30
0.000000
71
24
72
98
73
99
0
VERTEX
8
0
6
CONTINUOUS
62
252
70
128
10
0.000000
20
0.000000
30
0.000000
71
3
72
119
73
2
0
VERTEX
8
0
6
CONTINUOUS
62
252
70
128
10
0.000000
20
0.000000
30
0.000000
71
2
72
119
73
120
0
VERTEX
8
0
6
CONTINUOUS
62
252
70
128
10
0.000000
20
0.000000
30
0.000000
71
2
72
120
73
61
0
VERTEX
8
0
6
CONTINUOUS
62
252
70
128
10
0.000000
20
0.000000
30
0.000000
71
119
72
3
73
118
0
VERTEX
8
0
6
CONTINUOUS
62
252
70
128
10
0.000000
20
0.000000
30
0.000000
71
118
72
3
73
4
0
VERTEX
8
0
6
CONTINUOUS
62
252
70
128
10
0.000000
20
0.000000
30
0.000000
71
118
72
4
73
117
0
VERTEX
8
0
6
CONTINUOUS
62
252
70
128
10
0.000000
20
0.000000
30
0.000000
71
117
72
4
73
5
0
VERTEX
8
0
6
CONTINUOUS
62
252
70
128
10
0.000000
20
0.000000
30
0.000000
71
117
72
5
73
116
0
VERTEX
8
0
6
CONTINUOUS
62
252
70
128
10
0.000000
20
0.000000
30
0.000000
71
116
72
5
73
6
0
VERTEX
8
0
6
CONTINUOUS
62
252
70
128
10
0.000000
20
0.000000
30
0.000000
71
116
72
6
73
115
0
VERTEX
8
0
6
CONTINUOUS
62
252
70
128
10
0.000000
20
0.000000
30
0.000000
71
115
72
6
73
7
0
VERTEX
8
0
6
CONTINUOUS
62
252
70
128
10
0.000000
20
0.000000
30
0.000000
71
115
72
7
73
114
0
VERTEX
8
0
6
CONTINUOUS
62
252
70
128
10
0.000000
20
0.000000
30
0.000000
71
114
72
7
73
8
0
VERTEX
8
0
6
CONTINUOUS
62
252
70
128
10
0.000000
20
0.000000
30
0.000000
71
114
72
8
73
113
0
VERTEX
8
0
6
CONTINUOUS
62
252
70
128
10
0.000000
20
0.000000
30
0.000000
71
113
72
8
73
9
0
VERTEX
8
0
6
CONTINUOUS
62
252
70
128
10
0.000000
20
0.000000
30
0.000000
71
113
72
9
73
112
0
VERTEX
8
0
6
CONTINUOUS
62
252
70
128
10
0.000000
20
0.000000
30
0.000000
71
112
72
9
73
10
0
VERTEX
8
0
6
CONTINUOUS
62
252
70
128
10
0.000000
20
0.000000
30
0.000000
71
112
72
10
73
111
0
VERTEX
8
0
6
CONTINUOUS
62
252
70
128
10
0.000000
20
0.000000
30
0.000000
71
111
72
10
73
11
0
VERTEX
8
0
6
CONTINUOUS
62
252
70
128
10
0.000000
20
0.000000
30
0.000000
71
111
72
11
73
110
0
VERTEX
8
0
6
CONTINUOUS
62
252
70
128
10
0.000000
20
0.000000
30
0.000000
71
110
72
11
73
12
0
VERTEX
8
0
6
CONTINUOUS
62
252
70
128
10
0.000000
20
0.000000
30
0.000000
71
110
72
12
73
109
0
VERTEX
8
0
6
CONTINUOUS
62
252
70
128
10
0.000000
20
0.000000
30
0.000000
71
109
72
12
73
13
0
VERTEX
8
0
6
CONTINUOUS
62
252
70
128
10
0.000000
20
0.000000
30
0.000000
71
109
72
13
73
108
0
VERTEX
8
0
6
CONTINUOUS
62
252
70
128
10
0.000000
20
0.000000
30
0.000000
71
108
72
13
73
14
0
VERTEX
8
0
6
CONTINUOUS
62
252
70
128
10
0.000000
20
0.000000
30
0.000000
71
108
72
14
73
107
0
VERTEX
8
0
6
CONTINUOUS
62
252
70
128
10
0.000000
20
0.000000
30
0.000000
71
107
72
14
73
15
0
VERTEX
8
0
6
CONTINUOUS
62
252
70
128
10
0.000000
20
0.000000
30
0.000000
71
107
72
15
73
106
0
VERTEX
8
0
6
CONTINUOUS
62
252
70
128
10
0.000000
20
0.000000
30
0.000000
71
106
72
15
73
16
0
VERTEX
8
0
6
CONTINUOUS
62
252
70
128
10
0.000000
20
0.000000
30
0.000000
71
106
72
16
73
105
0
VERTEX
8
0
6
CONTINUOUS
62
252
70
128
10
0.000000
20
0.000000
30
0.000000
71
105
72
16
73
17
0
VERTEX
8
0
6
CONTINUOUS
62
252
70
128
10
0.000000
20
0.000000
30
0.000000
71
105
72
17
73
104
0
VERTEX
8
0
6
CONTINUOUS
62
252
70
128
10
0.000000
20
0.000000
30
0.000000
71
104
72
17
73
18
0
VERTEX
8
0
6
CONTINUOUS
62
252
70
128
10
0.000000
20
0.000000
30
0.000000
71
104
72
18
73
103
0
VERTEX
8
0
6
CONTINUOUS
62
252
70
128
10
0.000000
20
0.000000
30
0.000000
71
103
72
18
73
19
0
VERTEX
8
0
6
CONTINUOUS
62
252
70
128
10
0.000000
20
0.000000
30
0.000000
71
103
72
19
73
102
0
VERTEX
8
0
6
CONTINUOUS
62
252
70
128
10
0.000000
20
0.000000
30
0.000000
71
102
72
19
73
20
0
VERTEX
8
0
6
CONTINUOUS
62
252
70
128
10
0.000000
20
0.000000
30
0.000000
71
102
72
20
73
101
0
VERTEX
8
0
6
CONTINUOUS
62
252
70
128
10
0.000000
20
0.000000
30
0.000000
71
101
72
20
73
21
0
VERTEX
8
0
6
CONTINUOUS
62
252
70
128
10
0.000000
20
0.000000
30
0.000000
71
101
72
21
73
22
0
VERTEX
8
0
6
CONTINUOUS
62
252
70
128
10
0.000000
20
0.000000
30
0.000000
71
101
72
22
73
100
0
VERTEX
8
0
6
CONTINUOUS
62
252
70
128
10
0.000000
20
0.000000
30
0.000000
71
100
72
22
73
23
0
VERTEX
8
0
6
CONTINUOUS
62
252
70
128
10
0.000000
20
0.000000
30
0.000000
71
100
72
23
73
99
0
VERTEX
8
0
6
CONTINUOUS
62
252
70
128
10
0.000000
20
0.000000
30
0.000000
71
99
72
23
73
24
0
SEQEND
0
POLYLINE
66
1
8
0
6
CONTINUOUS
62
252
70
64
75
0
10
0.000000
20
0.000000
30
0.000000
0
VERTEX
8
0
6
CONTINUOUS
62
252
70
192
10
1.645560
20
0.000000
30
-0.223595
0
VERTEX
8
0
6
CONTINUOUS
62
252
70
192
10
1.645560
20
0.023372
30
-0.222370
0
VERTEX
8
0
6
CONTINUOUS
62
252
70
192
10
1.645560
20
0.046488
30
-0.218709
0
VERTEX
8
0
6
CONTINUOUS
62
252
70
192
10
1.645560
20
0.069095
30
-0.212651
0
VERTEX
8
0
6
CONTINUOUS
62
252
70
192
10
1.645560
20
0.090944
30
-0.204264
0
VERTEX
8
0
6
CONTINUOUS
62
252
70
192
10
1.645560
20
0.111798
30
-0.193639
0
VERTEX
8
0
6
CONTINUOUS
62
252
70
192
10
1.645560
20
0.131426
30
-0.180892
0
VERTEX
8
0
6
CONTINUOUS
62
252
70
192
10
1.645560
20
0.149614
30
-0.166163
0
VERTEX
8
0
6
CONTINUOUS
62
252
70
192
10
1.645560
20
0.166163
30
-0.149614
0
VERTEX
8
0
6
CONTINUOUS
62
252
70
192
10
1.645560
20
0.180892
30
-0.131426
0
VERTEX
8
0
6
CONTINUOUS
62
252
70
192
10
1.645560
20
0.193639
30
-0.111798
0
VERTEX
8
0
6
CONTINUOUS
62
252
70
192
10
1.645560
20
0.204264
30
-0.090944
0
VERTEX
8
0
6
CONTINUOUS
62
252
70
192
10
1.645560
20
0.212651
30
-0.069095
0
VERTEX
8
0
6
CONTINUOUS
62
252
70
192
10
1.645560
20
0.218709
30
-0.046488
0
VERTEX
8
0
6
CONTINUOUS
62
252
70
192
10
1.645560
20
0.222370
30
-0.023372
0
VERTEX
8
0
6
CONTINUOUS
62
252
70
192
10
1.645560
20
0.223595
30
-0.000000
0
VERTEX
8
0
6
CONTINUOUS
62
252
70
192
10
1.645560
20
0.222370
30
0.023372
0
VERTEX
8
0
6
CONTINUOUS
62
252
70
192
10
1.645560
20
0.218709
30
0.046488
0
VERTEX
8
0
6
CONTINUOUS
62
252
70
192
10
1.645560
20
0.212651
30
0.069095
0
VERTEX
8
0
6
CONTINUOUS
62
252
70
192
10
1.645560
20
0.204264
30
0.090944
0
VERTEX
8
0
6
CONTINUOUS
62
252
70
192
10
1.645560
20
0.193639
30
0.111797
0
VERTEX
8
0
6
CONTINUOUS
62
252
70
192
10
1.645560
20
0.180892
30
0.131426
0
VERTEX
8
0
6
CONTINUOUS
62
252
70
192
10
1.645560
20
0.166163
30
0.149614
0
VERTEX
8
0
6
CONTINUOUS
62
252
70
192
10
1.645560
20
0.149614
30
0.166163
0
VERTEX
8
0
6
CONTINUOUS
62
252
70
192
10
1.645560
20
0.131426
30
0.180892
0
VERTEX
8
0
6
CONTINUOUS
62
252
70
192
10
1.645560
20
0.111798
30
0.193639
0
VERTEX
8
0
6
CONTINUOUS
62
252
70
192
10
1.645560
20
0.090944
30
0.204264
0
VERTEX
8
0
6
CONTINUOUS
62
252
70
192
10
1.645560
20
0.069095
30
0.212651
0
VERTEX
8
0
6
CONTINUOUS
62
252
70
192
10
1.645560
20
0.046488
30
0.218709
0
VERTEX
8
0
6
CONTINUOUS
62
252
70
192
10
1.645560
20
0.023372
30
0.222370
0
VERTEX
8
0
6
CONTINUOUS
62
252
70
192
10
1.645560
20
0.000000
30
0.223595
0
VERTEX
8
0
6
CONTINUOUS
62
252
70
192
10
1.645560
20
-0.023372
30
0.222370
0
VERTEX
8
0
6
CONTINUOUS
62
252
70
192
10
1.645560
20
-0.046488
30
0.218709
0
VERTEX
8
0
6
CONTINUOUS
62
252
70
192
10
1.645560
20
-0.069095
30
0.212651
0
VERTEX
8
0
6
CONTINUOUS
62
252
70
192
10
1.645560
20
-0.090944
30
0.204264
0
VERTEX
8
0
6
CONTINUOUS
62
252
70
192
10
1.645560
20
-0.111797
30
0.193639
0
VERTEX
8
0
6
CONTINUOUS
62
252
70
192
10
1.645560
20
-0.131426
30
0.180892
0
VERTEX
8
0
6
CONTINUOUS
62
252
70
192
10
1.645560
20
-0.149614
30
0.166163
0
VERTEX
8
0
6
CONTINUOUS
62
252
70
192
10
1.645560
20
-0.166163
30
0.149614
0
VERTEX
8
0
6
CONTINUOUS
62
252
70
192
10
1.645560
20
-0.180892
30
0.131426
0
VERTEX
8
0
6
CONTINUOUS
62
252
70
192
10
1.645560
20
-0.193639
30
0.111798
0
VERTEX
8
0
6
CONTINUOUS
62
252
70
192
10
1.645560
20
-0.204264
30
0.090944
0
VERTEX
8
0
6
CONTINUOUS
62
252
70
192
10
1.645560
20
-0.212651
30
0.069095
0
VERTEX
8
0
6
CONTINUOUS
62
252
70
192
10
1.645560
20
-0.218709
30
0.046488
0
VERTEX
8
0
6
CONTINUOUS
62
252
70
192
10
1.645560
20
-0.222370
30
0.023372
0
VERTEX
8
0
6
CONTINUOUS
62
252
70
192
10
1.645560
20
-0.223595
30
0.000000
0
VERTEX
8
0
6
CONTINUOUS
62
252
70
192
10
1.645560
20
-0.222370
30
-0.023372
0
VERTEX
8
0
6
CONTINUOUS
62
252
70
192
10
1.645560
20
-0.218709
30
-0.046488
0
VERTEX
8
0
6
CONTINUOUS
62
252
70
192
10
1.645560
20
-0.212651
30
-0.069095
0
VERTEX
8
0
6
CONTINUOUS
62
252
70
192
10
1.645560
20
-0.204264
30
-0.090944
0
VERTEX
8
0
6
CONTINUOUS
62
252
70
192
10
1.645560
20
-0.193639
30
-0.111797
0
VERTEX
8
0
6
CONTINUOUS
62
252
70
192
10
1.645560
20
-0.180892
30
-0.131426
0
VERTEX
8
0
6
CONTINUOUS
62
252
70
192
10
1.645560
20
-0.166163
30
-0.149614
0
VERTEX
8
0
6
CONTINUOUS
62
252
70
192
10
1.645560
20
-0.149614
30
-0.166163
0
VERTEX
8
0
6
CONTINUOUS
62
252
70
192
10
1.645560
20
-0.131426
30
-0.180892
0
VERTEX
8
0
6
CONTINUOUS
62
252
70
192
10
1.645560
20
-0.111798
30
-0.193639
0
VERTEX
8
0
6
CONTINUOUS
62
252
70
192
10
1.645560
20
-0.090944
30
-0.204264
0
VERTEX
8
0
6
CONTINUOUS
62
252
70
192
10
1.645560
20
-0.069095
30
-0.212651
0
VERTEX
8
0
6
CONTINUOUS
62
252
70
192
10
1.645560
20
-0.046488
30
-0.218709
0
VERTEX
8
0
6
CONTINUOUS
62
252
70
192
10
1.645560
20
-0.023372
30
-0.222370
0
VERTEX
8
0
6
CONTINUOUS
62
252
70
192
10
1.295500
20
0.000000
30
-0.214612
0
VERTEX
8
0
6
CONTINUOUS
62
252
70
192
10
1.295500
20
-0.022433
30
-0.213436
0
VERTEX
8
0
6
CONTINUOUS
62
252
70
192
10
1.295500
20
-0.044620
30
-0.209922
0
VERTEX
8
0
6
CONTINUOUS
62
252
70
192
10
1.295500
20
-0.066319
30
-0.204108
0
VERTEX
8
0
6
CONTINUOUS
62
252
70
192
10
1.295500
20
-0.087290
30
-0.196058
0
VERTEX
8
0
6
CONTINUOUS
62
252
70
192
10
1.295500
20
-0.107306
30
-0.185859
0
VERTEX
8
0
6
CONTINUOUS
62
252
70
192
10
1.295500
20
-0.126146
30
-0.173625
0
VERTEX
8
0
6
CONTINUOUS
62
252
70
192
10
1.295500
20
-0.143603
30
-0.159488
0
VERTEX
8
0
6
CONTINUOUS
62
252
70
192
10
1.295500
20
-0.159488
30
-0.143603
0
VERTEX
8
0
6
CONTINUOUS
62
252
70
192
10
1.295500
20
-0.173625
30
-0.126146
0
VERTEX
8
0
6
CONTINUOUS
62
252
70
192
10
1.295500
20
-0.185859
30
-0.107306
0
VERTEX
8
0
6
CONTINUOUS
62
252
70
192
10
1.295500
20
-0.196058
30
-0.087290
0
VERTEX
8
0
6
CONTINUOUS
62
252
70
192
10
1.295500
20
-0.204108
30
-0.066319
0
VERTEX
8
0
6
CONTINUOUS
62
252
70
192
10
1.295500
20
-0.209922
30
-0.044620
0
VERTEX
8
0
6
CONTINUOUS
62
252
70
192
10
1.295500
20
-0.213436
30
-0.022433
0
VERTEX
8
0
6
CONTINUOUS
62
252
70
192
10
1.295500
20
-0.214612
30
0.000000
0
VERTEX
8
0
6
CONTINUOUS
62
252
70
192
10
1.295500
20
-0.213436
30
0.022433
0
VERTEX
8
0
6
CONTINUOUS
62
252
70
192
10
1.295500
20
-0.209922
30
0.044620
0
VERTEX
8
0
6
CONTINUOUS
62
252
70
192
10
1.295500
20
-0.204108
30
0.066319
0
VERTEX
8
0
6
CONTINUOUS
62
252
70
192
10
1.295500
20
-0.196058
30
0.087290
0
VERTEX
8
0
6
CONTINUOUS
62
252
70
192
10
1.295500
20
-0.185859
30
0.107306
0
VERTEX
8
0
6
CONTINUOUS
62
252
70
192
10
1.295500
20
-0.173625
30
0.126146
0
VERTEX
8
0
6
CONTINUOUS
62
252
70
192
10
1.295500
20
-0.159488
30
0.143603
0
VERTEX
8
0
6
CONTINUOUS
62
252
70
192
10
1.295500
20
-0.143603
30
0.159488
0
VERTEX
8
0
6
CONTINUOUS
62
252
70
192
10
1.295500
20
-0.126146
30
0.173625
0
VERTEX
8
0
6
CONTINUOUS
62
252
70
192
10
1.295500
20
-0.107306
30
0.185859
0
VERTEX
8
0
6
CONTINUOUS
62
252
70
192
10
1.295500
20
-0.087290
30
0.196058
0
VERTEX
8
0
6
CONTINUOUS
62
252
70
192
10
1.295500
20
-0.066319
30
0.204108
0
VERTEX
8
0
6
CONTINUOUS
62
252
70
192
10
1.295500
20
-0.044620
30
0.209922
0
VERTEX
8
0
6
CONTINUOUS
62
252
70
192
10
1.295500
20
-0.022433
30
0.213436
0
VERTEX
8
0
6
CONTINUOUS
62
252
70
192
10
1.295500
20
0.000000
30
0.214612
0
VERTEX
8
0
6
CONTINUOUS
62
252
70
192
10
1.295500
20
0.022433
30
0.213436
0
VERTEX
8
0
6
CONTINUOUS
62
252
70
192
10
1.295500
20
0.044620
30
0.209922
0
VERTEX
8
0
6
CONTINUOUS
62
252
70
192
10
1.295500
20
0.066319
30
0.204108
0
VERTEX
8
0
6
CONTINUOUS
62
252
70
192
10
1.295500
20
0.087290
30
0.196058
0
VERTEX
8
0
6
CONTINUOUS
62
252
70
192
10
1.295500
20
0.107306
30
0.185859
0
VERTEX
8
0
6
CONTINUOUS
62
252
70
192
10
1.295500
20
0.126146
30
0.173625
0
VERTEX
8
0
6
CONTINUOUS
62
252
70
192
10
1.295500
20
0.143603
30
0.159488
0
VERTEX
8
0
6
CONTINUOUS
62
252
70
192
10
1.295500
20
0.159488
30
0.143603
0
VERTEX
8
0
6
CONTINUOUS
62
252
70
192
10
1.295500
20
0.173625
30
0.126146
0
VERTEX
8
0
6
CONTINUOUS
62
252
70
192
10
1.295500
20
0.185859
30
0.107306
0
VERTEX
8
0
6
CONTINUOUS
62
252
70
192
10
1.295500
20
0.196058
30
0.087290
0
VERTEX
8
0
6
CONTINUOUS
62
252
70
192
10
1.295500
20
0.204108
30
0.066319
0
VERTEX
8
0
6
CONTINUOUS
62
252
70
192
10
1.295500
20
0.209922
30
0.044620
0
VERTEX
8
0
6
CONTINUOUS
62
252
70
192
10
1.295500
20
0.213436
30
0.022433
0
VERTEX
8
0
6
CONTINUOUS
62
252
70
192
10
1.295500
20
0.214612
30
-0.000000
0
VERTEX
8
0
6
CONTINUOUS
62
252
70
192
10
1.295500
20
0.213436
30
-0.022433
0
VERTEX
8
0
6
CONTINUOUS
62
252
70
192
10
1.295500
20
0.209922
30
-0.044620
0
VERTEX
8
0
6
CONTINUOUS
62
252
70
192
10
1.295500
20
0.204108
30
-0.066319
0
VERTEX
8
0
6
CONTINUOUS
62
252
70
192
10
1.295500
20
0.196058
30
-0.087290
0
VERTEX
8
0
6
CONTINUOUS
62
252
70
192
10
1.295500
20
0.185859
30
-0.107306
0
VERTEX
8
0
6
CONTINUOUS
62
252
70
192
10
1.295500
20
0.173625
30
-0.126146
0
VERTEX
8
0
6
CONTINUOUS
62
252
70
192
10
1.295500
20
0.159488
30
-0.143603
0
VERTEX
8
0
6
CONTINUOUS
62
252
70
192
10
1.295500
20
0.143603
30
-0.159488
0
VERTEX
8
0
6
CONTINUOUS
62
252
70
192
10
1.295500
20
0.126146
30
-0.173625
0
VERTEX
8
0
6
CONTINUOUS
62
252
70
192
10
1.295500
20
0.107306
30
-0.185859
0
VERTEX
8
0
6
CONTINUOUS
62
252
70
192
10
1.295500
20
0.087290
30
-0.196058
0
VERTEX
8
0
6
CONTINUOUS
62
252
70
192
10
1.295500
20
0.066319
30
-0.204108
0
VERTEX
8
0
6
CONTINUOUS
62
252
70
192
10
1.295500
20
0.044620
30
-0.209922
0
VERTEX
8
0
6
CONTINUOUS
62
252
70
192
10
1.295500
20
0.022433
30
-0.213436
0
VERTEX
8
0
6
CONTINUOUS
62
252
70
128
10
0.000000
20
0.000000
30
0.000000
71
2
72
120
73
1
0
VERTEX
8
0
6
CONTINUOUS
62
252
70
128
10
0.000000
20
0.000000
30
0.000000
71
1
72
120
73
61
0
VERTEX
8
0
6
CONTINUOUS
62
252
70
128
10
0.000000
20
0.000000
30
0.000000
71
1
72
61
73
60
0
VERTEX
8
0
6
CONTINUOUS
62
252
70
128
10
0.000000
20
0.000000
30
0.000000
71
60
72
61
73
62
0
VERTEX
8
0
6
CONTINUOUS
62
252
70
128
10
0.000000
20
0.000000
30
0.000000
71
60
72
62
73
59
0
VERTEX
8
0
6
CONTINUOUS
62
252
70
128
10
0.000000
20
0.000000
30
0.000000
71
59
72
62
73
63
0
VERTEX
8
0
6
CONTINUOUS
62
252
70
128
10
0.000000
20
0.000000
30
0.000000
71
59
72
63
73
58
0
VERTEX
8
0
6
CONTINUOUS
62
252
70
128
10
0.000000
20
0.000000
30
0.000000
71
58
72
63
73
64
0
VERTEX
8
0
6
CONTINUOUS
62
252
70
128
10
0.000000
20
0.000000
30
0.000000
71
58
72
64
73
57
0
VERTEX
8
0
6
CONTINUOUS
62
252
70
128
10
0.000000
20
0.000000
30
0.000000
71
57
72
64
73
65
0
VERTEX
8
0
6
CONTINUOUS
62
252
70
128
10
0.000000
20
0.000000
30
0.000000
71
57
72
65
73
56
0
VERTEX
8
0
6
CONTINUOUS
62
252
70
128
10
0.000000
20
0.000000
30
0.000000
71
56
72
65
73
66
0
VERTEX
8
0
6
CONTINUOUS
62
252
70
128
10
0.000000
20
0.000000
30
0.000000
71
56
72
66
73
55
0
VERTEX
8
0
6
CONTINUOUS
62
252
70
128
10
0.000000
20
0.000000
30
0.000000
71
55
72
66
73
67
0
VERTEX
8
0
6
CONTINUOUS
62
252
70
128
10
0.000000
20
0.000000
30
0.000000
71
55
72
67
73
54
0
VERTEX
8
0
6
CONTINUOUS
62
252
70
128
10
0.000000
20
0.000000
30
0.000000
71
54
72
67
73
68
0
VERTEX
8
0
6
CONTINUOUS
62
252
70
128
10
0.000000
20
0.000000
30
0.000000
71
54
72
68
73
69
0
VERTEX
8
0
6
CONTINUOUS
62
252
70
128
10
0.000000
20
0.000000
30
0.000000
71
120
72
2
73
119
0
VERTEX
8
0
6
CONTINUOUS
62
252
70
128
10
0.000000
20
0.000000
30
0.000000
71
119
72
2
73
3
0
VERTEX
8
0
6
CONTINUOUS
62
252
70
128
10
0.000000
20
0.000000
30
0.000000
71
119
72
3
73
118
0
VERTEX
8
0
6
CONTINUOUS
62
252
70
128
10
0.000000
20
0.000000
30
0.000000
71
118
72
3
73
4
0
VERTEX
8
0
6
CONTINUOUS
62
252
70
128
10
0.000000
20
0.000000
30
0.000000
71
118
72
4
73
117
0
VERTEX
8
0
6
CONTINUOUS
62
252
70
128
10
0.000000
20
0.000000
30
0.000000
71
117
72
4
73
5
0
VERTEX
8
0
6
CONTINUOUS
62
252
70
128
10
0.000000
20
0.000000
30
0.000000
71
117
72
5
73
116
0
VERTEX
8
0
6
CONTINUOUS
62
252
70
128
10
0.000000
20
0.000000
30
0.000000
71
116
72
5
73
6
0
VERTEX
8
0
6
CONTINUOUS
62
252
70
128
10
0.000000
20
0.000000
30
0.000000
71
116
72
6
73
7
0
VERTEX
8
0
6
CONTINUOUS
62
252
70
128
10
0.000000
20
0.000000
30
0.000000
71
116
72
7
73
115
0
VERTEX
8
0
6
CONTINUOUS
62
252
70
128
10
0.000000
20
0.000000
30
0.000000
71
115
72
7
73
8
0
VERTEX
8
0
6
CONTINUOUS
62
252
70
128
10
0.000000
20
0.000000
30
0.000000
71
115
72
8
73
114
0
VERTEX
8
0
6
CONTINUOUS
62
252
70
128
10
0.000000
20
0.000000
30
0.000000
71
114
72
8
73
9
0
VERTEX
8
0
6
CONTINUOUS
62
252
70
128
10
0.000000
20
0.000000
30
0.000000
71
114
72
9
73
113
0
VERTEX
8
0
6
CONTINUOUS
62
252
70
128
10
0.000000
20
0.000000
30
0.000000
71
113
72
9
73
10
0
VERTEX
8
0
6
CONTINUOUS
62
252
70
128
10
0.000000
20
0.000000
30
0.000000
71
113
72
10
73
112
0
VERTEX
8
0
6
CONTINUOUS
62
252
70
128
10
0.000000
20
0.000000
30
0.000000
71
112
72
10
73
111
0
VERTEX
8
0
6
CONTINUOUS
62
252
70
128
10
0.000000
20
0.000000
30
0.000000
71
111
72
10
73
11
0
VERTEX
8
0
6
CONTINUOUS
62
252
70
128
10
0.000000
20
0.000000
30
0.000000
71
111
72
11
73
110
0
VERTEX
8
0
6
CONTINUOUS
62
252
70
128
10
0.000000
20
0.000000
30
0.000000
71
110
72
11
73
12
0
VERTEX
8
0
6
CONTINUOUS
62
252
70
128
10
0.000000
20
0.000000
30
0.000000
71
110
72
12
73
109
0
VERTEX
8
0
6
CONTINUOUS
62
252
70
128
10
0.000000
20
0.000000
30
0.000000
71
109
72
12
73
13
0
VERTEX
8
0
6
CONTINUOUS
62
252
70
128
10
0.000000
20
0.000000
30
0.000000
71
109
72
13
73
108
0
VERTEX
8
0
6
CONTINUOUS
62
252
70
128
10
0.000000
20
0.000000
30
0.000000
71
108
72
13
73
14
0
VERTEX
8
0
6
CONTINUOUS
62
252
70
128
10
0.000000
20
0.000000
30
0.000000
71
108
72
14
73
107
0
VERTEX
8
0
6
CONTINUOUS
62
252
70
128
10
0.000000
20
0.000000
30
0.000000
71
107
72
14
73
15
0
VERTEX
8
0
6
CONTINUOUS
62
252
70
128
10
0.000000
20
0.000000
30
0.000000
71
107
72
15
73
106
0
VERTEX
8
0
6
CONTINUOUS
62
252
70
128
10
0.000000
20
0.000000
30
0.000000
71
106
72
15
73
16
0
VERTEX
8
0
6
CONTINUOUS
62
252
70
128
10
0.000000
20
0.000000
30
0.000000
71
106
72
16
73
105
0
VERTEX
8
0
6
CONTINUOUS
62
252
70
128
10
0.000000
20
0.000000
30
0.000000
71
105
72
16
73
17
0
VERTEX
8
0
6
CONTINUOUS
62
252
70
128
10
0.000000
20
0.000000
30
0.000000
71
105
72
17
73
104
0
VERTEX
8
0
6
CONTINUOUS
62
252
70
128
10
0.000000
20
0.000000
30
0.000000
71
104
72
17
73
18
0
VERTEX
8
0
6
CONTINUOUS
62
252
70
128
10
0.000000
20
0.000000
30
0.000000
71
104
72
18
73
103
0
VERTEX
8
0
6
CONTINUOUS
62
252
70
128
10
0.000000
20
0.000000
30
0.000000
71
103
72
18
73
19
0
VERTEX
8
0
6
CONTINUOUS
62
252
70
128
10
0.000000
20
0.000000
30
0.000000
71
103
72
19
73
102
0
VERTEX
8
0
6
CONTINUOUS
62
252
70
128
10
0.000000
20
0.000000
30
0.000000
71
102
72
19
73
20
0
VERTEX
8
0
6
CONTINUOUS
62
252
70
128
10
0.000000
20
0.000000
30
0.000000
71
102
72
20
73
101
0
VERTEX
8
0
6
CONTINUOUS
62
252
70
128
10
0.000000
20
0.000000
30
0.000000
71
101
72
20
73
21
0
VERTEX
8
0
6
CONTINUOUS
62
252
70
128
10
0.000000
20
0.000000
30
0.000000
71
101
72
21
73
100
0
VERTEX
8
0
6
CONTINUOUS
62
252
70
128
10
0.000000
20
0.000000
30
0.000000
71
100
72
21
73
22
0
VERTEX
8
0
6
CONTINUOUS
62
252
70
128
10
0.000000
20
0.000000
30
0.000000
71
100
72
22
73
99
0
VERTEX
8
0
6
CONTINUOUS
62
252
70
128
10
0.000000
20
0.000000
30
0.000000
71
99
72
22
73
23
0
VERTEX
8
0
6
CONTINUOUS
62
252
70
128
10
0.000000
20
0.000000
30
0.000000
71
99
72
23
73
98
0
VERTEX
8
0
6
CONTINUOUS
62
252
70
128
10
0.000000
20
0.000000
30
0.000000
71
98
72
23
73
24
0
VERTEX
8
0
6
CONTINUOUS
62
252
70
128
10
0.000000
20
0.000000
30
0.000000
71
98
72
24
73
97
0
VERTEX
8
0
6
CONTINUOUS
62
252
70
128
10
0.000000
20
0.000000
30
0.000000
71
97
72
24
73
25
0
VERTEX
8
0
6
CONTINUOUS
62
252
70
128
10
0.000000
20
0.000000
30
0.000000
71
97
72
25
73
96
0
VERTEX
8
0
6
CONTINUOUS
62
252
70
128
10
0.000000
20
0.000000
30
0.000000
71
96
72
25
73
26
0
VERTEX
8
0
6
CONTINUOUS
62
252
70
128
10
0.000000
20
0.000000
30
0.000000
71
96
72
26
73
95
0
VERTEX
8
0
6
CONTINUOUS
62
252
70
128
10
0.000000
20
0.000000
30
0.000000
71
95
72
26
73
27
0
VERTEX
8
0
6
CONTINUOUS
62
252
70
128
10
0.000000
20
0.000000
30
0.000000
71
95
72
27
73
94
0
VERTEX
8
0
6
CONTINUOUS
62
252
70
128
10
0.000000
20
0.000000
30
0.000000
71
94
72
27
73
28
0
VERTEX
8
0
6
CONTINUOUS
62
252
70
128
10
0.000000
20
0.000000
30
0.000000
71
94
72
28
73
93
0
VERTEX
8
0
6
CONTINUOUS
62
252
70
128
10
0.000000
20
0.000000
30
0.000000
71
93
72
28
73
29
0
VERTEX
8
0
6
CONTINUOUS
62
252
70
128
10
0.000000
20
0.000000
30
0.000000
71
93
72
29
73
92
0
VERTEX
8
0
6
CONTINUOUS
62
252
70
128
10
0.000000
20
0.000000
30
0.000000
71
92
72
29
73
30
0
VERTEX
8
0
6
CONTINUOUS
62
252
70
128
10
0.000000
20
0.000000
30
0.000000
71
92
72
30
73
91
0
VERTEX
8
0
6
CONTINUOUS
62
252
70
128
10
0.000000
20
0.000000
30
0.000000
71
91
72
30
73
31
0
VERTEX
8
0
6
CONTINUOUS
62
252
70
128
10
0.000000
20
0.000000
30
0.000000
71
91
72
31
73
90
0
VERTEX
8
0
6
CONTINUOUS
62
252
70
128
10
0.000000
20
0.000000
30
0.000000
71
90
72
31
73
32
0
VERTEX
8
0
6
CONTINUOUS
62
252
70
128
10
0.000000
20
0.000000
30
0.000000
71
90
72
32
73
89
0
VERTEX
8
0
6
CONTINUOUS
62
252
70
128
10
0.000000
20
0.000000
30
0.000000
71
89
72
32
73
33
0
VERTEX
8
0
6
CONTINUOUS
62
252
70
128
10
0.000000
20
0.000000
30
0.000000
71
89
72
33
73
34
0
VERTEX
8
0
6
CONTINUOUS
62
252
70
128
10
0.000000
20
0.000000
30
0.000000
71
35
72
87
73
34
0
VERTEX
8
0
6
CONTINUOUS
62
252
70
128
10
0.000000
20
0.000000
30
0.000000
71
34
72
87
73
88
0
VERTEX
8
0
6
CONTINUOUS
62
252
70
128
10
0.000000
20
0.000000
30
0.000000
71
34
72
88
73
89
0
VERTEX
8
0
6
CONTINUOUS
62
252
70
128
10
0.000000
20
0.000000
30
0.000000
71
87
72
35
73
86
0
VERTEX
8
0
6
CONTINUOUS
62
252
70
128
10
0.000000
20
0.000000
30
0.000000
71
86
72
35
73
36
0
VERTEX
8
0
6
CONTINUOUS
62
252
70
128
10
0.000000
20
0.000000
30
0.000000
71
86
72
36
73
85
0
VERTEX
8
0
6
CONTINUOUS
62
252
70
128
10
0.000000
20
0.000000
30
0.000000
71
85
72
36
73
37
0
VERTEX
8
0
6
CONTINUOUS
62
252
70
128
10
0.000000
20
0.000000
30
0.000000
71
85
72
37
73
84
0
VERTEX
8
0
6
CONTINUOUS
62
252
70
128
10
0.000000
20
0.000000
30
0.000000
71
84
72
37
73
38
0
VERTEX
8
0
6
CONTINUOUS
62
252
70
128
10
0.000000
20
0.000000
30
0.000000
71
84
72
38
73
83
0
VERTEX
8
0
6
CONTINUOUS
62
252
70
128
10
0.000000
20
0.000000
30
0.000000
71
83
72
38
73
39
0
VERTEX
8
0
6
CONTINUOUS
62
252
70
128
10
0.000000
20
0.000000
30
0.000000
71
83
72
39
73
82
0
VERTEX
8
0
6
CONTINUOUS
62
252
70
128
10
0.000000
20
0.000000
30
0.000000
71
82
72
39
73
40
0
VERTEX
8
0
6
CONTINUOUS
62
252
70
128
10
0.000000
20
0.000000
30
0.000000
71
82
72
40
73
81
0
VERTEX
8
0
6
CONTINUOUS
62
252
70
128
10
0.000000
20
0.000000
30
0.000000
71
81
72
40
73
41
0
VERTEX
8
0
6
CONTINUOUS
62
252
70
128
10
0.000000
20
0.000000
30
0.000000
71
81
72
41
73
80
0
VERTEX
8
0
6
CONTINUOUS
62
252
70
128
10
0.000000
20
0.000000
30
0.000000
71
80
72
41
73
42
0
VERTEX
8
0
6
CONTINUOUS
62
252
70
128
10
0.000000
20
0.000000
30
0.000000
71
80
72
42
73
79
0
VERTEX
8
0
6
CONTINUOUS
62
252
70
128
10
0.000000
20
0.000000
30
0.000000
71
79
72
42
73
43
0
VERTEX
8
0
6
CONTINUOUS
62
252
70
128
10
0.000000
20
0.000000
30
0.000000
71
79
72
43
73
78
0
VERTEX
8
0
6
CONTINUOUS
62
252
70
128
10
0.000000
20
0.000000
30
0.000000
71
78
72
43
73
44
0
VERTEX
8
0
6
CONTINUOUS
62
252
70
128
10
0.000000
20
0.000000
30
0.000000
71
78
72
44
73
77
0
VERTEX
8
0
6
CONTINUOUS
62
252
70
128
10
0.000000
20
0.000000
30
0.000000
71
77
72
44
73
45
0
VERTEX
8
0
6
CONTINUOUS
62
252
70
128
10
0.000000
20
0.000000
30
0.000000
71
77
72
45
73
76
0
VERTEX
8
0
6
CONTINUOUS
62
252
70
128
10
0.000000
20
0.000000
30
0.000000
71
76
72
45
73
46
0
VERTEX
8
0
6
CONTINUOUS
62
252
70
128
10
0.000000
20
0.000000
30
0.000000
71
76
72
46
73
75
0
VERTEX
8
0
6
CONTINUOUS
62
252
70
128
10
0.000000
20
0.000000
30
0.000000
71
75
72
46
73
47
0
VERTEX
8
0
6
CONTINUOUS
62
252
70
128
10
0.000000
20
0.000000
30
0.000000
71
75
72
47
73
74
0
VERTEX
8
0
6
CONTINUOUS
62
252
70
128
10
0.000000
20
0.000000
30
0.000000
71
74
72
47
73
48
0
VERTEX
8
0
6
CONTINUOUS
62
252
70
128
10
0.000000
20
0.000000
30
0.000000
71
74
72
48
73
73
0
VERTEX
8
0
6
CONTINUOUS
62
252
70
128
10
0.000000
20
0.000000
30
0.000000
71
73
72
48
73
49
0
VERTEX
8
0
6
CONTINUOUS
62
252
70
128
10
0.000000
20
0.000000
30
0.000000
71
73
72
49
73
72
0
VERTEX
8
0
6
CONTINUOUS
62
252
70
128
10
0.000000
20
0.000000
30
0.000000
71
72
72
49
73
50
0
VERTEX
8
0
6
CONTINUOUS
62
252
70
128
10
0.000000
20
0.000000
30
0.000000
71
72
72
50
73
71
0
VERTEX
8
0
6
CONTINUOUS
62
252
70
128
10
0.000000
20
0.000000
30
0.000000
71
71
72
50
73
51
0
VERTEX
8
0
6
CONTINUOUS
62
252
70
128
10
0.000000
20
0.000000
30
0.000000
71
71
72
51
73
70
0
VERTEX
8
0
6
CONTINUOUS
62
252
70
128
10
0.000000
20
0.000000
30
0.000000
71
70
72
51
73
52
0
VERTEX
8
0
6
CONTINUOUS
62
252
70
128
10
0.000000
20
0.000000
30
0.000000
71
70
72
52
73
53
0
VERTEX
8
0
6
CONTINUOUS
62
252
70
128
10
0.000000
20
0.000000
30
0.000000
71
70
72
53
73
69
0
VERTEX
8
0
6
CONTINUOUS
62
252
70
128
10
0.000000
20
0.000000
30
0.000000
71
69
72
53
73
54
0
SEQEND
0
POLYLINE
66
1
8
0
6
CONTINUOUS
62
252
70
64
75
0
10
0.000000
20
0.000000
30
0.000000
0
VERTEX
8
0
6
CONTINUOUS
62
252
70
192
10
1.690000
20
0.000000
30
-0.268035
0
VERTEX
8
0
6
CONTINUOUS
62
252
70
192
10
1.690000
20
0.028017
30
-0.266567
0
VERTEX
8
0
6
CONTINUOUS
62
252
70
192
10
1.690000
20
0.055728
30
-0.262178
0
VERTEX
8
0
6
CONTINUOUS
62
252
70
192
10
1.690000
20
0.082827
30
-0.254916
0
VERTEX
8
0
6
CONTINUOUS
62
252
70
192
10
1.690000
20
0.109020
30
-0.244862
0
VERTEX
8
0
6
CONTINUOUS
62
252
70
192
10
1.690000
20
0.134018
30
-0.232125
0
VERTEX
8
0
6
CONTINUOUS
62
252
70
192
10
1.690000
20
0.157547
30
-0.216845
0
VERTEX
8
0
6
CONTINUOUS
62
252
70
192
10
1.690000
20
0.179350
30
-0.199189
0
VERTEX
8
0
6
CONTINUOUS
62
252
70
192
10
1.690000
20
0.199189
30
-0.179350
0
VERTEX
8
0
6
CONTINUOUS
62
252
70
192
10
1.690000
20
0.216845
30
-0.157547
0
VERTEX
8
0
6
CONTINUOUS
62
252
70
192
10
1.690000
20
0.232125
30
-0.134017
0
VERTEX
8
0
6
CONTINUOUS
62
252
70
192
10
1.690000
20
0.244862
30
-0.109020
0
VERTEX
8
0
6
CONTINUOUS
62
252
70
192
10
1.690000
20
0.254916
30
-0.082827
0
VERTEX
8
0
6
CONTINUOUS
62
252
70
192
10
1.690000
20
0.262178
30
-0.055728
0
VERTEX
8
0
6
CONTINUOUS
62
252
70
192
10
1.690000
20
0.266567
30
-0.028017
0
VERTEX
8
0
6
CONTINUOUS
62
252
70
192
10
1.690000
20
0.268035
30
0.000000
0
VERTEX
8
0
6
CONTINUOUS
62
252
70
192
10
1.690000
20
0.266567
30
0.028017
0
VERTEX
8
0
6
CONTINUOUS
62
252
70
192
10
1.690000
20
0.262178
30
0.055728
0
VERTEX
8
0
6
CONTINUOUS
62
252
70
192
10
1.690000
20
0.254916
30
0.082827
0
VERTEX
8
0
6
CONTINUOUS
62
252
70
192
10
1.690000
20
0.244862
30
0.109020
0
VERTEX
8
0
6
CONTINUOUS
62
252
70
192
10
1.690000
20
0.232125
30
0.134018
0
VERTEX
8
0
6
CONTINUOUS
62
252
70
192
10
1.690000
20
0.216845
30
0.157547
0
VERTEX
8
0
6
CONTINUOUS
62
252
70
192
10
1.690000
20
0.199189
30
0.179350
0
VERTEX
8
0
6
CONTINUOUS
62
252
70
192
10
1.690000
20
0.179350
30
0.199189
0
VERTEX
8
0
6
CONTINUOUS
62
252
70
192
10
1.690000
20
0.157547
30
0.216845
0
VERTEX
8
0
6
CONTINUOUS
62
252
70
192
10
1.690000
20
0.134017
30
0.232125
0
VERTEX
8
0
6
CONTINUOUS
62
252
70
192
10
1.690000
20
0.109020
30
0.244862
0
VERTEX
8
0
6
CONTINUOUS
62
252
70
192
10
1.690000
20
0.082827
30
0.254916
0
VERTEX
8
0
6
CONTINUOUS
62
252
70
192
10
1.690000
20
0.055728
30
0.262178
0
VERTEX
8
0
6
CONTINUOUS
62
252
70
192
10
1.690000
20
0.028017
30
0.266567
0
VERTEX
8
0
6
CONTINUOUS
62
252
70
192
10
1.690000
20
-0.000000
30
0.268035
0
VERTEX
8
0
6
CONTINUOUS
62
252
70
192
10
1.690000
20
-0.028017
30
0.266567
0
VERTEX
8
0
6
CONTINUOUS
62
252
70
192
10
1.690000
20
-0.055728
30
0.262178
0
VERTEX
8
0
6
CONTINUOUS
62
252
70
192
10
1.690000
20
-0.082827
30
0.254916
0
VERTEX
8
0
6
CONTINUOUS
62
252
70
192
10
1.690000
20
-0.109020
30
0.244862
0
VERTEX
8
0
6
CONTINUOUS
62
252
70
192
10
1.690000
20
-0.134018
30
0.232125
0
VERTEX
8
0
6
CONTINUOUS
62
252
70
192
10
1.690000
20
-0.157547
30
0.216845
0
VERTEX
8
0
6
CONTINUOUS
62
252
70
192
10
1.690000
20
-0.179350
30
0.199189
0
VERTEX
8
0
6
CONTINUOUS
62
252
70
192
10
1.690000
20
-0.199189
30
0.179350
0
VERTEX
8
0
6
CONTINUOUS
62
252
70
192
10
1.690000
20
-0.216845
30
0.157547
0
VERTEX
8
0
6
CONTINUOUS
62
252
70
192
10
1.690000
20
-0.232125
30
0.134017
0
VERTEX
8
0
6
CONTINUOUS
62
252
70
192
10
1.690000
20
-0.244862
30
0.109020
0
VERTEX
8
0
6
CONTINUOUS
62
252
70
192
10
1.690000
20
-0.254916
30
0.082827
0
VERTEX
8
0
6
CONTINUOUS
62
252
70
192
10
1.690000
20
-0.262178
30
0.055728
0
VERTEX
8
0
6
CONTINUOUS
62
252
70
192
10
1.690000
20
-0.266567
30
0.028017
0
VERTEX
8
0
6
CONTINUOUS
62
252
70
192
10
1.690000
20
-0.268035
30
-0.000000
0
VERTEX
8
0
6
CONTINUOUS
62
252
70
192
10
1.690000
20
-0.266567
30
-0.028017
0
VERTEX
8
0
6
CONTINUOUS
62
252
70
192
10
1.690000
20
-0.262178
30
-0.055728
0
VERTEX
8
0
6
CONTINUOUS
62
252
70
192
10
1.690000
20
-0.254916
30
-0.082827
0
VERTEX
8
0
6
CONTINUOUS
62
252
70
192
10
1.690000
20
-0.244862
30
-0.109020
0
VERTEX
8
0
6
CONTINUOUS
62
252
70
192
10
1.690000
20
-0.232125
30
-0.134018
0
VERTEX
8
0
6
CONTINUOUS
62
252
70
192
10
1.690000
20
-0.216845
30
-0.157547
0
VERTEX
8
0
6
CONTINUOUS
62
252
70
192
10
1.690000
20
-0.199189
30
-0.179350
0
VERTEX
8
0
6
CONTINUOUS
62
252
70
192
10
1.690000
20
-0.179350
30
-0.199189
0
VERTEX
8
0
6
CONTINUOUS
62
252
70
192
10
1.690000
20
-0.157547
30
-0.216845
0
VERTEX
8
0
6
CONTINUOUS
62
252
70
192
10
1.690000
20
-0.134017
30
-0.232125
0
VERTEX
8
0
6
CONTINUOUS
62
252
70
192
10
1.690000
20
-0.109020
30
-0.244862
0
VERTEX
8
0
6
CONTINUOUS
62
252
70
192
10
1.690000
20
-0.082827
30
-0.254916
0
VERTEX
8
0
6
CONTINUOUS
62
252
70
192
10
1.690000
20
-0.055728
30
-0.262178
0
VERTEX
8
0
6
CONTINUOUS
62
252
70
192
10
1.690000
20
-0.028017
30
-0.266567
0
VERTEX
8
0
6
CONTINUOUS
62
252
70
192
10
1.645560
20
0.000000
30
-0.223595
0
VERTEX
8
0
6
CONTINUOUS
62
252
70
192
10
1.645560
20
-0.023372
30
-0.222370
0
VERTEX
8
0
6
CONTINUOUS
62
252
70
192
10
1.645560
20
-0.046488
30
-0.218709
0
VERTEX
8
0
6
CONTINUOUS
62
252
70
192
10
1.645560
20
-0.069095
30
-0.212651
0
VERTEX
8
0
6
CONTINUOUS
62
252
70
192
10
1.645560
20
-0.090944
30
-0.204264
0
VERTEX
8
0
6
CONTINUOUS
62
252
70
192
10
1.645560
20
-0.111798
30
-0.193639
0
VERTEX
8
0
6
CONTINUOUS
62
252
70
192
10
1.645560
20
-0.131426
30
-0.180892
0
VERTEX
8
0
6
CONTINUOUS
62
252
70
192
10
1.645560
20
-0.149614
30
-0.166163
0
VERTEX
8
0
6
CONTINUOUS
62
252
70
192
10
1.645560
20
-0.166163
30
-0.149614
0
VERTEX
8
0
6
CONTINUOUS
62
252
70
192
10
1.645560
20
-0.180892
30
-0.131426
0
VERTEX
8
0
6
CONTINUOUS
62
252
70
192
10
1.645560
20
-0.193639
30
-0.111797
0
VERTEX
8
0
6
CONTINUOUS
62
252
70
192
10
1.645560
20
-0.204264
30
-0.090944
0
VERTEX
8
0
6
CONTINUOUS
62
252
70
192
10
1.645560
20
-0.212651
30
-0.069095
0
VERTEX
8
0
6
CONTINUOUS
62
252
70
192
10
1.645560
20
-0.218709
30
-0.046488
0
VERTEX
8
0
6
CONTINUOUS
62
252
70
192
10
1.645560
20
-0.222370
30
-0.023372
0
VERTEX
8
0
6
CONTINUOUS
62
252
70
192
10
1.645560
20
-0.223595
30
0.000000
0
VERTEX
8
0
6
CONTINUOUS
62
252
70
192
10
1.645560
20
-0.222370
30
0.023372
0
VERTEX
8
0
6
CONTINUOUS
62
252
70
192
10
1.645560
20
-0.218709
30
0.046488
0
VERTEX
8
0
6
CONTINUOUS
62
252
70
192
10
1.645560
20
-0.212651
30
0.069095
0
VERTEX
8
0
6
CONTINUOUS
62
252
70
192
10
1.645560
20
-0.204264
30
0.090944
0
VERTEX
8
0
6
CONTINUOUS
62
252
70
192
10
1.645560
20
-0.193639
30
0.111798
0
VERTEX
8
0
6
CONTINUOUS
62
252
70
192
10
1.645560
20
-0.180892
30
0.131426
0
VERTEX
8
0
6
CONTINUOUS
62
252
70
192
10
1.645560
20
-0.166163
30
0.149614
0
VERTEX
8
0
6
CONTINUOUS
62
252
70
192
10
1.645560
20
-0.149614
30
0.166163
0
VERTEX
8
0
6
CONTINUOUS
62
252
70
192
10
1.645560
20
-0.131426
30
0.180892
0
VERTEX
8
0
6
CONTINUOUS
62
252
70
192
10
1.645560
20
-0.111797
30
0.193639
0
VERTEX
8
0
6
CONTINUOUS
62
252
70
192
10
1.645560
20
-0.090944
30
0.204264
0
VERTEX
8
0
6
CONTINUOUS
62
252
70
192
10
1.645560
20
-0.069095
30
0.212651
0
VERTEX
8
0
6
CONTINUOUS
62
252
70
192
10
1.645560
20
-0.046488
30
0.218709
0
VERTEX
8
0
6
CONTINUOUS
62
252
70
192
10
1.645560
20
-0.023372
30
0.222370
0
VERTEX
8
0
6
CONTINUOUS
62
252
70
192
10
1.645560
20
0.000000
30
0.223595
0
VERTEX
8
0
6
CONTINUOUS
62
252
70
192
10
1.645560
20
0.023372
30
0.222370
0
VERTEX
8
0
6
CONTINUOUS
62
252
70
192
10
1.645560
20
0.046488
30
0.218709
0
VERTEX
8
0
6
CONTINUOUS
62
252
70
192
10
1.645560
20
0.069095
30
0.212651
0
VERTEX
8
0
6
CONTINUOUS
62
252
70
192
10
1.645560
20
0.090944
30
0.204264
0
VERTEX
8
0
6
CONTINUOUS
62
252
70
192
10
1.645560
20
0.111798
30
0.193639
0
VERTEX
8
0
6
CONTINUOUS
62
252
70
192
10
1.645560
20
0.131426
30
0.180892
0
VERTEX
8
0
6
CONTINUOUS
62
252
70
192
10
1.645560
20
0.149614
30
0.166163
0
VERTEX
8
0
6
CONTINUOUS
62
252
70
192
10
1.645560
20
0.166163
30
0.149614
0
VERTEX
8
0
6
CONTINUOUS
62
252
70
192
10
1.645560
20
0.180892
30
0.131426
0
VERTEX
8
0
6
CONTINUOUS
62
252
70
192
10
1.645560
20
0.193639
30
0.111797
0
VERTEX
8
0
6
CONTINUOUS
62
252
70
192
10
1.645560
20
0.204264
30
0.090944
0
VERTEX
8
0
6
CONTINUOUS
62
252
70
192
10
1.645560
20
0.212651
30
0.069095
0
VERTEX
8
0
6
CONTINUOUS
62
252
70
192
10
1.645560
20
0.218709
30
0.046488
0
VERTEX
8
0
6
CONTINUOUS
62
252
70
192
10
1.645560
20
0.222370
30
0.023372
0
VERTEX
8
0
6
CONTINUOUS
62
252
70
192
10
1.645560
20
0.223595
30
-0.000000
0
VERTEX
8
0
6
CONTINUOUS
62
252
70
192
10
1.645560
20
0.222370
30
-0.023372
0
VERTEX
8
0
6
CONTINUOUS
62
252
70
192
10
1.645560
20
0.218709
30
-0.046488
0
VERTEX
8
0
6
CONTINUOUS
62
252
70
192
10
1.645560
20
0.212651
30
-0.069095
0
VERTEX
8
0
6
CONTINUOUS
62
252
70
192
10
1.645560
20
0.204264
30
-0.090944
0
VERTEX
8
0
6
CONTINUOUS
62
252
70
192
10
1.645560
20
0.193639
30
-0.111798
0
VERTEX
8
0
6
CONTINUOUS
62
252
70
192
10
1.645560
20
0.180892
30
-0.131426
0
VERTEX
8
0
6
CONTINUOUS
62
252
70
192
10
1.645560
20
0.166163
30
-0.149614
0
VERTEX
8
0
6
CONTINUOUS
62
252
70
192
10
1.645560
20
0.149614
30
-0.166163
0
VERTEX
8
0
6
CONTINUOUS
62
252
70
192
10
1.645560
20
0.131426
30
-0.180892
0
VERTEX
8
0
6
CONTINUOUS
62
252
70
192
10
1.645560
20
0.111798
30
-0.193639
0
VERTEX
8
0
6
CONTINUOUS
62
252
70
192
10
1.645560
20
0.090944
30
-0.204264
0
VERTEX
8
0
6
CONTINUOUS
62
252
70
192
10
1.645560
20
0.069095
30
-0.212651
0
VERTEX
8
0
6
CONTINUOUS
62
252
70
192
10
1.645560
20
0.046488
30
-0.218709
0
VERTEX
8
0
6
CONTINUOUS
62
252
70
192
10
1.645560
20
0.023372
30
-0.222370
0
VERTEX
8
0
6
CONTINUOUS
62
252
70
128
10
0.000000
20
0.000000
30
0.000000
71
2
72
120
73
1
0
VERTEX
8
0
6
CONTINUOUS
62
252
70
128
10
0.000000
20
0.000000
30
0.000000
71
1
72
120
73
61
0
VERTEX
8
0
6
CONTINUOUS
62
252
70
128
10
0.000000
20
0.000000
30
0.000000
71
1
72
61
73
60
0
VERTEX
8
0
6
CONTINUOUS
62
252
70
128
10
0.000000
20
0.000000
30
0.000000
71
60
72
61
73
62
0
VERTEX
8
0
6
CONTINUOUS
62
252
70
128
10
0.000000
20
0.000000
30
0.000000
71
60
72
62
73
59
0
VERTEX
8
0
6
CONTINUOUS
62
252
70
128
10
0.000000
20
0.000000
30
0.000000
71
59
72
62
73
63
0
VERTEX
8
0
6
CONTINUOUS
62
252
70
128
10
0.000000
20
0.000000
30
0.000000
71
59
72
63
73
58
0
VERTEX
8
0
6
CONTINUOUS
62
252
70
128
10
0.000000
20
0.000000
30
0.000000
71
58
72
63
73
64
0
VERTEX
8
0
6
CONTINUOUS
62
252
70
128
10
0.000000
20
0.000000
30
0.000000
71
58
72
64
73
57
0
VERTEX
8
0
6
CONTINUOUS
62
252
70
128
10
0.000000
20
0.000000
30
0.000000
71
57
72
64
73
65
0
VERTEX
8
0
6
CONTINUOUS
62
252
70
128
10
0.000000
20
0.000000
30
0.000000
71
57
72
65
73
56
0
VERTEX
8
0
6
CONTINUOUS
62
252
70
128
10
0.000000
20
0.000000
30
0.000000
71
56
72
65
73
66
0
VERTEX
8
0
6
CONTINUOUS
62
252
70
128
10
0.000000
20
0.000000
30
0.000000
71
56
72
66
73
55
0
VERTEX
8
0
6
CONTINUOUS
62
252
70
128
10
0.000000
20
0.000000
30
0.000000
71
55
72
66
73
67
0
VERTEX
8
0
6
CONTINUOUS
62
252
70
128
10
0.000000
20
0.000000
30
0.000000
71
55
72
67
73
54
0
VERTEX
8
0
6
CONTINUOUS
62
252
70
128
10
0.000000
20
0.000000
30
0.000000
71
54
72
67
73
68
0
VERTEX
8
0
6
CONTINUOUS
62
252
70
128
10
0.000000
20
0.000000
30
0.000000
71
54
72
68
73
53
0
VERTEX
8
0
6
CONTINUOUS
62
252
70
128
10
0.000000
20
0.000000
30
0.000000
71
53
72
68
73
69
0
VERTEX
8
0
6
CONTINUOUS
62
252
70
128
10
0.000000
20
0.000000
30
0.000000
71
53
72
69
73
52
0
VERTEX
8
0
6
CONTINUOUS
62
252
70
128
10
0.000000
20
0.000000
30
0.000000
71
52
72
69
73
70
0
VERTEX
8
0
6
CONTINUOUS
62
252
70
128
10
0.000000
20
0.000000
30
0.000000
71
52
72
70
73
51
0
VERTEX
8
0
6
CONTINUOUS
62
252
70
128
10
0.000000
20
0.000000
30
0.000000
71
51
72
70
73
71
0
VERTEX
8
0
6
CONTINUOUS
62
252
70
128
10
0.000000
20
0.000000
30
0.000000
71
51
72
71
73
50
0
VERTEX
8
0
6
CONTINUOUS
62
252
70
128
10
0.000000
20
0.000000
30
0.000000
71
50
72
71
73
72
0
VERTEX
8
0
6
CONTINUOUS
62
252
70
128
10
0.000000
20
0.000000
30
0.000000
71
50
72
72
73
49
0
VERTEX
8
0
6
CONTINUOUS
62
252
70
128
10
0.000000
20
0.000000
30
0.000000
71
49
72
72
73
73
0
VERTEX
8
0
6
CONTINUOUS
62
252
70
128
10
0.000000
20
0.000000
30
0.000000
71
49
72
73
73
48
0
VERTEX
8
0
6
CONTINUOUS
62
252
70
128
10
0.000000
20
0.000000
30
0.000000
71
48
72
73
73
74
0
VERTEX
8
0
6
CONTINUOUS
62
252
70
128
10
0.000000
20
0.000000
30
0.000000
71
48
72
74
73
47
0
VERTEX
8
0
6
CONTINUOUS
62
252
70
128
10
0.000000
20
0.000000
30
0.000000
71
47
72
74
73
75
0
VERTEX
8
0
6
CONTINUOUS
62
252
70
128
10
0.000000
20
0.000000
30
0.000000
71
47
72
75
73
46
0
VERTEX
8
0
6
CONTINUOUS
62
252
70
128
10
0.000000
20
0.000000
30
0.000000
71
46
72
75
73
76
0
VERTEX
8
0
6
CONTINUOUS
62
252
70
128
10
0.000000
20
0.000000
30
0.000000
71
46
72
76
73
45
0
VERTEX
8
0
6
CONTINUOUS
62
252
70
128
10
0.000000
20
0.000000
30
0.000000
71
45
72
76
73
77
0
VERTEX
8
0
6
CONTINUOUS
62
252
70
128
10
0.000000
20
0.000000
30
0.000000
71
45
72
77
73
44
0
VERTEX
8
0
6
CONTINUOUS
62
252
70
128
10
0.000000
20
0.000000
30
0.000000
71
44
72
77
73
78
0
VERTEX
8
0
6
CONTINUOUS
62
252
70
128
10
0.000000
20
0.000000
30
0.000000
71
44
72
78
73
43
0
VERTEX
8
0
6
CONTINUOUS
62
252
70
128
10
0.000000
20
0.000000
30
0.000000
71
43
72
78
73
79
0
VERTEX
8
0
6
CONTINUOUS
62
252
70
128
10
0.000000
20
0.000000
30
0.000000
71
43
72
79
73
42
0
VERTEX
8
0
6
CONTINUOUS
62
252
70
128
10
0.000000
20
0.000000
30
0.000000
71
42
72
79
73
80
0
VERTEX
8
0
6
CONTINUOUS
62
252
70
128
10
0.000000
20
0.000000
30
0.000000
71
42
72
80
73
41
0
VERTEX
8
0
6
CONTINUOUS
62
252
70
128
10
0.000000
20
0.000000
30
0.000000
71
41
72
80
73
81
0
VERTEX
8
0
6
CONTINUOUS
62
252
70
128
10
0.000000
20
0.000000
30
0.000000
71
41
72
81
73
40
0
VERTEX
8
0
6
CONTINUOUS
62
252
70
128
10
0.000000
20
0.000000
30
0.000000
71
40
72
81
73
82
0
VERTEX
8
0
6
CONTINUOUS
62
252
70
128
10
0.000000
20
0.000000
30
0.000000
71
40
72
82
73
39
0
VERTEX
8
0
6
CONTINUOUS
62
252
70
128
10
0.000000
20
0.000000
30
0.000000
71
39
72
82
73
83
0
VERTEX
8
0
6
CONTINUOUS
62
252
70
128
10
0.000000
20
0.000000
30
0.000000
71
39
72
83
73
38
0
VERTEX
8
0
6
CONTINUOUS
62
252
70
128
10
0.000000
20
0.000000
30
0.000000
71
38
72
83
73
84
0
VERTEX
8
0
6
CONTINUOUS
62
252
70
128
10
0.000000
20
0.000000
30
0.000000
71
38
72
84
73
37
0
VERTEX
8
0
6
CONTINUOUS
62
252
70
128
10
0.000000
20
0.000000
30
0.000000
71
37
72
84
73
85
0
VERTEX
8
0
6
CONTINUOUS
62
252
70
128
10
0.000000
20
0.000000
30
0.000000
71
37
72
85
73
36
0
VERTEX
8
0
6
CONTINUOUS
62
252
70
128
10
0.000000
20
0.000000
30
0.000000
71
36
72
85
73
86
0
VERTEX
8
0
6
CONTINUOUS
62
252
70
128
10
0.000000
20
0.000000
30
0.000000
71
36
72
86
73
35
0
VERTEX
8
0
6
CONTINUOUS
62
252
70
128
10
0.000000
20
0.000000
30
0.000000
71
35
72
86
73
87
0
VERTEX
8
0
6
CONTINUOUS
62
252
70
128
10
0.000000
20
0.000000
30
0.000000
71
35
72
87
73
34
0
VERTEX
8
0
6
CONTINUOUS
62
252
70
128
10
0.000000
20
0.000000
30
0.000000
71
34
72
87
73
88
0
VERTEX
8
0
6
CONTINUOUS
62
252
70
128
10
0.000000
20
0.000000
30
0.000000
71
34
72
88
73
33
0
VERTEX
8
0
6
CONTINUOUS
62
252
70
128
10
0.000000
20
0.000000
30
0.000000
71
33
72
88
73
89
0
VERTEX
8
0
6
CONTINUOUS
62
252
70
128
10
0.000000
20
0.000000
30
0.000000
71
33
72
89
73
32
0
VERTEX
8
0
6
CONTINUOUS
62
252
70
128
10
0.000000
20
0.000000
30
0.000000
71
32
72
89
73
90
0
VERTEX
8
0
6
CONTINUOUS
62
252
70
128
10
0.000000
20
0.000000
30
0.000000
71
32
72
90
73
31
0
VERTEX
8
0
6
CONTINUOUS
62
252
70
128
10
0.000000
20
0.000000
30
0.000000
71
31
72
90
73
91
0
VERTEX
8
0
6
CONTINUOUS
62
252
70
128
10
0.000000
20
0.000000
30
0.000000
71
31
72
91
73
30
0
VERTEX
8
0
6
CONTINUOUS
62
252
70
128
10
0.000000
20
0.000000
30
0.000000
71
30
72
91
73
92
0
VERTEX
8
0
6
CONTINUOUS
62
252
70
128
10
0.000000
20
0.000000
30
0.000000
71
30
72
92
73
29
0
VERTEX
8
0
6
CONTINUOUS
62
252
70
128
10
0.000000
20
0.000000
30
0.000000
71
29
72
92
73
93
0
VERTEX
8
0
6
CONTINUOUS
62
252
70
128
10
0.000000
20
0.000000
30
0.000000
71
29
72
93
73
28
0
VERTEX
8
0
6
CONTINUOUS
62
252
70
128
10
0.000000
20
0.000000
30
0.000000
71
28
72
93
73
94
0
VERTEX
8
0
6
CONTINUOUS
62
252
70
128
10
0.000000
20
0.000000
30
0.000000
71
28
72
94
73
27
0
VERTEX
8
0
6
CONTINUOUS
62
252
70
128
10
0.000000
20
0.000000
30
0.000000
71
27
72
94
73
95
0
VERTEX
8
0
6
CONTINUOUS
62
252
70
128
10
0.000000
20
0.000000
30
0.000000
71
27
72
95
73
26
0
VERTEX
8
0
6
CONTINUOUS
62
252
70
128
10
0.000000
20
0.000000
30
0.000000
71
26
72
95
73
96
0
VERTEX
8
0
6
CONTINUOUS
62
252
70
128
10
0.000000
20
0.000000
30
0.000000
71
26
72
96
73
25
0
VERTEX
8
0
6
CONTINUOUS
62
252
70
128
10
0.000000
20
0.000000
30
0.000000
71
25
72
96
73
97
0
VERTEX
8
0
6
CONTINUOUS
62
252
70
128
10
0.000000
20
0.000000
30
0.000000
71
25
72
97
73
24
0
VERTEX
8
0
6
CONTINUOUS
62
252
70
128
10
0.000000
20
0.000000
30
0.000000
71
24
72
97
73
98
0
VERTEX
8
0
6
CONTINUOUS
62
252
70
128
10
0.000000
20
0.000000
30
0.000000
71
24
72
98
73
23
0
VERTEX
8
0
6
CONTINUOUS
62
252
70
128
10
0.000000
20
0.000000
30
0.000000
71
23
72
98
73
99
0
VERTEX
8
0
6
CONTINUOUS
62
252
70
128
10
0.000000
20
0.000000
30
0.000000
71
23
72
99
73
22
0
VERTEX
8
0
6
CONTINUOUS
62
252
70
128
10
0.000000
20
0.000000
30
0.000000
71
22
72
99
73
100
0
VERTEX
8
0
6
CONTINUOUS
62
252
70
128
10
0.000000
20
0.000000
30
0.000000
71
22
72
100
73
21
0
VERTEX
8
0
6
CONTINUOUS
62
252
70
128
10
0.000000
20
0.000000
30
0.000000
71
21
72
100
73
101
0
VERTEX
8
0
6
CONTINUOUS
62
252
70
128
10
0.000000
20
0.000000
30
0.000000
71
21
72
101
73
20
0
VERTEX
8
0
6
CONTINUOUS
62
252
70
128
10
0.000000
20
0.000000
30
0.000000
71
20
72
101
73
102
0
VERTEX
8
0
6
CONTINUOUS
62
252
70
128
10
0.000000
20
0.000000
30
0.000000
71
20
72
102
73
19
0
VERTEX
8
0
6
CONTINUOUS
62
252
70
128
10
0.000000
20
0.000000
30
0.000000
71
19
72
102
73
103
0
VERTEX
8
0
6
CONTINUOUS
62
252
70
128
10
0.000000
20
0.000000
30
0.000000
71
19
72
103
73
18
0
VERTEX
8
0
6
CONTINUOUS
62
252
70
128
10
0.000000
20
0.000000
30
0.000000
71
18
72
103
73
104
0
VERTEX
8
0
6
CONTINUOUS
62
252
70
128
10
0.000000
20
0.000000
30
0.000000
71
18
72
104
73
17
0
VERTEX
8
0
6
CONTINUOUS
62
252
70
128
10
0.000000
20
0.000000
30
0.000000
71
17
72
104
73
105
0
VERTEX
8
0
6
CONTINUOUS
62
252
70
128
10
0.000000
20
0.000000
30
0.000000
71
17
72
105
73
16
0
VERTEX
8
0
6
CONTINUOUS
62
252
70
128
10
0.000000
20
0.000000
30
0.000000
71
16
72
105
73
106
0
VERTEX
8
0
6
CONTINUOUS
62
252
70
128
10
0.000000
20
0.000000
30
0.000000
71
16
72
106
73
15
0
VERTEX
8
0
6
CONTINUOUS
62
252
70
128
10
0.000000
20
0.000000
30
0.000000
71
15
72
106
73
107
0
VERTEX
8
0
6
CONTINUOUS
62
252
70
128
10
0.000000
20
0.000000
30
0.000000
71
15
72
107
73
14
0
VERTEX
8
0
6
CONTINUOUS
62
252
70
128
10
0.000000
20
0.000000
30
0.000000
71
14
72
107
73
108
0
VERTEX
8
0
6
CONTINUOUS
62
252
70
128
10
0.000000
20
0.000000
30
0.000000
71
14
72
108
73
13
0
VERTEX
8
0
6
CONTINUOUS
62
252
70
128
10
0.000000
20
0.000000
30
0.000000
71
13
72
108
73
109
0
VERTEX
8
0
6
CONTINUOUS
62
252
70
128
10
0.000000
20
0.000000
30
0.000000
71
13
72
109
73
12
0
VERTEX
8
0
6
CONTINUOUS
62
252
70
128
10
0.000000
20
0.000000
30
0.000000
71
12
72
109
73
110
0
VERTEX
8
0
6
CONTINUOUS
62
252
70
128
10
0.000000
20
0.000000
30
0.000000
71
12
72
110
73
11
0
VERTEX
8
0
6
CONTINUOUS
62
252
70
128
10
0.000000
20
0.000000
30
0.000000
71
11
72
110
73
111
0
VERTEX
8
0
6
CONTINUOUS
62
252
70
128
10
0.000000
20
0.000000
30
0.000000
71
11
72
111
73
10
0
VERTEX
8
0
6
CONTINUOUS
62
252
70
128
10
0.000000
20
0.000000
30
0.000000
71
10
72
111
73
112
0
VERTEX
8
0
6
CONTINUOUS
62
252
70
128
10
0.000000
20
0.000000
30
0.000000
71
10
72
112
73
9
0
VERTEX
8
0
6
CONTINUOUS
62
252
70
128
10
0.000000
20
0.000000
30
0.000000
71
9
72
112
73
113
0
VERTEX
8
0
6
CONTINUOUS
62
252
70
128
10
0.000000
20
0.000000
30
0.000000
71
9
72
113
73
8
0
VERTEX
8
0
6
CONTINUOUS
62
252
70
128
10
0.000000
20
0.000000
30
0.000000
71
8
72
113
73
114
0
VERTEX
8
0
6
CONTINUOUS
62
252
70
128
10
0.000000
20
0.000000
30
0.000000
71
8
72
114
73
7
0
VERTEX
8
0
6
CONTINUOUS
62
252
70
128
10
0.000000
20
0.000000
30
0.000000
71
7
72
114
73
115
0
VERTEX
8
0
6
CONTINUOUS
62
252
70
128
10
0.000000
20
0.000000
30
0.000000
71
7
72
115
73
6
0
VERTEX
8
0
6
CONTINUOUS
62
252
70
128
10
0.000000
20
0.000000
30
0.000000
71
6
72
115
73
116
0
VERTEX
8
0
6
CONTINUOUS
62
252
70
128
10
0.000000
20
0.000000
30
0.000000
71
6
72
116
73
5
0
VERTEX
8
0
6
CONTINUOUS
62
252
70
128
10
0.000000
20
0.000000
30
0.000000
71
5
72
116
73
117
0
VERTEX
8
0
6
CONTINUOUS
62
252
70
128
10
0.000000
20
0.000000
30
0.000000
71
5
72
117
73
4
0
VERTEX
8
0
6
CONTINUOUS
62
252
70
128
10
0.000000
20
0.000000
30
0.000000
71
4
72
117
73
118
0
VERTEX
8
0
6
CONTINUOUS
62
252
70
128
10
0.000000
20
0.000000
30
0.000000
71
4
72
118
73
3
0
VERTEX
8
0
6
CONTINUOUS
62
252
70
128
10
0.000000
20
0.000000
30
0.000000
71
3
72
118
73
119
0
VERTEX
8
0
6
CONTINUOUS
62
252
70
128
10
0.000000
20
0.000000
30
0.000000
71
3
72
119
73
2
0
VERTEX
8
0
6
CONTINUOUS
62
252
70
128
10
0.000000
20
0.000000
30
0.000000
71
2
72
119
73
120
0
SEQEND
0
POLYLINE
66
1
8
0
6
CONTINUOUS
62
252
70
64
75
0
10
0.000000
20
0.000000
30
0.000000
0
VERTEX
8
0
6
CONTINUOUS
62
252
70
192
10
1.295500
20
0.000000
30
-0.214612
0
VERTEX
8
0
6
CONTINUOUS
62
252
70
192
10
1.295500
20
0.022433
30
-0.213436
0
VERTEX
8
0
6
CONTINUOUS
62
252
70
192
10
1.295500
20
0.044620
30
-0.209922
0
VERTEX
8
0
6
CONTINUOUS
62
252
70
192
10
1.295500
20
0.066319
30
-0.204108
0
VERTEX
8
0
6
CONTINUOUS
62
252
70
192
10
1.295500
20
0.087290
30
-0.196058
0
VERTEX
8
0
6
CONTINUOUS
62
252
70
192
10
1.295500
20
0.107306
30
-0.185859
0
VERTEX
8
0
6
CONTINUOUS
62
252
70
192
10
1.295500
20
0.126146
30
-0.173625
0
VERTEX
8
0
6
CONTINUOUS
62
252
70
192
10
1.295500
20
0.143603
30
-0.159488
0
VERTEX
8
0
6
CONTINUOUS
62
252
70
192
10
1.295500
20
0.159488
30
-0.143603
0
VERTEX
8
0
6
CONTINUOUS
62
252
70
192
10
1.295500
20
0.173625
30
-0.126146
0
VERTEX
8
0
6
CONTINUOUS
62
252
70
192
10
1.295500
20
0.185859
30
-0.107306
0
VERTEX
8
0
6
CONTINUOUS
62
252
70
192
10
1.295500
20
0.196058
30
-0.087290
0
VERTEX
8
0
6
CONTINUOUS
62
252
70
192
10
1.295500
20
0.204108
30
-0.066319
0
VERTEX
8
0
6
CONTINUOUS
62
252
70
192
10
1.295500
20
0.209922
30
-0.044620
0
VERTEX
8
0
6
CONTINUOUS
62
252
70
192
10
1.295500
20
0.213436
30
-0.022433
0
VERTEX
8
0
6
CONTINUOUS
62
252
70
192
10
1.295500
20
0.214612
30
-0.000000
0
VERTEX
8
0
6
CONTINUOUS
62
252
70
192
10
1.295500
20
0.213436
30
0.022433
0
VERTEX
8
0
6
CONTINUOUS
62
252
70
192
10
1.295500
20
0.209922
30
0.044620
0
VERTEX
8
0
6
CONTINUOUS
62
252
70
192
10
1.295500
20
0.204108
30
0.066319
0
VERTEX
8
0
6
CONTINUOUS
62
252
70
192
10
1.295500
20
0.196058
30
0.087290
0
VERTEX
8
0
6
CONTINUOUS
62
252
70
192
10
1.295500
20
0.185859
30
0.107306
0
VERTEX
8
0
6
CONTINUOUS
62
252
70
192
10
1.295500
20
0.173625
30
0.126146
0
VERTEX
8
0
6
CONTINUOUS
62
252
70
192
10
1.295500
20
0.159488
30
0.143603
0
VERTEX
8
0
6
CONTINUOUS
62
252
70
192
10
1.295500
20
0.143603
30
0.159488
0
VERTEX
8
0
6
CONTINUOUS
62
252
70
192
10
1.295500
20
0.126146
30
0.173625
0
VERTEX
8
0
6
CONTINUOUS
62
252
70
192
10
1.295500
20
0.107306
30
0.185859
0
VERTEX
8
0
6
CONTINUOUS
62
252
70
192
10
1.295500
20
0.087290
30
0.196058
0
VERTEX
8
0
6
CONTINUOUS
62
252
70
192
10
1.295500
20
0.066319
30
0.204108
0
VERTEX
8
0
6
CONTINUOUS
62
252
70
192
10
1.295500
20
0.044620
30
0.209922
0
VERTEX
8
0
6
CONTINUOUS
62
252
70
192
10
1.295500
20
0.022433
30
0.213436
0
VERTEX
8
0
6
CONTINUOUS
62
252
70
192
10
1.295500
20
0.000000
30
0.214612
0
VERTEX
8
0
6
CONTINUOUS
62
252
70
192
10
1.295500
20
-0.022433
30
0.213436
0
VERTEX
8
0
6
CONTINUOUS
62
252
70
192
10
1.295500
20
-0.044620
30
0.209922
0
VERTEX
8
0
6
CONTINUOUS
62
252
70
192
10
1.295500
20
-0.066319
30
0.204108
0
VERTEX
8
0
6
CONTINUOUS
62
252
70
192
10
1.295500
20
-0.087290
30
0.196058
0
VERTEX
8
0
6
CONTINUOUS
62
252
70
192
10
1.295500
20
-0.107306
30
0.185859
0
VERTEX
8
0
6
CONTINUOUS
62
252
70
192
10
1.295500
20
-0.126146
30
0.173625
0
VERTEX
8
0
6
CONTINUOUS
62
252
70
192
10
1.295500
20
-0.143603
30
0.159488
0
VERTEX
8
0
6
CONTINUOUS
62
252
70
192
10
1.295500
20
-0.159488
30
0.143603
0
VERTEX
8
0
6
CONTINUOUS
62
252
70
192
10
1.295500
20
-0.173625
30
0.126146
0
VERTEX
8
0
6
CONTINUOUS
62
252
70
192
10
1.295500
20
-0.185859
30
0.107306
0
VERTEX
8
0
6
CONTINUOUS
62
252
70
192
10
1.295500
20
-0.196058
30
0.087290
0
VERTEX
8
0
6
CONTINUOUS
62
252
70
192
10
1.295500
20
-0.204108
30
0.066319
0
VERTEX
8
0
6
CONTINUOUS
62
252
70
192
10
1.295500
20
-0.209922
30
0.044620
0
VERTEX
8
0
6
CONTINUOUS
62
252
70
192
10
1.295500
20
-0.213436
30
0.022433
0
VERTEX
8
0
6
CONTINUOUS
62
252
70
192
10
1.295500
20
-0.214612
30
0.000000
0
VERTEX
8
0
6
CONTINUOUS
62
252
70
192
10
1.295500
20
-0.213436
30
-0.022433
0
VERTEX
8
0
6
CONTINUOUS
62
252
70
192
10
1.295500
20
-0.209922
30
-0.044620
0
VERTEX
8
0
6
CONTINUOUS
62
252
70
192
10
1.295500
20
-0.204108
30
-0.066319
0
VERTEX
8
0
6
CONTINUOUS
62
252
70
192
10
1.295500
20
-0.196058
30
-0.087290
0
VERTEX
8
0
6
CONTINUOUS
62
252
70
192
10
1.295500
20
-0.185859
30
-0.107306
0
VERTEX
8
0
6
CONTINUOUS
62
252
70
192
10
1.295500
20
-0.173625
30
-0.126146
0
VERTEX
8
0
6
CONTINUOUS
62
252
70
192
10
1.295500
20
-0.159488
30
-0.143603
0
VERTEX
8
0
6
CONTINUOUS
62
252
70
192
10
1.295500
20
-0.143603
30
-0.159488
0
VERTEX
8
0
6
CONTINUOUS
62
252
70
192
10
1.295500
20
-0.126146
30
-0.173625
0
VERTEX
8
0
6
CONTINUOUS
62
252
70
192
10
1.295500
20
-0.107306
30
-0.185859
0
VERTEX
8
0
6
CONTINUOUS
62
252
70
192
10
1.295500
20
-0.087290
30
-0.196058
0
VERTEX
8
0
6
CONTINUOUS
62
252
70
192
10
1.295500
20
-0.066319
30
-0.204108
0
VERTEX
8
0
6
CONTINUOUS
62
252
70
192
10
1.295500
20
-0.044620
30
-0.209922
0
VERTEX
8
0
6
CONTINUOUS
62
252
70
192
10
1.295500
20
-0.022433
30
-0.213436
0
VERTEX
8
0
6
CONTINUOUS
62
252
70
192
10
1.295500
20
0.000000
30
0.211312
0
VERTEX
8
0
6
CONTINUOUS
62
252
70
192
10
1.295500
20
0.022088
30
0.210155
0
VERTEX
8
0
6
CONTINUOUS
62
252
70
192
10
1.295500
20
0.043934
30
0.206695
0
VERTEX
8
0
6
CONTINUOUS
62
252
70
192
10
1.295500
20
0.065299
30
0.200970
0
VERTEX
8
0
6
CONTINUOUS
62
252
70
192
10
1.295500
20
0.085948
30
0.193043
0
VERTEX
8
0
6
CONTINUOUS
62
252
70
192
10
1.295500
20
0.105656
30
0.183002
0
VERTEX
8
0
6
CONTINUOUS
62
252
70
192
10
1.295500
20
0.124206
30
0.170955
0
VERTEX
8
0
6
CONTINUOUS
62
252
70
192
10
1.295500
20
0.141395
30
0.157036
0
VERTEX
8
0
6
CONTINUOUS
62
252
70
192
10
1.295500
20
0.157036
30
0.141395
0
VERTEX
8
0
6
CONTINUOUS
62
252
70
192
10
1.295500
20
0.170955
30
0.124206
0
VERTEX
8
0
6
CONTINUOUS
62
252
70
192
10
1.295500
20
0.183002
30
0.105656
0
VERTEX
8
0
6
CONTINUOUS
62
252
70
192
10
1.295500
20
0.193043
30
0.085948
0
VERTEX
8
0
6
CONTINUOUS
62
252
70
192
10
1.295500
20
0.200970
30
0.065299
0
VERTEX
8
0
6
CONTINUOUS
62
252
70
192
10
1.295500
20
0.206695
30
0.043934
0
VERTEX
8
0
6
CONTINUOUS
62
252
70
192
10
1.295500
20
0.210155
30
0.022088
0
VERTEX
8
0
6
CONTINUOUS
62
252
70
192
10
1.295500
20
0.211312
30
-0.000000
0
VERTEX
8
0
6
CONTINUOUS
62
252
70
192
10
1.295500
20
0.210155
30
-0.022088
0
VERTEX
8
0
6
CONTINUOUS
62
252
70
192
10
1.295500
20
0.206695
30
-0.043934
0
VERTEX
8
0
6
CONTINUOUS
62
252
70
192
10
1.295500
20
0.200970
30
-0.065299
0
VERTEX
8
0
6
CONTINUOUS
62
252
70
192
10
1.295500
20
0.193043
30
-0.085948
0
VERTEX
8
0
6
CONTINUOUS
62
252
70
192
10
1.295500
20
0.183002
30
-0.105656
0
VERTEX
8
0
6
CONTINUOUS
62
252
70
192
10
1.295500
20
0.170955
30
-0.124206
0
VERTEX
8
0
6
CONTINUOUS
62
252
70
192
10
1.295500
20
0.157036
30
-0.141395
0
VERTEX
8
0
6
CONTINUOUS
62
252
70
192
10
1.295500
20
0.141395
30
-0.157036
0
VERTEX
8
0
6
CONTINUOUS
62
252
70
192
10
1.295500
20
0.124206
30
-0.170955
0
VERTEX
8
0
6
CONTINUOUS
62
252
70
192
10
1.295500
20
0.105656
30
-0.183002
0
VERTEX
8
0
6
CONTINUOUS
62
252
70
192
10
1.295500
20
0.085948
30
-0.193043
0
VERTEX
8
0
6
CONTINUOUS
62
252
70
192
10
1.295500
20
0.065299
30
-0.200970
0
VERTEX
8
0
6
CONTINUOUS
62
252
70
192
10
1.295500
20
0.043934
30
-0.206695
0
VERTEX
8
0
6
CONTINUOUS
62
252
70
192
10
1.295500
20
0.022088
30
-0.210155
0
VERTEX
8
0
6
CONTINUOUS
62
252
70
192
10
1.295500
20
-0.000000
30
-0.211312
0
VERTEX
8
0
6
CONTINUOUS
62
252
70
192
10
1.295500
20
-0.022088
30
-0.210155
0
VERTEX
8
0
6
CONTINUOUS
62
252
70
192
10
1.295500
20
-0.043934
30
-0.206695
0
VERTEX
8
0
6
CONTINUOUS
62
252
70
192
10
1.295500
20
-0.065299
30
-0.200970
0
VERTEX
8
0
6
CONTINUOUS
62
252
70
192
10
1.295500
20
-0.085948
30
-0.193043
0
VERTEX
8
0
6
CONTINUOUS
62
252
70
192
10
1.295500
20
-0.105656
30
-0.183002
0
VERTEX
8
0
6
CONTINUOUS
62
252
70
192
10
1.295500
20
-0.124206
30
-0.170955
0
VERTEX
8
0
6
CONTINUOUS
62
252
70
192
10
1.295500
20
-0.141395
30
-0.157036
0
VERTEX
8
0
6
CONTINUOUS
62
252
70
192
10
1.295500
20
-0.157036
30
-0.141395
0
VERTEX
8
0
6
CONTINUOUS
62
252
70
192
10
1.295500
20
-0.170955
30
-0.124206
0
VERTEX
8
0
6
CONTINUOUS
62
252
70
192
10
1.295500
20
-0.183002
30
-0.105656
0
VERTEX
8
0
6
CONTINUOUS
62
252
70
192
10
1.295500
20
-0.193043
30
-0.085948
0
VERTEX
8
0
6
CONTINUOUS
62
252
70
192
10
1.295500
20
-0.200970
30
-0.065299
0
VERTEX
8
0
6
CONTINUOUS
62
252
70
192
10
1.295500
20
-0.206695
30
-0.043934
0
VERTEX
8
0
6
CONTINUOUS
62
252
70
192
10
1.295500
20
-0.210155
30
-0.022088
0
VERTEX
8
0
6
CONTINUOUS
62
252
70
192
10
1.295500
20
-0.211312
30
0.000000
0
VERTEX
8
0
6
CONTINUOUS
62
252
70
192
10
1.295500
20
-0.210155
30
0.022088
0
VERTEX
8
0
6
CONTINUOUS
62
252
70
192
10
1.295500
20
-0.206695
30
0.043934
0
VERTEX
8
0
6
CONTINUOUS
62
252
70
192
10
1.295500
20
-0.200970
30
0.065299
0
VERTEX
8
0
6
CONTINUOUS
62
252
70
192
10
1.295500
20
-0.193043
30
0.085948
0
VERTEX
8
0
6
CONTINUOUS
62
252
70
192
10
1.295500
20
-0.183002
30
0.105656
0
VERTEX
8
0
6
CONTINUOUS
62
252
70
192
10
1.295500
20
-0.170955
30
0.124206
0
VERTEX
8
0
6
CONTINUOUS
62
252
70
192
10
1.295500
20
-0.157036
30
0.141395
0
VERTEX
8
0
6
CONTINUOUS
62
252
70
192
10
1.295500
20
-0.141395
30
0.157036
0
VERTEX
8
0
6
CONTINUOUS
62
252
70
192
10
1.295500
20
-0.124206
30
0.170955
0
VERTEX
8
0
6
CONTINUOUS
62
252
70
192
10
1.295500
20
-0.105656
30
0.183002
0
VERTEX
8
0
6
CONTINUOUS
62
252
70
192
10
1.295500
20
-0.085948
30
0.193043
0
VERTEX
8
0
6
CONTINUOUS
62
252
70
192
10
1.295500
20
-0.065299
30
0.200970
0
VERTEX
8
0
6
CONTINUOUS
62
252
70
192
10
1.295500
20
-0.043934
30
0.206695
0
VERTEX
8
0
6
CONTINUOUS
62
252
70
192
10
1.295500
20
-0.022088
30
0.210155
0
VERTEX
8
0
6
CONTINUOUS
62
252
70
128
10
0.000000
20
0.000000
30
0.000000
71
2
72
90
73
1
0
VERTEX
8
0
6
CONTINUOUS
62
252
70
128
10
0.000000
20
0.000000
30
0.000000
71
1
72
90
73
91
0
VERTEX
8
0
6
CONTINUOUS
62
252
70
128
10
0.000000
20
0.000000
30
0.000000
71
1
72
91
73
60
0
VERTEX
8
0
6
CONTINUOUS
62
252
70
128
10
0.000000
20
0.000000
30
0.000000
71
60
72
91
73
92
0
VERTEX
8
0
6
CONTINUOUS
62
252
70
128
10
0.000000
20
0.000000
30
0.000000
71
60
72
92
73
59
0
VERTEX
8
0
6
CONTINUOUS
62
252
70
128
10
0.000000
20
0.000000
30
0.000000
71
59
72
92
73
93
0
VERTEX
8
0
6
CONTINUOUS
62
252
70
128
10
0.000000
20
0.000000
30
0.000000
71
59
72
93
73
58
0
VERTEX
8
0
6
CONTINUOUS
62
252
70
128
10
0.000000
20
0.000000
30
0.000000
71
58
72
93
73
94
0
VERTEX
8
0
6
CONTINUOUS
62
252
70
128
10
0.000000
20
0.000000
30
0.000000
71
58
72
94
73
57
0
VERTEX
8
0
6
CONTINUOUS
62
252
70
128
10
0.000000
20
0.000000
30
0.000000
71
57
72
94
73
95
0
VERTEX
8
0
6
CONTINUOUS
62
252
70
128
10
0.000000
20
0.000000
30
0.000000
71
57
72
95
73
56
0
VERTEX
8
0
6
CONTINUOUS
62
252
70
128
10
0.000000
20
0.000000
30
0.000000
71
56
72
95
73
96
0
VERTEX
8
0
6
CONTINUOUS
62
252
70
128
10
0.000000
20
0.000000
30
0.000000
71
56
72
96
73
55
0
VERTEX
8
0
6
CONTINUOUS
62
252
70
128
10
0.000000
20
0.000000
30
0.000000
71
55
72
96
73
97
0
VERTEX
8
0
6
CONTINUOUS
62
252
70
128
10
0.000000
20
0.000000
30
0.000000
71
55
72
97
73
54
0
VERTEX
8
0
6
CONTINUOUS
62
252
70
128
10
0.000000
20
0.000000
30
0.000000
71
54
72
97
73
98
0
VERTEX
8
0
6
CONTINUOUS
62
252
70
128
10
0.000000
20
0.000000
30
0.000000
71
54
72
98
73
53
0
VERTEX
8
0
6
CONTINUOUS
62
252
70
128
10
0.000000
20
0.000000
30
0.000000
71
53
72
98
73
99
0
VERTEX
8
0
6
CONTINUOUS
62
252
70
128
10
0.000000
20
0.000000
30
0.000000
71
53
72
99
73
52
0
VERTEX
8
0
6
CONTINUOUS
62
252
70
128
10
0.000000
20
0.000000
30
0.000000
71
52
72
99
73
100
0
VERTEX
8
0
6
CONTINUOUS
62
252
70
128
10
0.000000
20
0.000000
30
0.000000
71
52
72
100
73
51
0
VERTEX
8
0
6
CONTINUOUS
62
252
70
128
10
0.000000
20
0.000000
30
0.000000
71
51
72
100
73
101
0
VERTEX
8
0
6
CONTINUOUS
62
252
70
128
10
0.000000
20
0.000000
30
0.000000
71
51
72
101
73
50
0
VERTEX
8
0
6
CONTINUOUS
62
252
70
128
10
0.000000
20
0.000000
30
0.000000
71
50
72
101
73
102
0
VERTEX
8
0
6
CONTINUOUS
62
252
70
128
10
0.000000
20
0.000000
30
0.000000
71
50
72
102
73
49
0
VERTEX
8
0
6
CONTINUOUS
62
252
70
128
10
0.000000
20
0.000000
30
0.000000
71
49
72
102
73
103
0
VERTEX
8
0
6
CONTINUOUS
62
252
70
128
10
0.000000
20
0.000000
30
0.000000
71
49
72
103
73
48
0
VERTEX
8
0
6
CONTINUOUS
62
252
70
128
10
0.000000
20
0.000000
30
0.000000
71
48
72
103
73
104
0
VERTEX
8
0
6
CONTINUOUS
62
252
70
128
10
0.000000
20
0.000000
30
0.000000
71
48
72
104
73
47
0
VERTEX
8
0
6
CONTINUOUS
62
252
70
128
10
0.000000
20
0.000000
30
0.000000
71
47
72
104
73
105
0
VERTEX
8
0
6
CONTINUOUS
62
252
70
128
10
0.000000
20
0.000000
30
0.000000
71
47
72
105
73
46
0
VERTEX
8
0
6
CONTINUOUS
62
252
70
128
10
0.000000
20
0.000000
30
0.000000
71
46
72
105
73
106
0
VERTEX
8
0
6
CONTINUOUS
62
252
70
128
10
0.000000
20
0.000000
30
0.000000
71
46
72
106
73
45
0
VERTEX
8
0
6
CONTINUOUS
62
252
70
128
10
0.000000
20
0.000000
30
0.000000
71
45
72
106
73
107
0
VERTEX
8
0
6
CONTINUOUS
62
252
70
128
10
0.000000
20
0.000000
30
0.000000
71
45
72
107
73
44
0
VERTEX
8
0
6
CONTINUOUS
62
252
70
128
10
0.000000
20
0.000000
30
0.000000
71
44
72
107
73
108
0
VERTEX
8
0
6
CONTINUOUS
62
252
70
128
10
0.000000
20
0.000000
30
0.000000
71
44
72
108
73
43
0
VERTEX
8
0
6
CONTINUOUS
62
252
70
128
10
0.000000
20
0.000000
30
0.000000
71
43
72
108
73
109
0
VERTEX
8
0
6
CONTINUOUS
62
252
70
128
10
0.000000
20
0.000000
30
0.000000
71
43
72
109
73
42
0
VERTEX
8
0
6
CONTINUOUS
62
252
70
128
10
0.000000
20
0.000000
30
0.000000
71
42
72
109
73
110
0
VERTEX
8
0
6
CONTINUOUS
62
252
70
128
10
0.000000
20
0.000000
30
0.000000
71
42
72
110
73
41
0
VERTEX
8
0
6
CONTINUOUS
62
252
70
128
10
0.000000
20
0.000000
30
0.000000
71
41
72
110
73
111
0
VERTEX
8
0
6
CONTINUOUS
62
252
70
128
10
0.000000
20
0.000000
30
0.000000
71
41
72
111
73
40
0
VERTEX
8
0
6
CONTINUOUS
62
252
70
128
10
0.000000
20
0.000000
30
0.000000
71
40
72
111
73
112
0
VERTEX
8
0
6
CONTINUOUS
62
252
70
128
10
0.000000
20
0.000000
30
0.000000
71
40
72
112
73
39
0
VERTEX
8
0
6
CONTINUOUS
62
252
70
128
10
0.000000
20
0.000000
30
0.000000
71
39
72
112
73
113
0
VERTEX
8
0
6
CONTINUOUS
62
252
70
128
10
0.000000
20
0.000000
30
0.000000
71
39
72
113
73
38
0
VERTEX
8
0
6
CONTINUOUS
62
252
70
128
10
0.000000
20
0.000000
30
0.000000
71
38
72
113
73
114
0
VERTEX
8
0
6
CONTINUOUS
62
252
70
128
10
0.000000
20
0.000000
30
0.000000
71
38
72
114
73
37
0
VERTEX
8
0
6
CONTINUOUS
62
252
70
128
10
0.000000
20
0.000000
30
0.000000
71
37
72
114
73
115
0
VERTEX
8
0
6
CONTINUOUS
62
252
70
128
10
0.000000
20
0.000000
30
0.000000
71
37
72
115
73
36
0
VERTEX
8
0
6
CONTINUOUS
62
252
70
128
10
0.000000
20
0.000000
30
0.000000
71
36
72
115
73
116
0
VERTEX
8
0
6
CONTINUOUS
62
252
70
128
10
0.000000
20
0.000000
30
0.000000
71
36
72
116
73
35
0
VERTEX
8
0
6
CONTINUOUS
62
252
70
128
10
0.000000
20
0.000000
30
0.000000
71
35
72
116
73
117
0
VERTEX
8
0
6
CONTINUOUS
62
252
70
128
10
0.000000
20
0.000000
30
0.000000
71
35
72
117
73
34
0
VERTEX
8
0
6
CONTINUOUS
62
252
70
128
10
0.000000
20
0.000000
30
0.000000
71
34
72
117
73
118
0
VERTEX
8
0
6
CONTINUOUS
62
252
70
128
10
0.000000
20
0.000000
30
0.000000
71
34
72
118
73
33
0
VERTEX
8
0
6
CONTINUOUS
62
252
70
128
10
0.000000
20
0.000000
30
0.000000
71
33
72
118
73
119
0
VERTEX
8
0
6
CONTINUOUS
62
252
70
128
10
0.000000
20
0.000000
30
0.000000
71
33
72
119
73
32
0
VERTEX
8
0
6
CONTINUOUS
62
252
70
128
10
0.000000
20
0.000000
30
0.000000
71
32
72
119
73
120
0
VERTEX
8
0
6
CONTINUOUS
62
252
70
128
10
0.000000
20
0.000000
30
0.000000
71
32
72
120
73
31
0
VERTEX
8
0
6
CONTINUOUS
62
252
70
128
10
0.000000
20
0.000000
30
0.000000
71
31
72
120
73
61
0
VERTEX
8
0
6
CONTINUOUS
62
252
70
128
10
0.000000
20
0.000000
30
0.000000
71
31
72
61
73
30
0
VERTEX
8
0
6
CONTINUOUS
62
252
70
128
10
0.000000
20
0.000000
30
0.000000
71
30
72
61
73
62
0
VERTEX
8
0
6
CONTINUOUS
62
252
70
128
10
0.000000
20
0.000000
30
0.000000
71
30
72
62
73
29
0
VERTEX
8
0
6
CONTINUOUS
62
252
70
128
10
0.000000
20
0.000000
30
0.000000
71
29
72
62
73
63
0
VERTEX
8
0
6
CONTINUOUS
62
252
70
128
10
0.000000
20
0.000000
30
0.000000
71
29
72
63
73
28
0
VERTEX
8
0
6
CONTINUOUS
62
252
70
128
10
0.000000
20
0.000000
30
0.000000
71
28
72
63
73
64
0
VERTEX
8
0
6
CONTINUOUS
62
252
70
128
10
0.000000
20
0.000000
30
0.000000
71
28
72
64
73
27
0
VERTEX
8
0
6
CONTINUOUS
62
252
70
128
10
0.000000
20
0.000000
30
0.000000
71
27
72
64
73
65
0
VERTEX
8
0
6
CONTINUOUS
62
252
70
128
10
0.000000
20
0.000000
30
0.000000
71
27
72
65
73
26
0
VERTEX
8
0
6
CONTINUOUS
62
252
70
128
10
0.000000
20
0.000000
30
0.000000
71
26
72
65
73
66
0
VERTEX
8
0
6
CONTINUOUS
62
252
70
128
10
0.000000
20
0.000000
30
0.000000
71
26
72
66
73
25
0
VERTEX
8
0
6
CONTINUOUS
62
252
70
128
10
0.000000
20
0.000000
30
0.000000
71
25
72
66
73
67
0
VERTEX
8
0
6
CONTINUOUS
62
252
70
128
10
0.000000
20
0.000000
30
0.000000
71
25
72
67
73
24
0
VERTEX
8
0
6
CONTINUOUS
62
252
70
128
10
0.000000
20
0.000000
30
0.000000
71
24
72
67
73
68
0
VERTEX
8
0
6
CONTINUOUS
62
252
70
128
10
0.000000
20
0.000000
30
0.000000
71
24
72
68
73
23
0
VERTEX
8
0
6
CONTINUOUS
62
252
70
128
10
0.000000
20
0.000000
30
0.000000
71
23
72
68
73
69
0
VERTEX
8
0
6
CONTINUOUS
62
252
70
128
10
0.000000
20
0.000000
30
0.000000
71
23
72
69
73
22
0
VERTEX
8
0
6
CONTINUOUS
62
252
70
128
10
0.000000
20
0.000000
30
0.000000
71
22
72
69
73
70
0
VERTEX
8
0
6
CONTINUOUS
62
252
70
128
10
0.000000
20
0.000000
30
0.000000
71
22
72
70
73
21
0
VERTEX
8
0
6
CONTINUOUS
62
252
70
128
10
0.000000
20
0.000000
30
0.000000
71
21
72
70
73
71
0
VERTEX
8
0
6
CONTINUOUS
62
252
70
128
10
0.000000
20
0.000000
30
0.000000
71
21
72
71
73
20
0
VERTEX
8
0
6
CONTINUOUS
62
252
70
128
10
0.000000
20
0.000000
30
0.000000
71
20
72
71
73
72
0
VERTEX
8
0
6
CONTINUOUS
62
252
70
128
10
0.000000
20
0.000000
30
0.000000
71
20
72
72
73
19
0
VERTEX
8
0
6
CONTINUOUS
62
252
70
128
10
0.000000
20
0.000000
30
0.000000
71
19
72
72
73
73
0
VERTEX
8
0
6
CONTINUOUS
62
252
70
128
10
0.000000
20
0.000000
30
0.000000
71
19
72
73
73
18
0
VERTEX
8
0
6
CONTINUOUS
62
252
70
128
10
0.000000
20
0.000000
30
0.000000
71
18
72
73
73
74
0
VERTEX
8
0
6
CONTINUOUS
62
252
70
128
10
0.000000
20
0.000000
30
0.000000
71
18
72
74
73
17
0
VERTEX
8
0
6
CONTINUOUS
62
252
70
128
10
0.000000
20
0.000000
30
0.000000
71
17
72
74
73
75
0
VERTEX
8
0
6
CONTINUOUS
62
252
70
128
10
0.000000
20
0.000000
30
0.000000
71
17
72
75
73
16
0
VERTEX
8
0
6
CONTINUOUS
62
252
70
128
10
0.000000
20
0.000000
30
0.000000
71
16
72
75
73
76
0
VERTEX
8
0
6
CONTINUOUS
62
252
70
128
10
0.000000
20
0.000000
30
0.000000
71
16
72
76
73
15
0
VERTEX
8
0
6
CONTINUOUS
62
252
70
128
10
0.000000
20
0.000000
30
0.000000
71
15
72
76
73
77
0
VERTEX
8
0
6
CONTINUOUS
62
252
70
128
10
0.000000
20
0.000000
30
0.000000
71
15
72
77
73
14
0
VERTEX
8
0
6
CONTINUOUS
62
252
70
128
10
0.000000
20
0.000000
30
0.000000
71
14
72
77
73
78
0
VERTEX
8
0
6
CONTINUOUS
62
252
70
128
10
0.000000
20
0.000000
30
0.000000
71
14
72
78
73
13
0
VERTEX
8
0
6
CONTINUOUS
62
252
70
128
10
0.000000
20
0.000000
30
0.000000
71
13
72
78
73
79
0
VERTEX
8
0
6
CONTINUOUS
62
252
70
128
10
0.000000
20
0.000000
30
0.000000
71
13
72
79
73
12
0
VERTEX
8
0
6
CONTINUOUS
62
252
70
128
10
0.000000
20
0.000000
30
0.000000
71
12
72
79
73
80
0
VERTEX
8
0
6
CONTINUOUS
62
252
70
128
10
0.000000
20
0.000000
30
0.000000
71
12
72
80
73
11
0
VERTEX
8
0
6
CONTINUOUS
62
252
70
128
10
0.000000
20
0.000000
30
0.000000
71
11
72
80
73
81
0
VERTEX
8
0
6
CONTINUOUS
62
252
70
128
10
0.000000
20
0.000000
30
0.000000
71
11
72
81
73
10
0
VERTEX
8
0
6
CONTINUOUS
62
252
70
128
10
0.000000
20
0.000000
30
0.000000
71
10
72
81
73
82
0
VERTEX
8
0
6
CONTINUOUS
62
252
70
128
10
0.000000
20
0.000000
30
0.000000
71
10
72
82
73
9
0
VERTEX
8
0
6
CONTINUOUS
62
252
70
128
10
0.000000
20
0.000000
30
0.000000
71
9
72
82
73
83
0
VERTEX
8
0
6
CONTINUOUS
62
252
70
128
10
0.000000
20
0.000000
30
0.000000
71
9
72
83
73
8
0
VERTEX
8
0
6
CONTINUOUS
62
252
70
128
10
0.000000
20
0.000000
30
0.000000
71
8
72
83
73
84
0
VERTEX
8
0
6
CONTINUOUS
62
252
70
128
10
0.000000
20
0.000000
30
0.000000
71
8
72
84
73
7
0
VERTEX
8
0
6
CONTINUOUS
62
252
70
128
10
0.000000
20
0.000000
30
0.000000
71
7
72
84
73
85
0
VERTEX
8
0
6
CONTINUOUS
62
252
70
128
10
0.000000
20
0.000000
30
0.000000
71
7
72
85
73
6
0
VERTEX
8
0
6
CONTINUOUS
62
252
70
128
10
0.000000
20
0.000000
30
0.000000
71
6
72
85
73
86
0
VERTEX
8
0
6
CONTINUOUS
62
252
70
128
10
0.000000
20
0.000000
30
0.000000
71
6
72
86
73
5
0
VERTEX
8
0
6
CONTINUOUS
62
252
70
128
10
0.000000
20
0.000000
30
0.000000
71
5
72
86
73
87
0
VERTEX
8
0
6
CONTINUOUS
62
252
70
128
10
0.000000
20
0.000000
30
0.000000
71
5
72
87
73
4
0
VERTEX
8
0
6
CONTINUOUS
62
252
70
128
10
0.000000
20
0.000000
30
0.000000
71
4
72
87
73
88
0
VERTEX
8
0
6
CONTINUOUS
62
252
70
128
10
0.000000
20
0.000000
30
0.000000
71
4
72
88
73
3
0
VERTEX
8
0
6
CONTINUOUS
62
252
70
128
10
0.000000
20
0.000000
30
0.000000
71
3
72
88
73
89
0
VERTEX
8
0
6
CONTINUOUS
62
252
70
128
10
0.000000
20
0.000000
30
0.000000
71
3
72
89
73
2
0
VERTEX
8
0
6
CONTINUOUS
62
252
70
128
10
0.000000
20
0.000000
30
0.000000
71
2
72
89
73
90
0
SEQEND
0
POLYLINE
66
1
8
0
6
CONTINUOUS
62
252
70
64
75
0
10
0.000000
20
0.000000
30
0.000000
0
VERTEX
8
0
6
CONTINUOUS
62
252
70
192
10
0.000000
20
0.000000
30
-0.195000
0
VERTEX
8
0
6
CONTINUOUS
62
252
70
192
10
0.000000
20
-0.020383
30
-0.193932
0
VERTEX
8
0
6
CONTINUOUS
62
252
70
192
10
0.000000
20
-0.040543
30
-0.190739
0
VERTEX
8
0
6
CONTINUOUS
62
252
70
192
10
0.000000
20
-0.060258
30
-0.185456
0
VERTEX
8
0
6
CONTINUOUS
62
252
70
192
10
0.000000
20
-0.079314
30
-0.178141
0
VERTEX
8
0
6
CONTINUOUS
62
252
70
192
10
0.000000
20
-0.097500
30
-0.168875
0
VERTEX
8
0
6
CONTINUOUS
62
252
70
192
10
0.000000
20
-0.114618
30
-0.157758
0
VERTEX
8
0
6
CONTINUOUS
62
252
70
192
10
0.000000
20
-0.130480
30
-0.144913
0
VERTEX
8
0
6
CONTINUOUS
62
252
70
192
10
0.000000
20
-0.144913
30
-0.130480
0
VERTEX
8
0
6
CONTINUOUS
62
252
70
192
10
0.000000
20
-0.157758
30
-0.114618
0
VERTEX
8
0
6
CONTINUOUS
62
252
70
192
10
0.000000
20
-0.168875
30
-0.097500
0
VERTEX
8
0
6
CONTINUOUS
62
252
70
192
10
0.000000
20
-0.178141
30
-0.079314
0
VERTEX
8
0
6
CONTINUOUS
62
252
70
192
10
0.000000
20
-0.185456
30
-0.060258
0
VERTEX
8
0
6
CONTINUOUS
62
252
70
192
10
0.000000
20
-0.190739
30
-0.040543
0
VERTEX
8
0
6
CONTINUOUS
62
252
70
192
10
0.000000
20
-0.193932
30
-0.020383
0
VERTEX
8
0
6
CONTINUOUS
62
252
70
192
10
-0.000000
20
-0.195000
30
0.000000
0
VERTEX
8
0
6
CONTINUOUS
62
252
70
192
10
-0.000000
20
-0.193932
30
0.020383
0
VERTEX
8
0
6
CONTINUOUS
62
252
70
192
10
-0.000000
20
-0.190739
30
0.040543
0
VERTEX
8
0
6
CONTINUOUS
62
252
70
192
10
-0.000000
20
-0.185456
30
0.060258
0
VERTEX
8
0
6
CONTINUOUS
62
252
70
192
10
-0.000000
20
-0.178141
30
0.079314
0
VERTEX
8
0
6
CONTINUOUS
62
252
70
192
10
-0.000000
20
-0.168875
30
0.097500
0
VERTEX
8
0
6
CONTINUOUS
62
252
70
192
10
-0.000000
20
-0.157758
30
0.114618
0
VERTEX
8
0
6
CONTINUOUS
62
252
70
192
10
-0.000000
20
-0.144913
30
0.130480
0
VERTEX
8
0
6
CONTINUOUS
62
252
70
192
10
-0.000000
20
-0.130480
30
0.144913
0
VERTEX
8
0
6
CONTINUOUS
62
252
70
192
10
-0.000000
20
-0.114618
30
0.157758
0
VERTEX
8
0
6
CONTINUOUS
62
252
70
192
10
-0.000000
20
-0.097500
30
0.168875
0
VERTEX
8
0
6
CONTINUOUS
62
252
70
192
10
-0.000000
20
-0.079314
30
0.178141
0
VERTEX
8
0
6
CONTINUOUS
62
252
70
192
10
-0.000000
20
-0.060258
30
0.185456
0
VERTEX
8
0
6
CONTINUOUS
62
252
70
192
10
-0.000000
20
-0.040543
30
0.190739
0
VERTEX
8
0
6
CONTINUOUS
62
252
70
192
10
-0.000000
20
-0.020383
30
0.193932
0
VERTEX
8
0
6
CONTINUOUS
62
252
70
192
10
-0.000000
20
0.000000
30
0.195000
0
VERTEX
8
0
6
CONTINUOUS
62
252
70
192
10
-0.000000
20
0.020383
30
0.193932
0
VERTEX
8
0
6
CONTINUOUS
62
252
70
192
10
-0.000000
20
0.040543
30
0.190739
0
VERTEX
8
0
6
CONTINUOUS
62
252
70
192
10
-0.000000
20
0.060258
30
0.185456
0
VERTEX
8
0
6
CONTINUOUS
62
252
70
192
10
-0.000000
20
0.079314
30
0.178141
0
VERTEX
8
0
6
CONTINUOUS
62
252
70
192
10
-0.000000
20
0.097500
30
0.168875
0
VERTEX
8
0
6
CONTINUOUS
62
252
70
192
10
-0.000000
20
0.114618
30
0.157758
0
VERTEX
8
0
6
CONTINUOUS
62
252
70
192
10
-0.000000
20
0.130480
30
0.144913
0
VERTEX
8
0
6
CONTINUOUS
62
252
70
192
10
-0.000000
20
0.144913
30
0.130480
0
VERTEX
8
0
6
CONTINUOUS
62
252
70
192
10
-0.000000
20
0.157758
30
0.114618
0
VERTEX
8
0
6
CONTINUOUS
62
252
70
192
10
-0.000000
20
0.168875
30
0.097500
0
VERTEX
8
0
6
CONTINUOUS
62
252
70
192
10
-0.000000
20
0.178141
30
0.079314
0
VERTEX
8
0
6
CONTINUOUS
62
252
70
192
10
-0.000000
20
0.185456
30
0.060258
0
VERTEX
8
0
6
CONTINUOUS
62
252
70
192
10
-0.000000
20
0.190739
30
0.040543
0
VERTEX
8
0
6
CONTINUOUS
62
252
70
192
10
-0.000000
20
0.193932
30
0.020383
0
VERTEX
8
0
6
CONTINUOUS
62
252
70
192
10
0.000000
20
0.195000
30
-0.000000
0
VERTEX
8
0
6
CONTINUOUS
62
252
70
192
10
0.000000
20
0.193932
30
-0.020383
0
VERTEX
8
0
6
CONTINUOUS
62
252
70
192
10
0.000000
20
0.190739
30
-0.040543
0
VERTEX
8
0
6
CONTINUOUS
62
252
70
192
10
0.000000
20
0.185456
30
-0.060258
0
VERTEX
8
0
6
CONTINUOUS
62
252
70
192
10
0.000000
20
0.178141
30
-0.079314
0
VERTEX
8
0
6
CONTINUOUS
62
252
70
192
10
0.000000
20
0.168875
30
-0.097500
0
VERTEX
8
0
6
CONTINUOUS
62
252
70
192
10
0.000000
20
0.157758
30
-0.114618
0
VERTEX
8
0
6
CONTINUOUS
62
252
70
192
10
0.000000
20
0.144913
30
-0.130480
0
VERTEX
8
0
6
CONTINUOUS
62
252
70
192
10
0.000000
20
0.130480
30
-0.144913
0
VERTEX
8
0
6
CONTINUOUS
62
252
70
192
10
0.000000
20
0.114618
30
-0.157758
0
VERTEX
8
0
6
CONTINUOUS
62
252
70
192
10
0.000000
20
0.097500
30
-0.168875
0
VERTEX
8
0
6
CONTINUOUS
62
252
70
192
10
0.000000
20
0.079314
30
-0.178141
0
VERTEX
8
0
6
CONTINUOUS
62
252
70
192
10
0.000000
20
0.060258
30
-0.185456
0
VERTEX
8
0
6
CONTINUOUS
62
252
70
192
10
0.000000
20
0.040543
30
-0.190739
0
VERTEX
8
0
6
CONTINUOUS
62
252
70
192
10
0.000000
20
0.020383
30
-0.193932
0
VERTEX
8
0
6
CONTINUOUS
62
252
70
192
10
1.220013
20
0.000000
30
-0.195000
0
VERTEX
8
0
6
CONTINUOUS
62
252
70
192
10
1.220013
20
0.020383
30
-0.193932
0
VERTEX
8
0
6
CONTINUOUS
62
252
70
192
10
1.220013
20
0.040543
30
-0.190739
0
VERTEX
8
0
6
CONTINUOUS
62
252
70
192
10
1.220013
20
0.060258
30
-0.185456
0
VERTEX
8
0
6
CONTINUOUS
62
252
70
192
10
1.220013
20
0.079314
30
-0.178141
0
VERTEX
8
0
6
CONTINUOUS
62
252
70
192
10
1.220013
20
0.097500
30
-0.168875
0
VERTEX
8
0
6
CONTINUOUS
62
252
70
192
10
1.220013
20
0.114618
30
-0.157758
0
VERTEX
8
0
6
CONTINUOUS
62
252
70
192
10
1.220013
20
0.130480
30
-0.144913
0
VERTEX
8
0
6
CONTINUOUS
62
252
70
192
10
1.220013
20
0.144913
30
-0.130480
0
VERTEX
8
0
6
CONTINUOUS
62
252
70
192
10
1.220013
20
0.157758
30
-0.114618
0
VERTEX
8
0
6
CONTINUOUS
62
252
70
192
10
1.220013
20
0.168875
30
-0.097500
0
VERTEX
8
0
6
CONTINUOUS
62
252
70
192
10
1.220013
20
0.178141
30
-0.079314
0
VERTEX
8
0
6
CONTINUOUS
62
252
70
192
10
1.220013
20
0.185456
30
-0.060258
0
VERTEX
8
0
6
CONTINUOUS
62
252
70
192
10
1.220013
20
0.190739
30
-0.040543
0
VERTEX
8
0
6
CONTINUOUS
62
252
70
192
10
1.220013
20
0.193932
30
-0.020383
0
VERTEX
8
0
6
CONTINUOUS
62
252
70
192
10
1.220013
20
0.195000
30
-0.000000
0
VERTEX
8
0
6
CONTINUOUS
62
252
70
192
10
1.220013
20
0.193932
30
0.020383
0
VERTEX
8
0
6
CONTINUOUS
62
252
70
192
10
1.220013
20
0.190739
30
0.040543
0
VERTEX
8
0
6
CONTINUOUS
62
252
70
192
10
1.220013
20
0.185456
30
0.060258
0
VERTEX
8
0
6
CONTINUOUS
62
252
70
192
10
1.220013
20
0.178141
30
0.079314
0
VERTEX
8
0
6
CONTINUOUS
62
252
70
192
10
1.220013
20
0.168875
30
0.097500
0
VERTEX
8
0
6
CONTINUOUS
62
252
70
192
10
1.220013
20
0.157758
30
0.114618
0
VERTEX
8
0
6
CONTINUOUS
62
252
70
192
10
1.220013
20
0.144913
30
0.130480
0
VERTEX
8
0
6
CONTINUOUS
62
252
70
192
10
1.220013
20
0.130480
30
0.144913
0
VERTEX
8
0
6
CONTINUOUS
62
252
70
192
10
1.220013
20
0.114618
30
0.157758
0
VERTEX
8
0
6
CONTINUOUS
62
252
70
192
10
1.220013
20
0.097500
30
0.168875
0
VERTEX
8
0
6
CONTINUOUS
62
252
70
192
10
1.220013
20
0.079314
30
0.178141
0
VERTEX
8
0
6
CONTINUOUS
62
252
70
192
10
1.220013
20
0.060258
30
0.185456
0
VERTEX
8
0
6
CONTINUOUS
62
252
70
192
10
1.220013
20
0.040543
30
0.190739
0
VERTEX
8
0
6
CONTINUOUS
62
252
70
192
10
1.220013
20
0.020383
30
0.193932
0
VERTEX
8
0
6
CONTINUOUS
62
252
70
192
10
1.220013
20
0.000000
30
0.195000
0
VERTEX
8
0
6
CONTINUOUS
62
252
70
192
10
1.220013
20
-0.020383
30
0.193932
0
VERTEX
8
0
6
CONTINUOUS
62
252
70
192
10
1.220013
20
-0.040543
30
0.190739
0
VERTEX
8
0
6
CONTINUOUS
62
252
70
192
10
1.220013
20
-0.060258
30
0.185456
0
VERTEX
8
0
6
CONTINUOUS
62
252
70
192
10
1.220013
20
-0.079314
30
0.178141
0
VERTEX
8
0
6
CONTINUOUS
62
252
70
192
10
1.220013
20
-0.097500
30
0.168875
0
VERTEX
8
0
6
CONTINUOUS
62
252
70
192
10
1.220013
20
-0.114618
30
0.157758
0
VERTEX
8
0
6
CONTINUOUS
62
252
70
192
10
1.220013
20
-0.130480
30
0.144913
0
VERTEX
8
0
6
CONTINUOUS
62
252
70
192
10
1.220013
20
-0.144913
30
0.130480
0
VERTEX
8
0
6
CONTINUOUS
62
252
70
192
10
1.220013
20
-0.157758
30
0.114618
0
VERTEX
8
0
6
CONTINUOUS
62
252
70
192
10
1.220013
20
-0.168875
30
0.097500
0
VERTEX
8
0
6
CONTINUOUS
62
252
70
192
10
1.220013
20
-0.178141
30
0.079314
0
VERTEX
8
0
6
CONTINUOUS
62
252
70
192
10
1.220013
20
-0.185456
30
0.060258
0
VERTEX
8
0
6
CONTINUOUS
62
252
70
192
10
1.220013
20
-0.190739
30
0.040543
0
VERTEX
8
0
6
CONTINUOUS
62
252
70
192
10
1.220013
20
-0.193932
30
0.020383
0
VERTEX
8
0
6
CONTINUOUS
62
252
70
192
10
1.220013
20
-0.195000
30
0.000000
0
VERTEX
8
0
6
CONTINUOUS
62
252
70
192
10
1.220013
20
-0.193932
30
-0.020383
0
VERTEX
8
0
6
CONTINUOUS
62
252
70
192
10
1.220013
20
-0.190739
30
-0.040543
0
VERTEX
8
0
6
CONTINUOUS
62
252
70
192
10
1.220013
20
-0.185456
30
-0.060258
0
VERTEX
8
0
6
CONTINUOUS
62
252
70
192
10
1.220013
20
-0.178141
30
-0.079314
0
VERTEX
8
0
6
CONTINUOUS
62
252
70
192
10
1.220013
20
-0.168875
30
-0.097500
0
VERTEX
8
0
6
CONTINUOUS
62
252
70
192
10
1.220013
20
-0.157758
30
-0.114618
0
VERTEX
8
0
6
CONTINUOUS
62
252
70
192
10
1.220013
20
-0.144913
30
-0.130480
0
VERTEX
8
0
6
CONTINUOUS
62
252
70
192
10
1.220013
20
-0.130480
30
-0.144913
0
VERTEX
8
0
6
CONTINUOUS
62
252
70
192
10
1.220013
20
-0.114618
30
-0.157758
0
VERTEX
8
0
6
CONTINUOUS
62
252
70
192
10
1.220013
20
-0.097500
30
-0.168875
0
VERTEX
8
0
6
CONTINUOUS
62
252
70
192
10
1.220013
20
-0.079314
30
-0.178141
0
VERTEX
8
0
6
CONTINUOUS
62
252
70
192
10
1.220013
20
-0.060258
30
-0.185456
0
VERTEX
8
0
6
CONTINUOUS
62
252
70
192
10
1.220013
20
-0.040543
30
-0.190739
0
VERTEX
8
0
6
CONTINUOUS
62
252
70
192
10
1.220013
20
-0.020383
30
-0.193932
0
VERTEX
8
0
6
CONTINUOUS
62
252
70
128
10
0.000000
20
0.000000
30
0.000000
71
2
72
120
73
1
0
VERTEX
8
0
6
CONTINUOUS
62
252
70
128
10
0.000000
20
0.000000
30
0.000000
71
1
72
120
73
61
0
VERTEX
8
0
6
CONTINUOUS
62
252
70
128
10
0.000000
20
0.000000
30
0.000000
71
1
72
61
73
60
0
VERTEX
8
0
6
CONTINUOUS
62
252
70
128
10
0.000000
20
0.000000
30
0.000000
71
60
72
61
73
62
0
VERTEX
8
0
6
CONTINUOUS
62
252
70
128
10
0.000000
20
0.000000
30
0.000000
71
60
72
62
73
59
0
VERTEX
8
0
6
CONTINUOUS
62
252
70
128
10
0.000000
20
0.000000
30
0.000000
71
59
72
62
73
63
0
VERTEX
8
0
6
CONTINUOUS
62
252
70
128
10
0.000000
20
0.000000
30
0.000000
71
59
72
63
73
58
0
VERTEX
8
0
6
CONTINUOUS
62
252
70
128
10
0.000000
20
0.000000
30
0.000000
71
58
72
63
73
64
0
VERTEX
8
0
6
CONTINUOUS
62
252
70
128
10
0.000000
20
0.000000
30
0.000000
71
58
72
64
73
57
0
VERTEX
8
0
6
CONTINUOUS
62
252
70
128
10
0.000000
20
0.000000
30
0.000000
71
57
72
64
73
65
0
VERTEX
8
0
6
CONTINUOUS
62
252
70
128
10
0.000000
20
0.000000
30
0.000000
71
57
72
65
73
56
0
VERTEX
8
0
6
CONTINUOUS
62
252
70
128
10
0.000000
20
0.000000
30
0.000000
71
56
72
65
73
66
0
VERTEX
8
0
6
CONTINUOUS
62
252
70
128
10
0.000000
20
0.000000
30
0.000000
71
56
72
66
73
55
0
VERTEX
8
0
6
CONTINUOUS
62
252
70
128
10
0.000000
20
0.000000
30
0.000000
71
55
72
66
73
67
0
VERTEX
8
0
6
CONTINUOUS
62
252
70
128
10
0.000000
20
0.000000
30
0.000000
71
55
72
67
73
54
0
VERTEX
8
0
6
CONTINUOUS
62
252
70
128
10
0.000000
20
0.000000
30
0.000000
71
54
72
67
73
68
0
VERTEX
8
0
6
CONTINUOUS
62
252
70
128
10
0.000000
20
0.000000
30
0.000000
71
54
72
68
73
53
0
VERTEX
8
0
6
CONTINUOUS
62
252
70
128
10
0.000000
20
0.000000
30
0.000000
71
53
72
68
73
69
0
VERTEX
8
0
6
CONTINUOUS
62
252
70
128
10
0.000000
20
0.000000
30
0.000000
71
53
72
69
73
52
0
VERTEX
8
0
6
CONTINUOUS
62
252
70
128
10
0.000000
20
0.000000
30
0.000000
71
52
72
69
73
70
0
VERTEX
8
0
6
CONTINUOUS
62
252
70
128
10
0.000000
20
0.000000
30
0.000000
71
52
72
70
73
51
0
VERTEX
8
0
6
CONTINUOUS
62
252
70
128
10
0.000000
20
0.000000
30
0.000000
71
51
72
70
73
71
0
VERTEX
8
0
6
CONTINUOUS
62
252
70
128
10
0.000000
20
0.000000
30
0.000000
71
51
72
71
73
50
0
VERTEX
8
0
6
CONTINUOUS
62
252
70
128
10
0.000000
20
0.000000
30
0.000000
71
50
72
71
73
72
0
VERTEX
8
0
6
CONTINUOUS
62
252
70
128
10
0.000000
20
0.000000
30
0.000000
71
50
72
72
73
49
0
VERTEX
8
0
6
CONTINUOUS
62
252
70
128
10
0.000000
20
0.000000
30
0.000000
71
49
72
72
73
73
0
VERTEX
8
0
6
CONTINUOUS
62
252
70
128
10
0.000000
20
0.000000
30
0.000000
71
49
72
73
73
48
0
VERTEX
8
0
6
CONTINUOUS
62
252
70
128
10
0.000000
20
0.000000
30
0.000000
71
48
72
73
73
74
0
VERTEX
8
0
6
CONTINUOUS
62
252
70
128
10
0.000000
20
0.000000
30
0.000000
71
48
72
74
73
47
0
VERTEX
8
0
6
CONTINUOUS
62
252
70
128
10
0.000000
20
0.000000
30
0.000000
71
47
72
74
73
75
0
VERTEX
8
0
6
CONTINUOUS
62
252
70
128
10
0.000000
20
0.000000
30
0.000000
71
47
72
75
73
76
0
VERTEX
8
0
6
CONTINUOUS
62
252
70
128
10
0.000000
20
0.000000
30
0.000000
71
120
72
2
73
119
0
VERTEX
8
0
6
CONTINUOUS
62
252
70
128
10
0.000000
20
0.000000
30
0.000000
71
119
72
2
73
3
0
VERTEX
8
0
6
CONTINUOUS
62
252
70
128
10
0.000000
20
0.000000
30
0.000000
71
119
72
3
73
118
0
VERTEX
8
0
6
CONTINUOUS
62
252
70
128
10
0.000000
20
0.000000
30
0.000000
71
118
72
3
73
4
0
VERTEX
8
0
6
CONTINUOUS
62
252
70
128
10
0.000000
20
0.000000
30
0.000000
71
118
72
4
73
117
0
VERTEX
8
0
6
CONTINUOUS
62
252
70
128
10
0.000000
20
0.000000
30
0.000000
71
117
72
4
73
5
0
VERTEX
8
0
6
CONTINUOUS
62
252
70
128
10
0.000000
20
0.000000
30
0.000000
71
117
72
5
73
116
0
VERTEX
8
0
6
CONTINUOUS
62
252
70
128
10
0.000000
20
0.000000
30
0.000000
71
116
72
5
73
6
0
VERTEX
8
0
6
CONTINUOUS
62
252
70
128
10
0.000000
20
0.000000
30
0.000000
71
116
72
6
73
115
0
VERTEX
8
0
6
CONTINUOUS
62
252
70
128
10
0.000000
20
0.000000
30
0.000000
71
115
72
6
73
7
0
VERTEX
8
0
6
CONTINUOUS
62
252
70
128
10
0.000000
20
0.000000
30
0.000000
71
115
72
7
73
114
0
VERTEX
8
0
6
CONTINUOUS
62
252
70
128
10
0.000000
20
0.000000
30
0.000000
71
114
72
7
73
8
0
VERTEX
8
0
6
CONTINUOUS
62
252
70
128
10
0.000000
20
0.000000
30
0.000000
71
114
72
8
73
113
0
VERTEX
8
0
6
CONTINUOUS
62
252
70
128
10
0.000000
20
0.000000
30
0.000000
71
113
72
8
73
9
0
VERTEX
8
0
6
CONTINUOUS
62
252
70
128
10
0.000000
20
0.000000
30
0.000000
71
113
72
9
73
112
0
VERTEX
8
0
6
CONTINUOUS
62
252
70
128
10
0.000000
20
0.000000
30
0.000000
71
112
72
9
73
10
0
VERTEX
8
0
6
CONTINUOUS
62
252
70
128
10
0.000000
20
0.000000
30
0.000000
71
112
72
10
73
111
0
VERTEX
8
0
6
CONTINUOUS
62
252
70
128
10
0.000000
20
0.000000
30
0.000000
71
111
72
10
73
11
0
VERTEX
8
0
6
CONTINUOUS
62
252
70
128
10
0.000000
20
0.000000
30
0.000000
71
111
72
11
73
110
0
VERTEX
8
0
6
CONTINUOUS
62
252
70
128
10
0.000000
20
0.000000
30
0.000000
71
110
72
11
73
12
0
VERTEX
8
0
6
CONTINUOUS
62
252
70
128
10
0.000000
20
0.000000
30
0.000000
71
110
72
12
73
109
0
VERTEX
8
0
6
CONTINUOUS
62
252
70
128
10
0.000000
20
0.000000
30
0.000000
71
109
72
12
73
13
0
VERTEX
8
0
6
CONTINUOUS
62
252
70
128
10
0.000000
20
0.000000
30
0.000000
71
109
72
13
73
108
0
VERTEX
8
0
6
CONTINUOUS
62
252
70
128
10
0.000000
20
0.000000
30
0.000000
71
108
72
13
73
14
0
VERTEX
8
0
6
CONTINUOUS
62
252
70
128
10
0.000000
20
0.000000
30
0.000000
71
108
72
14
73
107
0
VERTEX
8
0
6
CONTINUOUS
62
252
70
128
10
0.000000
20
0.000000
30
0.000000
71
107
72
14
73
15
0
VERTEX
8
0
6
CONTINUOUS
62
252
70
128
10
0.000000
20
0.000000
30
0.000000
71
107
72
15
73
16
0
VERTEX
8
0
6
CONTINUOUS
62
252
70
128
10
0.000000
20
0.000000
30
0.000000
71
107
72
16
73
106
0
VERTEX
8
0
6
CONTINUOUS
62
252
70
128
10
0.000000
20
0.000000
30
0.000000
71
106
72
16
73
17
0
VERTEX
8
0
6
CONTINUOUS
62
252
70
128
10
0.000000
20
0.000000
30
0.000000
71
106
72
17
73
105
0
VERTEX
8
0
6
CONTINUOUS
62
252
70
128
10
0.000000
20
0.000000
30
0.000000
71
105
72
17
73
18
0
VERTEX
8
0
6
CONTINUOUS
62
252
70
128
10
0.000000
20
0.000000
30
0.000000
71
105
72
18
73
104
0
VERTEX
8
0
6
CONTINUOUS
62
252
70
128
10
0.000000
20
0.000000
30
0.000000
71
104
72
18
73
19
0
VERTEX
8
0
6
CONTINUOUS
62
252
70
128
10
0.000000
20
0.000000
30
0.000000
71
104
72
19
73
103
0
VERTEX
8
0
6
CONTINUOUS
62
252
70
128
10
0.000000
20
0.000000
30
0.000000
71
103
72
19
73
20
0
VERTEX
8
0
6
CONTINUOUS
62
252
70
128
10
0.000000
20
0.000000
30
0.000000
71
103
72
20
73
102
0
VERTEX
8
0
6
CONTINUOUS
62
252
70
128
10
0.000000
20
0.000000
30
0.000000
71
102
72
20
73
21
0
VERTEX
8
0
6
CONTINUOUS
62
252
70
128
10
0.000000
20
0.000000
30
0.000000
71
102
72
21
73
101
0
VERTEX
8
0
6
CONTINUOUS
62
252
70
128
10
0.000000
20
0.000000
30
0.000000
71
101
72
21
73
22
0
VERTEX
8
0
6
CONTINUOUS
62
252
70
128
10
0.000000
20
0.000000
30
0.000000
71
101
72
22
73
100
0
VERTEX
8
0
6
CONTINUOUS
62
252
70
128
10
0.000000
20
0.000000
30
0.000000
71
100
72
22
73
23
0
VERTEX
8
0
6
CONTINUOUS
62
252
70
128
10
0.000000
20
0.000000
30
0.000000
71
100
72
23
73
99
0
VERTEX
8
0
6
CONTINUOUS
62
252
70
128
10
0.000000
20
0.000000
30
0.000000
71
99
72
23
73
24
0
VERTEX
8
0
6
CONTINUOUS
62
252
70
128
10
0.000000
20
0.000000
30
0.000000
71
99
72
24
73
98
0
VERTEX
8
0
6
CONTINUOUS
62
252
70
128
10
0.000000
20
0.000000
30
0.000000
71
98
72
24
73
25
0
VERTEX
8
0
6
CONTINUOUS
62
252
70
128
10
0.000000
20
0.000000
30
0.000000
71
98
72
25
73
97
0
VERTEX
8
0
6
CONTINUOUS
62
252
70
128
10
0.000000
20
0.000000
30
0.000000
71
97
72
25
73
26
0
VERTEX
8
0
6
CONTINUOUS
62
252
70
128
10
0.000000
20
0.000000
30
0.000000
71
97
72
26
73
96
0
VERTEX
8
0
6
CONTINUOUS
62
252
70
128
10
0.000000
20
0.000000
30
0.000000
71
96
72
26
73
27
0
VERTEX
8
0
6
CONTINUOUS
62
252
70
128
10
0.000000
20
0.000000
30
0.000000
71
96
72
27
73
95
0
VERTEX
8
0
6
CONTINUOUS
62
252
70
128
10
0.000000
20
0.000000
30
0.000000
71
95
72
27
73
28
0
VERTEX
8
0
6
CONTINUOUS
62
252
70
128
10
0.000000
20
0.000000
30
0.000000
71
95
72
28
73
94
0
VERTEX
8
0
6
CONTINUOUS
62
252
70
128
10
0.000000
20
0.000000
30
0.000000
71
94
72
28
73
29
0
VERTEX
8
0
6
CONTINUOUS
62
252
70
128
10
0.000000
20
0.000000
30
0.000000
71
94
72
29
73
93
0
VERTEX
8
0
6
CONTINUOUS
62
252
70
128
10
0.000000
20
0.000000
30
0.000000
71
93
72
29
73
30
0
VERTEX
8
0
6
CONTINUOUS
62
252
70
128
10
0.000000
20
0.000000
30
0.000000
71
93
72
30
73
92
0
VERTEX
8
0
6
CONTINUOUS
62
252
70
128
10
0.000000
20
0.000000
30
0.000000
71
92
72
30
73
31
0
VERTEX
8
0
6
CONTINUOUS
62
252
70
128
10
0.000000
20
0.000000
30
0.000000
71
92
72
31
73
91
0
VERTEX
8
0
6
CONTINUOUS
62
252
70
128
10
0.000000
20
0.000000
30
0.000000
71
91
72
31
73
32
0
VERTEX
8
0
6
CONTINUOUS
62
252
70
128
10
0.000000
20
0.000000
30
0.000000
71
91
72
32
73
90
0
VERTEX
8
0
6
CONTINUOUS
62
252
70
128
10
0.000000
20
0.000000
30
0.000000
71
90
72
32
73
33
0
VERTEX
8
0
6
CONTINUOUS
62
252
70
128
10
0.000000
20
0.000000
30
0.000000
71
90
72
33
73
89
0
VERTEX
8
0
6
CONTINUOUS
62
252
70
128
10
0.000000
20
0.000000
30
0.000000
71
89
72
33
73
34
0
VERTEX
8
0
6
CONTINUOUS
62
252
70
128
10
0.000000
20
0.000000
30
0.000000
71
89
72
34
73
88
0
VERTEX
8
0
6
CONTINUOUS
62
252
70
128
10
0.000000
20
0.000000
30
0.000000
71
88
72
34
73
35
0
VERTEX
8
0
6
CONTINUOUS
62
252
70
128
10
0.000000
20
0.000000
30
0.000000
71
88
72
35
73
87
0
VERTEX
8
0
6
CONTINUOUS
62
252
70
128
10
0.000000
20
0.000000
30
0.000000
71
87
72
35
73
36
0
VERTEX
8
0
6
CONTINUOUS
62
252
70
128
10
0.000000
20
0.000000
30
0.000000
71
87
72
36
73
86
0
VERTEX
8
0
6
CONTINUOUS
62
252
70
128
10
0.000000
20
0.000000
30
0.000000
71
86
72
36
73
37
0
VERTEX
8
0
6
CONTINUOUS
62
252
70
128
10
0.000000
20
0.000000
30
0.000000
71
86
72
37
73
85
0
VERTEX
8
0
6
CONTINUOUS
62
252
70
128
10
0.000000
20
0.000000
30
0.000000
71
85
72
37
73
38
0
VERTEX
8
0
6
CONTINUOUS
62
252
70
128
10
0.000000
20
0.000000
30
0.000000
71
85
72
38
73
84
0
VERTEX
8
0
6
CONTINUOUS
62
252
70
128
10
0.000000
20
0.000000
30
0.000000
71
84
72
38
73
39
0
VERTEX
8
0
6
CONTINUOUS
62
252
70
128
10
0.000000
20
0.000000
30
0.000000
71
84
72
39
73
83
0
VERTEX
8
0
6
CONTINUOUS
62
252
70
128
10
0.000000
20
0.000000
30
0.000000
71
83
72
39
73
40
0
VERTEX
8
0
6
CONTINUOUS
62
252
70
128
10
0.000000
20
0.000000
30
0.000000
71
83
72
40
73
82
0
VERTEX
8
0
6
CONTINUOUS
62
252
70
128
10
0.000000
20
0.000000
30
0.000000
71
82
72
40
73
41
0
VERTEX
8
0
6
CONTINUOUS
62
252
70
128
10
0.000000
20
0.000000
30
0.000000
71
82
72
41
73
81
0
VERTEX
8
0
6
CONTINUOUS
62
252
70
128
10
0.000000
20
0.000000
30
0.000000
71
81
72
41
73
42
0
VERTEX
8
0
6
CONTINUOUS
62
252
70
128
10
0.000000
20
0.000000
30
0.000000
71
81
72
42
73
80
0
VERTEX
8
0
6
CONTINUOUS
62
252
70
128
10
0.000000
20
0.000000
30
0.000000
71
80
72
42
73
43
0
VERTEX
8
0
6
CONTINUOUS
62
252
70
128
10
0.000000
20
0.000000
30
0.000000
71
80
72
43
73
79
0
VERTEX
8
0
6
CONTINUOUS
62
252
70
128
10
0.000000
20
0.000000
30
0.000000
71
79
72
43
73
44
0
VERTEX
8
0
6
CONTINUOUS
62
252
70
128
10
0.000000
20
0.000000
30
0.000000
71
79
72
44
73
78
0
VERTEX
8
0
6
CONTINUOUS
62
252
70
128
10
0.000000
20
0.000000
30
0.000000
71
78
72
44
73
45
0
VERTEX
8
0
6
CONTINUOUS
62
252
70
128
10
0.000000
20
0.000000
30
0.000000
71
78
72
45
73
77
0
VERTEX
8
0
6
CONTINUOUS
62
252
70
128
10
0.000000
20
0.000000
30
0.000000
71
77
72
45
73
46
0
VERTEX
8
0
6
CONTINUOUS
62
252
70
128
10
0.000000
20
0.000000
30
0.000000
71
77
72
46
73
76
0
VERTEX
8
0
6
CONTINUOUS
62
252
70
128
10
0.000000
20
0.000000
30
0.000000
71
76
72
46
73
47
0
SEQEND
0
POLYLINE
66
1
8
0
6
CONTINUOUS
62
252
70
64
75
0
10
0.000000
20
0.000000
30
0.000000
0
VERTEX
8
0
6
CONTINUOUS
62
252
70
192
10
1.236325
20
0.000000
30
-0.211312
0
VERTEX
8
0
6
CONTINUOUS
62
252
70
192
10
1.236325
20
0.022088
30
-0.210155
0
VERTEX
8
0
6
CONTINUOUS
62
252
70
192
10
1.236325
20
0.043934
30
-0.206695
0
VERTEX
8
0
6
CONTINUOUS
62
252
70
192
10
1.236325
20
0.065299
30
-0.200970
0
VERTEX
8
0
6
CONTINUOUS
62
252
70
192
10
1.236325
20
0.085948
30
-0.193043
0
VERTEX
8
0
6
CONTINUOUS
62
252
70
192
10
1.236325
20
0.105656
30
-0.183002
0
VERTEX
8
0
6
CONTINUOUS
62
252
70
192
10
1.236325
20
0.124206
30
-0.170955
0
VERTEX
8
0
6
CONTINUOUS
62
252
70
192
10
1.236325
20
0.141395
30
-0.157036
0
VERTEX
8
0
6
CONTINUOUS
62
252
70
192
10
1.236325
20
0.157036
30
-0.141395
0
VERTEX
8
0
6
CONTINUOUS
62
252
70
192
10
1.236325
20
0.170955
30
-0.124206
0
VERTEX
8
0
6
CONTINUOUS
62
252
70
192
10
1.236325
20
0.183002
30
-0.105656
0
VERTEX
8
0
6
CONTINUOUS
62
252
70
192
10
1.236325
20
0.193043
30
-0.085948
0
VERTEX
8
0
6
CONTINUOUS
62
252
70
192
10
1.236325
20
0.200970
30
-0.065299
0
VERTEX
8
0
6
CONTINUOUS
62
252
70
192
10
1.236325
20
0.206695
30
-0.043934
0
VERTEX
8
0
6
CONTINUOUS
62
252
70
192
10
1.236325
20
0.210155
30
-0.022088
0
VERTEX
8
0
6
CONTINUOUS
62
252
70
192
10
1.236325
20
0.211312
30
-0.000000
0
VERTEX
8
0
6
CONTINUOUS
62
252
70
192
10
1.236325
20
0.210155
30
0.022088
0
VERTEX
8
0
6
CONTINUOUS
62
252
70
192
10
1.236325
20
0.206695
30
0.043934
0
VERTEX
8
0
6
CONTINUOUS
62
252
70
192
10
1.236325
20
0.200970
30
0.065299
0
VERTEX
8
0
6
CONTINUOUS
62
252
70
192
10
1.236325
20
0.193043
30
0.085948
0
VERTEX
8
0
6
CONTINUOUS
62
252
70
192
10
1.236325
20
0.183002
30
0.105656
0
VERTEX
8
0
6
CONTINUOUS
62
252
70
192
10
1.236325
20
0.170955
30
0.124206
0
VERTEX
8
0
6
CONTINUOUS
62
252
70
192
10
1.236325
20
0.157036
30
0.141395
0
VERTEX
8
0
6
CONTINUOUS
62
252
70
192
10
1.236325
20
0.141395
30
0.157036
0
VERTEX
8
0
6
CONTINUOUS
62
252
70
192
10
1.236325
20
0.124206
30
0.170955
0
VERTEX
8
0
6
CONTINUOUS
62
252
70
192
10
1.236325
20
0.105656
30
0.183002
0
VERTEX
8
0
6
CONTINUOUS
62
252
70
192
10
1.236325
20
0.085948
30
0.193043
0
VERTEX
8
0
6
CONTINUOUS
62
252
70
192
10
1.236325
20
0.065299
30
0.200970
0
VERTEX
8
0
6
CONTINUOUS
62
252
70
192
10
1.236325
20
0.043934
30
0.206695
0
VERTEX
8
0
6
CONTINUOUS
62
252
70
192
10
1.236325
20
0.022088
30
0.210155
0
VERTEX
8
0
6
CONTINUOUS
62
252
70
192
10
1.236325
20
0.000000
30
0.211312
0
VERTEX
8
0
6
CONTINUOUS
62
252
70
192
10
1.236325
20
-0.022088
30
0.210155
0
VERTEX
8
0
6
CONTINUOUS
62
252
70
192
10
1.236325
20
-0.043934
30
0.206695
0
VERTEX
8
0
6
CONTINUOUS
62
252
70
192
10
1.236325
20
-0.065299
30
0.200970
0
VERTEX
8
0
6
CONTINUOUS
62
252
70
192
10
1.236325
20
-0.085948
30
0.193043
0
VERTEX
8
0
6
CONTINUOUS
62
252
70
192
10
1.236325
20
-0.105656
30
0.183002
0
VERTEX
8
0
6
CONTINUOUS
62
252
70
192
10
1.236325
20
-0.124206
30
0.170955
0
VERTEX
8
0
6
CONTINUOUS
62
252
70
192
10
1.236325
20
-0.141395
30
0.157036
0
VERTEX
8
0
6
CONTINUOUS
62
252
70
192
10
1.236325
20
-0.157036
30
0.141395
0
VERTEX
8
0
6
CONTINUOUS
62
252
70
192
10
1.236325
20
-0.170955
30
0.124206
0
VERTEX
8
0
6
CONTINUOUS
62
252
70
192
10
1.236325
20
-0.183002
30
0.105656
0
VERTEX
8
0
6
CONTINUOUS
62
252
70
192
10
1.236325
20
-0.193043
30
0.085948
0
VERTEX
8
0
6
CONTINUOUS
62
252
70
192
10
1.236325
20
-0.200970
30
0.065299
0
VERTEX
8
0
6
CONTINUOUS
62
252
70
192
10
1.236325
20
-0.206695
30
0.043934
0
VERTEX
8
0
6
CONTINUOUS
62
252
70
192
10
1.236325
20
-0.210155
30
0.022088
0
VERTEX
8
0
6
CONTINUOUS
62
252
70
192
10
1.236325
20
-0.211312
30
0.000000
0
VERTEX
8
0
6
CONTINUOUS
62
252
70
192
10
1.236325
20
-0.210155
30
-0.022088
0
VERTEX
8
0
6
CONTINUOUS
62
252
70
192
10
1.236325
20
-0.206695
30
-0.043934
0
VERTEX
8
0
6
CONTINUOUS
62
252
70
192
10
1.236325
20
-0.200970
30
-0.065299
0
VERTEX
8
0
6
CONTINUOUS
62
252
70
192
10
1.236325
20
-0.193043
30
-0.085948
0
VERTEX
8
0
6
CONTINUOUS
62
252
70
192
10
1.236325
20
-0.183002
30
-0.105656
0
VERTEX
8
0
6
CONTINUOUS
62
252
70
192
10
1.236325
20
-0.170955
30
-0.124206
0
VERTEX
8
0
6
CONTINUOUS
62
252
70
192
10
1.236325
20
-0.157036
30
-0.141395
0
VERTEX
8
0
6
CONTINUOUS
62
252
70
192
10
1.236325
20
-0.141395
30
-0.157036
0
VERTEX
8
0
6
CONTINUOUS
62
252
70
192
10
1.236325
20
-0.124206
30
-0.170955
0
VERTEX
8
0
6
CONTINUOUS
62
252
70
192
10
1.236325
20
-0.105656
30
-0.183002
0
VERTEX
8
0
6
CONTINUOUS
62
252
70
192
10
1.236325
20
-0.085948
30
-0.193043
0
VERTEX
8
0
6
CONTINUOUS
62
252
70
192
10
1.236325
20
-0.065299
30
-0.200970
0
VERTEX
8
0
6
CONTINUOUS
62
252
70
192
10
1.236325
20
-0.043934
30
-0.206695
0
VERTEX
8
0
6
CONTINUOUS
62
252
70
192
10
1.236325
20
-0.022088
30
-0.210155
0
VERTEX
8
0
6
CONTINUOUS
62
252
70
192
10
1.220013
20
0.000000
30
-0.195000
0
VERTEX
8
0
6
CONTINUOUS
62
252
70
192
10
1.220013
20
-0.020383
30
-0.193932
0
VERTEX
8
0
6
CONTINUOUS
62
252
70
192
10
1.220013
20
-0.040543
30
-0.190739
0
VERTEX
8
0
6
CONTINUOUS
62
252
70
192
10
1.220013
20
-0.060258
30
-0.185456
0
VERTEX
8
0
6
CONTINUOUS
62
252
70
192
10
1.220013
20
-0.079314
30
-0.178141
0
VERTEX
8
0
6
CONTINUOUS
62
252
70
192
10
1.220013
20
-0.097500
30
-0.168875
0
VERTEX
8
0
6
CONTINUOUS
62
252
70
192
10
1.220013
20
-0.114618
30
-0.157758
0
VERTEX
8
0
6
CONTINUOUS
62
252
70
192
10
1.220013
20
-0.130480
30
-0.144913
0
VERTEX
8
0
6
CONTINUOUS
62
252
70
192
10
1.220013
20
-0.144913
30
-0.130480
0
VERTEX
8
0
6
CONTINUOUS
62
252
70
192
10
1.220013
20
-0.157758
30
-0.114618
0
VERTEX
8
0
6
CONTINUOUS
62
252
70
192
10
1.220013
20
-0.168875
30
-0.097500
0
VERTEX
8
0
6
CONTINUOUS
62
252
70
192
10
1.220013
20
-0.178141
30
-0.079314
0
VERTEX
8
0
6
CONTINUOUS
62
252
70
192
10
1.220013
20
-0.185456
30
-0.060258
0
VERTEX
8
0
6
CONTINUOUS
62
252
70
192
10
1.220013
20
-0.190739
30
-0.040543
0
VERTEX
8
0
6
CONTINUOUS
62
252
70
192
10
1.220013
20
-0.193932
30
-0.020383
0
VERTEX
8
0
6
CONTINUOUS
62
252
70
192
10
1.220013
20
-0.195000
30
0.000000
0
VERTEX
8
0
6
CONTINUOUS
62
252
70
192
10
1.220013
20
-0.193932
30
0.020383
0
VERTEX
8
0
6
CONTINUOUS
62
252
70
192
10
1.220013
20
-0.190739
30
0.040543
0
VERTEX
8
0
6
CONTINUOUS
62
252
70
192
10
1.220013
20
-0.185456
30
0.060258
0
VERTEX
8
0
6
CONTINUOUS
62
252
70
192
10
1.220013
20
-0.178141
30
0.079314
0
VERTEX
8
0
6
CONTINUOUS
62
252
70
192
10
1.220013
20
-0.168875
30
0.097500
0
VERTEX
8
0
6
CONTINUOUS
62
252
70
192
10
1.220013
20
-0.157758
30
0.114618
0
VERTEX
8
0
6
CONTINUOUS
62
252
70
192
10
1.220013
20
-0.144913
30
0.130480
0
VERTEX
8
0
6
CONTINUOUS
62
252
70
192
10
1.220013
20
-0.130480
30
0.144913
0
VERTEX
8
0
6
CONTINUOUS
62
252
70
192
10
1.220013
20
-0.114618
30
0.157758
0
VERTEX
8
0
6
CONTINUOUS
62
252
70
192
10
1.220013
20
-0.097500
30
0.168875
0
VERTEX
8
0
6
CONTINUOUS
62
252
70
192
10
1.220013
20
-0.079314
30
0.178141
0
VERTEX
8
0
6
CONTINUOUS
62
252
70
192
10
1.220013
20
-0.060258
30
0.185456
0
VERTEX
8
0
6
CONTINUOUS
62
252
70
192
10
1.220013
20
-0.040543
30
0.190739
0
VERTEX
8
0
6
CONTINUOUS
62
252
70
192
10
1.220013
20
-0.020383
30
0.193932
0
VERTEX
8
0
6
CONTINUOUS
62
252
70
192
10
1.220013
20
0.000000
30
0.195000
0
VERTEX
8
0
6
CONTINUOUS
62
252
70
192
10
1.220013
20
0.020383
30
0.193932
0
VERTEX
8
0
6
CONTINUOUS
62
252
70
192
10
1.220013
20
0.040543
30
0.190739
0
VERTEX
8
0
6
CONTINUOUS
62
252
70
192
10
1.220013
20
0.060258
30
0.185456
0
VERTEX
8
0
6
CONTINUOUS
62
252
70
192
10
1.220013
20
0.079314
30
0.178141
0
VERTEX
8
0
6
CONTINUOUS
62
252
70
192
10
1.220013
20
0.097500
30
0.168875
0
VERTEX
8
0
6
CONTINUOUS
62
252
70
192
10
1.220013
20
0.114618
30
0.157758
0
VERTEX
8
0
6
CONTINUOUS
62
252
70
192
10
1.220013
20
0.130480
30
0.144913
0
VERTEX
8
0
6
CONTINUOUS
62
252
70
192
10
1.220013
20
0.144913
30
0.130480
0
VERTEX
8
0
6
CONTINUOUS
62
252
70
192
10
1.220013
20
0.157758
30
0.114618
0
VERTEX
8
0
6
CONTINUOUS
62
252
70
192
10
1.220013
20
0.168875
30
0.097500
0
VERTEX
8
0
6
CONTINUOUS
62
252
70
192
10
1.220013
20
0.178141
30
0.079314
0
VERTEX
8
0
6
CONTINUOUS
62
252
70
192
10
1.220013
20
0.185456
30
0.060258
0
VERTEX
8
0
6
CONTINUOUS
62
252
70
192
10
1.220013
20
0.190739
30
0.040543
0
VERTEX
8
0
6
CONTINUOUS
62
252
70
192
10
1.220013
20
0.193932
30
0.020383
0
VERTEX
8
0
6
CONTINUOUS
62
252
70
192
10
1.220013
20
0.195000
30
-0.000000
0
VERTEX
8
0
6
CONTINUOUS
62
252
70
192
10
1.220013
20
0.193932
30
-0.020383
0
VERTEX
8
0
6
CONTINUOUS
62
252
70
192
10
1.220013
20
0.190739
30
-0.040543
0
VERTEX
8
0
6
CONTINUOUS
62
252
70
192
10
1.220013
20
0.185456
30
-0.060258
0
VERTEX
8
0
6
CONTINUOUS
62
252
70
192
10
1.220013
20
0.178141
30
-0.079314
0
VERTEX
8
0
6
CONTINUOUS
62
252
70
192
10
1.220013
20
0.168875
30
-0.097500
0
VERTEX
8
0
6
CONTINUOUS
62
252
70
192
10
1.220013
20
0.157758
30
-0.114618
0
VERTEX
8
0
6
CONTINUOUS
62
252
70
192
10
1.220013
20
0.144913
30
-0.130480
0
VERTEX
8
0
6
CONTINUOUS
62
252
70
192
10
1.220013
20
0.130480
30
-0.144913
0
VERTEX
8
0
6
CONTINUOUS
62
252
70
192
10
1.220013
20
0.114618
30
-0.157758
0
VERTEX
8
0
6
CONTINUOUS
62
252
70
192
10
1.220013
20
0.097500
30
-0.168875
0
VERTEX
8
0
6
CONTINUOUS
62
252
70
192
10
1.220013
20
0.079314
30
-0.178141
0
VERTEX
8
0
6
CONTINUOUS
62
252
70
192
10
1.220013
20
0.060258
30
-0.185456
0
VERTEX
8
0
6
CONTINUOUS
62
252
70
192
10
1.220013
20
0.040543
30
-0.190739
0
VERTEX
8
0
6
CONTINUOUS
62
252
70
192
10
1.220013
20
0.020383
30
-0.193932
0
VERTEX
8
0
6
CONTINUOUS
62
252
70
128
10
0.000000
20
0.000000
30
0.000000
71
2
72
120
73
1
0
VERTEX
8
0
6
CONTINUOUS
62
252
70
128
10
0.000000
20
0.000000
30
0.000000
71
1
72
120
73
61
0
VERTEX
8
0
6
CONTINUOUS
62
252
70
128
10
0.000000
20
0.000000
30
0.000000
71
1
72
61
73
60
0
VERTEX
8
0
6
CONTINUOUS
62
252
70
128
10
0.000000
20
0.000000
30
0.000000
71
60
72
61
73
62
0
VERTEX
8
0
6
CONTINUOUS
62
252
70
128
10
0.000000
20
0.000000
30
0.000000
71
60
72
62
73
63
0
VERTEX
8
0
6
CONTINUOUS
62
252
70
128
10
0.000000
20
0.000000
30
0.000000
71
120
72
2
73
119
0
VERTEX
8
0
6
CONTINUOUS
62
252
70
128
10
0.000000
20
0.000000
30
0.000000
71
119
72
2
73
3
0
VERTEX
8
0
6
CONTINUOUS
62
252
70
128
10
0.000000
20
0.000000
30
0.000000
71
119
72
3
73
118
0
VERTEX
8
0
6
CONTINUOUS
62
252
70
128
10
0.000000
20
0.000000
30
0.000000
71
118
72
3
73
4
0
VERTEX
8
0
6
CONTINUOUS
62
252
70
128
10
0.000000
20
0.000000
30
0.000000
71
118
72
4
73
117
0
VERTEX
8
0
6
CONTINUOUS
62
252
70
128
10
0.000000
20
0.000000
30
0.000000
71
117
72
4
73
5
0
VERTEX
8
0
6
CONTINUOUS
62
252
70
128
10
0.000000
20
0.000000
30
0.000000
71
117
72
5
73
6
0
VERTEX
8
0
6
CONTINUOUS
62
252
70
128
10
0.000000
20
0.000000
30
0.000000
71
7
72
115
73
6
0
VERTEX
8
0
6
CONTINUOUS
62
252
70
128
10
0.000000
20
0.000000
30
0.000000
71
6
72
115
73
116
0
VERTEX
8
0
6
CONTINUOUS
62
252
70
128
10
0.000000
20
0.000000
30
0.000000
71
6
72
116
73
117
0
VERTEX
8
0
6
CONTINUOUS
62
252
70
128
10
0.000000
20
0.000000
30
0.000000
71
115
72
7
73
114
0
VERTEX
8
0
6
CONTINUOUS
62
252
70
128
10
0.000000
20
0.000000
30
0.000000
71
114
72
7
73
8
0
VERTEX
8
0
6
CONTINUOUS
62
252
70
128
10
0.000000
20
0.000000
30
0.000000
71
114
72
8
73
9
0
VERTEX
8
0
6
CONTINUOUS
62
252
70
128
10
0.000000
20
0.000000
30
0.000000
71
114
72
9
73
113
0
VERTEX
8
0
6
CONTINUOUS
62
252
70
128
10
0.000000
20
0.000000
30
0.000000
71
113
72
9
73
10
0
VERTEX
8
0
6
CONTINUOUS
62
252
70
128
10
0.000000
20
0.000000
30
0.000000
71
113
72
10
73
112
0
VERTEX
8
0
6
CONTINUOUS
62
252
70
128
10
0.000000
20
0.000000
30
0.000000
71
112
72
10
73
11
0
VERTEX
8
0
6
CONTINUOUS
62
252
70
128
10
0.000000
20
0.000000
30
0.000000
71
112
72
11
73
111
0
VERTEX
8
0
6
CONTINUOUS
62
252
70
128
10
0.000000
20
0.000000
30
0.000000
71
111
72
11
73
12
0
VERTEX
8
0
6
CONTINUOUS
62
252
70
128
10
0.000000
20
0.000000
30
0.000000
71
111
72
12
73
110
0
VERTEX
8
0
6
CONTINUOUS
62
252
70
128
10
0.000000
20
0.000000
30
0.000000
71
110
72
12
73
109
0
VERTEX
8
0
6
CONTINUOUS
62
252
70
128
10
0.000000
20
0.000000
30
0.000000
71
109
72
12
73
13
0
VERTEX
8
0
6
CONTINUOUS
62
252
70
128
10
0.000000
20
0.000000
30
0.000000
71
109
72
13
73
108
0
VERTEX
8
0
6
CONTINUOUS
62
252
70
128
10
0.000000
20
0.000000
30
0.000000
71
108
72
13
73
14
0
VERTEX
8
0
6
CONTINUOUS
62
252
70
128
10
0.000000
20
0.000000
30
0.000000
71
108
72
14
73
107
0
VERTEX
8
0
6
CONTINUOUS
62
252
70
128
10
0.000000
20
0.000000
30
0.000000
71
107
72
14
73
15
0
VERTEX
8
0
6
CONTINUOUS
62
252
70
128
10
0.000000
20
0.000000
30
0.000000
71
107
72
15
73
106
0
VERTEX
8
0
6
CONTINUOUS
62
252
70
128
10
0.000000
20
0.000000
30
0.000000
71
106
72
15
73
16
0
VERTEX
8
0
6
CONTINUOUS
62
252
70
128
10
0.000000
20
0.000000
30
0.000000
71
106
72
16
73
105
0
VERTEX
8
0
6
CONTINUOUS
62
252
70
128
10
0.000000
20
0.000000
30
0.000000
71
105
72
16
73
17
0
VERTEX
8
0
6
CONTINUOUS
62
252
70
128
10
0.000000
20
0.000000
30
0.000000
71
105
72
17
73
104
0
VERTEX
8
0
6
CONTINUOUS
62
252
70
128
10
0.000000
20
0.000000
30
0.000000
71
104
72
17
73
18
0
VERTEX
8
0
6
CONTINUOUS
62
252
70
128
10
0.000000
20
0.000000
30
0.000000
71
104
72
18
73
19
0
VERTEX
8
0
6
CONTINUOUS
62
252
70
128
10
0.000000
20
0.000000
30
0.000000
71
20
72
102
73
19
0
VERTEX
8
0
6
CONTINUOUS
62
252
70
128
10
0.000000
20
0.000000
30
0.000000
71
19
72
102
73
103
0
VERTEX
8
0
6
CONTINUOUS
62
252
70
128
10
0.000000
20
0.000000
30
0.000000
71
19
72
103
73
104
0
VERTEX
8
0
6
CONTINUOUS
62
252
70
128
10
0.000000
20
0.000000
30
0.000000
71
102
72
20
73
101
0
VERTEX
8
0
6
CONTINUOUS
62
252
70
128
10
0.000000
20
0.000000
30
0.000000
71
101
72
20
73
21
0
VERTEX
8
0
6
CONTINUOUS
62
252
70
128
10
0.000000
20
0.000000
30
0.000000
71
101
72
21
73
100
0
VERTEX
8
0
6
CONTINUOUS
62
252
70
128
10
0.000000
20
0.000000
30
0.000000
71
100
72
21
73
22
0
VERTEX
8
0
6
CONTINUOUS
62
252
70
128
10
0.000000
20
0.000000
30
0.000000
71
100
72
22
73
99
0
VERTEX
8
0
6
CONTINUOUS
62
252
70
128
10
0.000000
20
0.000000
30
0.000000
71
99
72
22
73
23
0
VERTEX
8
0
6
CONTINUOUS
62
252
70
128
10
0.000000
20
0.000000
30
0.000000
71
99
72
23
73
98
0
VERTEX
8
0
6
CONTINUOUS
62
252
70
128
10
0.000000
20
0.000000
30
0.000000
71
98
72
23
73
24
0
VERTEX
8
0
6
CONTINUOUS
62
252
70
128
10
0.000000
20
0.000000
30
0.000000
71
98
72
24
73
97
0
VERTEX
8
0
6
CONTINUOUS
62
252
70
128
10
0.000000
20
0.000000
30
0.000000
71
97
72
24
73
25
0
VERTEX
8
0
6
CONTINUOUS
62
252
70
128
10
0.000000
20
0.000000
30
0.000000
71
97
72
25
73
96
0
VERTEX
8
0
6
CONTINUOUS
62
252
70
128
10
0.000000
20
0.000000
30
0.000000
71
96
72
25
73
26
0
VERTEX
8
0
6
CONTINUOUS
62
252
70
128
10
0.000000
20
0.000000
30
0.000000
71
96
72
26
73
95
0
VERTEX
8
0
6
CONTINUOUS
62
252
70
128
10
0.000000
20
0.000000
30
0.000000
71
95
72
26
73
27
0
VERTEX
8
0
6
CONTINUOUS
62
252
70
128
10
0.000000
20
0.000000
30
0.000000
71
95
72
27
73
28
0
VERTEX
8
0
6
CONTINUOUS
62
252
70
128
10
0.000000
20
0.000000
30
0.000000
71
29
72
93
73
28
0
VERTEX
8
0
6
CONTINUOUS
62
252
70
128
10
0.000000
20
0.000000
30
0.000000
71
28
72
93
73
94
0
VERTEX
8
0
6
CONTINUOUS
62
252
70
128
10
0.000000
20
0.000000
30
0.000000
71
28
72
94
73
95
0
VERTEX
8
0
6
CONTINUOUS
62
252
70
128
10
0.000000
20
0.000000
30
0.000000
71
29
72
30
73
93
0
VERTEX
8
0
6
CONTINUOUS
62
252
70
128
10
0.000000
20
0.000000
30
0.000000
71
93
72
30
73
92
0
VERTEX
8
0
6
CONTINUOUS
62
252
70
128
10
0.000000
20
0.000000
30
0.000000
71
92
72
30
73
91
0
VERTEX
8
0
6
CONTINUOUS
62
252
70
128
10
0.000000
20
0.000000
30
0.000000
71
91
72
30
73
31
0
VERTEX
8
0
6
CONTINUOUS
62
252
70
128
10
0.000000
20
0.000000
30
0.000000
71
91
72
31
73
32
0
VERTEX
8
0
6
CONTINUOUS
62
252
70
128
10
0.000000
20
0.000000
30
0.000000
71
91
72
32
73
90
0
VERTEX
8
0
6
CONTINUOUS
62
252
70
128
10
0.000000
20
0.000000
30
0.000000
71
90
72
32
73
33
0
VERTEX
8
0
6
CONTINUOUS
62
252
70
128
10
0.000000
20
0.000000
30
0.000000
71
90
72
33
73
89
0
VERTEX
8
0
6
CONTINUOUS
62
252
70
128
10
0.000000
20
0.000000
30
0.000000
71
89
72
33
73
88
0
VERTEX
8
0
6
CONTINUOUS
62
252
70
128
10
0.000000
20
0.000000
30
0.000000
71
88
72
33
73
34
0
VERTEX
8
0
6
CONTINUOUS
62
252
70
128
10
0.000000
20
0.000000
30
0.000000
71
88
72
34
73
87
0
VERTEX
8
0
6
CONTINUOUS
62
252
70
128
10
0.000000
20
0.000000
30
0.000000
71
87
72
34
73
35
0
VERTEX
8
0
6
CONTINUOUS
62
252
70
128
10
0.000000
20
0.000000
30
0.000000
71
87
72
35
73
86
0
VERTEX
8
0
6
CONTINUOUS
62
252
70
128
10
0.000000
20
0.000000
30
0.000000
71
86
72
35
73
36
0
VERTEX
8
0
6
CONTINUOUS
62
252
70
128
10
0.000000
20
0.000000
30
0.000000
71
86
72
36
73
85
0
VERTEX
8
0
6
CONTINUOUS
62
252
70
128
10
0.000000
20
0.000000
30
0.000000
71
85
72
36
73
37
0
VERTEX
8
0
6
CONTINUOUS
62
252
70
128
10
0.000000
20
0.000000
30
0.000000
71
85
72
37
73
38
0
VERTEX
8
0
6
CONTINUOUS
62
252
70
128
10
0.000000
20
0.000000
30
0.000000
71
39
72
83
73
38
0
VERTEX
8
0
6
CONTINUOUS
62
252
70
128
10
0.000000
20
0.000000
30
0.000000
71
38
72
83
73
84
0
VERTEX
8
0
6
CONTINUOUS
62
252
70
128
10
0.000000
20
0.000000
30
0.000000
71
38
72
84
73
85
0
VERTEX
8
0
6
CONTINUOUS
62
252
70
128
10
0.000000
20
0.000000
30
0.000000
71
83
72
39
73
82
0
VERTEX
8
0
6
CONTINUOUS
62
252
70
128
10
0.000000
20
0.000000
30
0.000000
71
82
72
39
73
40
0
VERTEX
8
0
6
CONTINUOUS
62
252
70
128
10
0.000000
20
0.000000
30
0.000000
71
82
72
40
73
81
0
VERTEX
8
0
6
CONTINUOUS
62
252
70
128
10
0.000000
20
0.000000
30
0.000000
71
81
72
40
73
41
0
VERTEX
8
0
6
CONTINUOUS
62
252
70
128
10
0.000000
20
0.000000
30
0.000000
71
81
72
41
73
80
0
VERTEX
8
0
6
CONTINUOUS
62
252
70
128
10
0.000000
20
0.000000
30
0.000000
71
80
72
41
73
42
0
VERTEX
8
0
6
CONTINUOUS
62
252
70
128
10
0.000000
20
0.000000
30
0.000000
71
80
72
42
73
79
0
VERTEX
8
0
6
CONTINUOUS
62
252
70
128
10
0.000000
20
0.000000
30
0.000000
71
79
72
42
73
43
0
VERTEX
8
0
6
CONTINUOUS
62
252
70
128
10
0.000000
20
0.000000
30
0.000000
71
79
72
43
73
78
0
VERTEX
8
0
6
CONTINUOUS
62
252
70
128
10
0.000000
20
0.000000
30
0.000000
71
78
72
43
73
44
0
VERTEX
8
0
6
CONTINUOUS
62
252
70
128
10
0.000000
20
0.000000
30
0.000000
71
78
72
44
73
77
0
VERTEX
8
0
6
CONTINUOUS
62
252
70
128
10
0.000000
20
0.000000
30
0.000000
71
77
72
44
73
45
0
VERTEX
8
0
6
CONTINUOUS
62
252
70
128
10
0.000000
20
0.000000
30
0.000000
71
77
72
45
73
76
0
VERTEX
8
0
6
CONTINUOUS
62
252
70
128
10
0.000000
20
0.000000
30
0.000000
71
76
72
45
73
46
0
VERTEX
8
0
6
CONTINUOUS
62
252
70
128
10
0.000000
20
0.000000
30
0.000000
71
76
72
46
73
75
0
VERTEX
8
0
6
CONTINUOUS
62
252
70
128
10
0.000000
20
0.000000
30
0.000000
71
75
72
46
73
47
0
VERTEX
8
0
6
CONTINUOUS
62
252
70
128
10
0.000000
20
0.000000
30
0.000000
71
75
72
47
73
48
0
VERTEX
8
0
6
CONTINUOUS
62
252
70
128
10
0.000000
20
0.000000
30
0.000000
71
49
72
73
73
48
0
VERTEX
8
0
6
CONTINUOUS
62
252
70
128
10
0.000000
20
0.000000
30
0.000000
71
48
72
73
73
74
0
VERTEX
8
0
6
CONTINUOUS
62
252
70
128
10
0.000000
20
0.000000
30
0.000000
71
48
72
74
73
75
0
VERTEX
8
0
6
CONTINUOUS
62
252
70
128
10
0.000000
20
0.000000
30
0.000000
71
73
72
49
73
72
0
VERTEX
8
0
6
CONTINUOUS
62
252
70
128
10
0.000000
20
0.000000
30
0.000000
71
72
72
49
73
50
0
VERTEX
8
0
6
CONTINUOUS
62
252
70
128
10
0.000000
20
0.000000
30
0.000000
71
72
72
50
73
51
0
VERTEX
8
0
6
CONTINUOUS
62
252
70
128
10
0.000000
20
0.000000
30
0.000000
71
72
72
51
73
71
0
VERTEX
8
0
6
CONTINUOUS
62
252
70
128
10
0.000000
20
0.000000
30
0.000000
71
71
72
51
73
52
0
VERTEX
8
0
6
CONTINUOUS
62
252
70
128
10
0.000000
20
0.000000
30
0.000000
71
71
72
52
73
70
0
VERTEX
8
0
6
CONTINUOUS
62
252
70
128
10
0.000000
20
0.000000
30
0.000000
71
70
72
52
73
69
0
VERTEX
8
0
6
CONTINUOUS
62
252
70
128
10
0.000000
20
0.000000
30
0.000000
71
69
72
52
73
53
0
VERTEX
8
0
6
CONTINUOUS
62
252
70
128
10
0.000000
20
0.000000
30
0.000000
71
69
72
53
73
68
0
VERTEX
8
0
6
CONTINUOUS
62
252
70
128
10
0.000000
20
0.000000
30
0.000000
71
68
72
53
73
54
0
VERTEX
8
0
6
CONTINUOUS
62
252
70
128
10
0.000000
20
0.000000
30
0.000000
71
68
72
54
73
67
0
VERTEX
8
0
6
CONTINUOUS
62
252
70
128
10
0.000000
20
0.000000
30
0.000000
71
67
72
54
73
55
0
VERTEX
8
0
6
CONTINUOUS
62
252
70
128
10
0.000000
20
0.000000
30
0.000000
71
67
72
55
73
66
0
VERTEX
8
0
6
CONTINUOUS
62
252
70
128
10
0.000000
20
0.000000
30
0.000000
71
66
72
55
73
56
0
VERTEX
8
0
6
CONTINUOUS
62
252
70
128
10
0.000000
20
0.000000
30
0.000000
71
66
72
56
73
57
0
VERTEX
8
0
6
CONTINUOUS
62
252
70
128
10
0.000000
20
0.000000
30
0.000000
71
58
72
64
73
57
0
VERTEX
8
0
6
CONTINUOUS
62
252
70
128
10
0.000000
20
0.000000
30
0.000000
71
57
72
64
73
65
0
VERTEX
8
0
6
CONTINUOUS
62
252
70
128
10
0.000000
20
0.000000
30
0.000000
71
57
72
65
73
66
0
VERTEX
8
0
6
CONTINUOUS
62
252
70
128
10
0.000000
20
0.000000
30
0.000000
71
64
72
58
73
63
0
VERTEX
8
0
6
CONTINUOUS
62
252
70
128
10
0.000000
20
0.000000
30
0.000000
71
63
72
58
73
59
0
VERTEX
8
0
6
CONTINUOUS
62
252
70
128
10
0.000000
20
0.000000
30
0.000000
71
63
72
59
73
60
0
SEQEND
0
POLYLINE
66
1
8
0
6
CONTINUOUS
62
252
70
64
75
0
10
0.000000
20
0.000000
30
0.000000
0
VERTEX
8
0
6
CONTINUOUS
62
252
70
192
10
1.295500
20
0.000000
30
0.211312
0
VERTEX
8
0
6
CONTINUOUS
62
252
70
192
10
1.295500
20
-0.022088
30
0.210155
0
VERTEX
8
0
6
CONTINUOUS
62
252
70
192
10
1.295500
20
-0.043934
30
0.206695
0
VERTEX
8
0
6
CONTINUOUS
62
252
70
192
10
1.295500
20
-0.065299
30
0.200970
0
VERTEX
8
0
6
CONTINUOUS
62
252
70
192
10
1.295500
20
-0.085948
30
0.193043
0
VERTEX
8
0
6
CONTINUOUS
62
252
70
192
10
1.295500
20
-0.105656
30
0.183002
0
VERTEX
8
0
6
CONTINUOUS
62
252
70
192
10
1.295500
20
-0.124206
30
0.170955
0
VERTEX
8
0
6
CONTINUOUS
62
252
70
192
10
1.295500
20
-0.141395
30
0.157036
0
VERTEX
8
0
6
CONTINUOUS
62
252
70
192
10
1.295500
20
-0.157036
30
0.141395
0
VERTEX
8
0
6
CONTINUOUS
62
252
70
192
10
1.295500
20
-0.170955
30
0.124206
0
VERTEX
8
0
6
CONTINUOUS
62
252
70
192
10
1.295500
20
-0.183002
30
0.105656
0
VERTEX
8
0
6
CONTINUOUS
62
252
70
192
10
1.295500
20
-0.193043
30
0.085948
0
VERTEX
8
0
6
CONTINUOUS
62
252
70
192
10
1.295500
20
-0.200970
30
0.065299
0
VERTEX
8
0
6
CONTINUOUS
62
252
70
192
10
1.295500
20
-0.206695
30
0.043934
0
VERTEX
8
0
6
CONTINUOUS
62
252
70
192
10
1.295500
20
-0.210155
30
0.022088
0
VERTEX
8
0
6
CONTINUOUS
62
252
70
192
10
1.295500
20
-0.211312
30
0.000000
0
VERTEX
8
0
6
CONTINUOUS
62
252
70
192
10
1.295500
20
-0.210155
30
-0.022088
0
VERTEX
8
0
6
CONTINUOUS
62
252
70
192
10
1.295500
20
-0.206695
30
-0.043934
0
VERTEX
8
0
6
CONTINUOUS
62
252
70
192
10
1.295500
20
-0.200970
30
-0.065299
0
VERTEX
8
0
6
CONTINUOUS
62
252
70
192
10
1.295500
20
-0.193043
30
-0.085948
0
VERTEX
8
0
6
CONTINUOUS
62
252
70
192
10
1.295500
20
-0.183002
30
-0.105656
0
VERTEX
8
0
6
CONTINUOUS
62
252
70
192
10
1.295500
20
-0.170955
30
-0.124206
0
VERTEX
8
0
6
CONTINUOUS
62
252
70
192
10
1.295500
20
-0.157036
30
-0.141395
0
VERTEX
8
0
6
CONTINUOUS
62
252
70
192
10
1.295500
20
-0.141395
30
-0.157036
0
VERTEX
8
0
6
CONTINUOUS
62
252
70
192
10
1.295500
20
-0.124206
30
-0.170955
0
VERTEX
8
0
6
CONTINUOUS
62
252
70
192
10
1.295500
20
-0.105656
30
-0.183002
0
VERTEX
8
0
6
CONTINUOUS
62
252
70
192
10
1.295500
20
-0.085948
30
-0.193043
0
VERTEX
8
0
6
CONTINUOUS
62
252
70
192
10
1.295500
20
-0.065299
30
-0.200970
0
VERTEX
8
0
6
CONTINUOUS
62
252
70
192
10
1.295500
20
-0.043934
30
-0.206695
0
VERTEX
8
0
6
CONTINUOUS
62
252
70
192
10
1.295500
20
-0.022088
30
-0.210155
0
VERTEX
8
0
6
CONTINUOUS
62
252
70
192
10
1.295500
20
-0.000000
30
-0.211312
0
VERTEX
8
0
6
CONTINUOUS
62
252
70
192
10
1.295500
20
0.022088
30
-0.210155
0
VERTEX
8
0
6
CONTINUOUS
62
252
70
192
10
1.295500
20
0.043934
30
-0.206695
0
VERTEX
8
0
6
CONTINUOUS
62
252
70
192
10
1.295500
20
0.065299
30
-0.200970
0
VERTEX
8
0
6
CONTINUOUS
62
252
70
192
10
1.295500
20
0.085948
30
-0.193043
0
VERTEX
8
0
6
CONTINUOUS
62
252
70
192
10
1.295500
20
0.105656
30
-0.183002
0
VERTEX
8
0
6
CONTINUOUS
62
252
70
192
10
1.295500
20
0.124206
30
-0.170955
0
VERTEX
8
0
6
CONTINUOUS
62
252
70
192
10
1.295500
20
0.141395
30
-0.157036
0
VERTEX
8
0
6
CONTINUOUS
62
252
70
192
10
1.295500
20
0.157036
30
-0.141395
0
VERTEX
8
0
6
CONTINUOUS
62
252
70
192
10
1.295500
20
0.170955
30
-0.124206
0
VERTEX
8
0
6
CONTINUOUS
62
252
70
192
10
1.295500
20
0.183002
30
-0.105656
0
VERTEX
8
0
6
CONTINUOUS
62
252
70
192
10
1.295500
20
0.193043
30
-0.085948
0
VERTEX
8
0
6
CONTINUOUS
62
252
70
192
10
1.295500
20
0.200970
30
-0.065299
0
VERTEX
8
0
6
CONTINUOUS
62
252
70
192
10
1.295500
20
0.206695
30
-0.043934
0
VERTEX
8
0
6
CONTINUOUS
62
252
70
192
10
1.295500
20
0.210155
30
-0.022088
0
VERTEX
8
0
6
CONTINUOUS
62
252
70
192
10
1.295500
20
0.211312
30
-0.000000
0
VERTEX
8
0
6
CONTINUOUS
62
252
70
192
10
1.295500
20
0.210155
30
0.022088
0
VERTEX
8
0
6
CONTINUOUS
62
252
70
192
10
1.295500
20
0.206695
30
0.043934
0
VERTEX
8
0
6
CONTINUOUS
62
252
70
192
10
1.295500
20
0.200970
30
0.065299
0
VERTEX
8
0
6
CONTINUOUS
62
252
70
192
10
1.295500
20
0.193043
30
0.085948
0
VERTEX
8
0
6
CONTINUOUS
62
252
70
192
10
1.295500
20
0.183002
30
0.105656
0
VERTEX
8
0
6
CONTINUOUS
62
252
70
192
10
1.295500
20
0.170955
30
0.124206
0
VERTEX
8
0
6
CONTINUOUS
62
252
70
192
10
1.295500
20
0.157036
30
0.141395
0
VERTEX
8
0
6
CONTINUOUS
62
252
70
192
10
1.295500
20
0.141395
30
0.157036
0
VERTEX
8
0
6
CONTINUOUS
62
252
70
192
10
1.295500
20
0.124206
30
0.170955
0
VERTEX
8
0
6
CONTINUOUS
62
252
70
192
10
1.295500
20
0.105656
30
0.183002
0
VERTEX
8
0
6
CONTINUOUS
62
252
70
192
10
1.295500
20
0.085948
30
0.193043
0
VERTEX
8
0
6
CONTINUOUS
62
252
70
192
10
1.295500
20
0.065299
30
0.200970
0
VERTEX
8
0
6
CONTINUOUS
62
252
70
192
10
1.295500
20
0.043934
30
0.206695
0
VERTEX
8
0
6
CONTINUOUS
62
252
70
192
10
1.295500
20
0.022088
30
0.210155
0
VERTEX
8
0
6
CONTINUOUS
62
252
70
192
10
1.236325
20
0.000000
30
-0.211312
0
VERTEX
8
0
6
CONTINUOUS
62
252
70
192
10
1.236325
20
-0.022088
30
-0.210155
0
VERTEX
8
0
6
CONTINUOUS
62
252
70
192
10
1.236325
20
-0.043934
30
-0.206695
0
VERTEX
8
0
6
CONTINUOUS
62
252
70
192
10
1.236325
20
-0.065299
30
-0.200970
0
VERTEX
8
0
6
CONTINUOUS
62
252
70
192
10
1.236325
20
-0.085948
30
-0.193043
0
VERTEX
8
0
6
CONTINUOUS
62
252
70
192
10
1.236325
20
-0.105656
30
-0.183002
0
VERTEX
8
0
6
CONTINUOUS
62
252
70
192
10
1.236325
20
-0.124206
30
-0.170955
0
VERTEX
8
0
6
CONTINUOUS
62
252
70
192
10
1.236325
20
-0.141395
30
-0.157036
0
VERTEX
8
0
6
CONTINUOUS
62
252
70
192
10
1.236325
20
-0.157036
30
-0.141395
0
VERTEX
8
0
6
CONTINUOUS
62
252
70
192
10
1.236325
20
-0.170955
30
-0.124206
0
VERTEX
8
0
6
CONTINUOUS
62
252
70
192
10
1.236325
20
-0.183002
30
-0.105656
0
VERTEX
8
0
6
CONTINUOUS
62
252
70
192
10
1.236325
20
-0.193043
30
-0.085948
0
VERTEX
8
0
6
CONTINUOUS
62
252
70
192
10
1.236325
20
-0.200970
30
-0.065299
0
VERTEX
8
0
6
CONTINUOUS
62
252
70
192
10
1.236325
20
-0.206695
30
-0.043934
0
VERTEX
8
0
6
CONTINUOUS
62
252
70
192
10
1.236325
20
-0.210155
30
-0.022088
0
VERTEX
8
0
6
CONTINUOUS
62
252
70
192
10
1.236325
20
-0.211312
30
0.000000
0
VERTEX
8
0
6
CONTINUOUS
62
252
70
192
10
1.236325
20
-0.210155
30
0.022088
0
VERTEX
8
0
6
CONTINUOUS
62
252
70
192
10
1.236325
20
-0.206695
30
0.043934
0
VERTEX
8
0
6
CONTINUOUS
62
252
70
192
10
1.236325
20
-0.200970
30
0.065299
0
VERTEX
8
0
6
CONTINUOUS
62
252
70
192
10
1.236325
20
-0.193043
30
0.085948
0
VERTEX
8
0
6
CONTINUOUS
62
252
70
192
10
1.236325
20
-0.183002
30
0.105656
0
VERTEX
8
0
6
CONTINUOUS
62
252
70
192
10
1.236325
20
-0.170955
30
0.124206
0
VERTEX
8
0
6
CONTINUOUS
62
252
70
192
10
1.236325
20
-0.157036
30
0.141395
0
VERTEX
8
0
6
CONTINUOUS
62
252
70
192
10
1.236325
20
-0.141395
30
0.157036
0
VERTEX
8
0
6
CONTINUOUS
62
252
70
192
10
1.236325
20
-0.124206
30
0.170955
0
VERTEX
8
0
6
CONTINUOUS
62
252
70
192
10
1.236325
20
-0.105656
30
0.183002
0
VERTEX
8
0
6
CONTINUOUS
62
252
70
192
10
1.236325
20
-0.085948
30
0.193043
0
VERTEX
8
0
6
CONTINUOUS
62
252
70
192
10
1.236325
20
-0.065299
30
0.200970
0
VERTEX
8
0
6
CONTINUOUS
62
252
70
192
10
1.236325
20
-0.043934
30
0.206695
0
VERTEX
8
0
6
CONTINUOUS
62
252
70
192
10
1.236325
20
-0.022088
30
0.210155
0
VERTEX
8
0
6
CONTINUOUS
62
252
70
192
10
1.236325
20
0.000000
30
0.211312
0
VERTEX
8
0
6
CONTINUOUS
62
252
70
192
10
1.236325
20
0.022088
30
0.210155
0
VERTEX
8
0
6
CONTINUOUS
62
252
70
192
10
1.236325
20
0.043934
30
0.206695
0
VERTEX
8
0
6
CONTINUOUS
62
252
70
192
10
1.236325
20
0.065299
30
0.200970
0
VERTEX
8
0
6
CONTINUOUS
62
252
70
192
10
1.236325
20
0.085948
30
0.193043
0
VERTEX
8
0
6
CONTINUOUS
62
252
70
192
10
1.236325
20
0.105656
30
0.183002
0
VERTEX
8
0
6
CONTINUOUS
62
252
70
192
10
1.236325
20
0.124206
30
0.170955
0
VERTEX
8
0
6
CONTINUOUS
62
252
70
192
10
1.236325
20
0.141395
30
0.157036
0
VERTEX
8
0
6
CONTINUOUS
62
252
70
192
10
1.236325
20
0.157036
30
0.141395
0
VERTEX
8
0
6
CONTINUOUS
62
252
70
192
10
1.236325
20
0.170955
30
0.124206
0
VERTEX
8
0
6
CONTINUOUS
62
252
70
192
10
1.236325
20
0.183002
30
0.105656
0
VERTEX
8
0
6
CONTINUOUS
62
252
70
192
10
1.236325
20
0.193043
30
0.085948
0
VERTEX
8
0
6
CONTINUOUS
62
252
70
192
10
1.236325
20
0.200970
30
0.065299
0
VERTEX
8
0
6
CONTINUOUS
62
252
70
192
10
1.236325
20
0.206695
30
0.043934
0
VERTEX
8
0
6
CONTINUOUS
62
252
70
192
10
1.236325
20
0.210155
30
0.022088
0
VERTEX
8
0
6
CONTINUOUS
62
252
70
192
10
1.236325
20
0.211312
30
-0.000000
0
VERTEX
8
0
6
CONTINUOUS
62
252
70
192
10
1.236325
20
0.210155
30
-0.022088
0
VERTEX
8
0
6
CONTINUOUS
62
252
70
192
10
1.236325
20
0.206695
30
-0.043934
0
VERTEX
8
0
6
CONTINUOUS
62
252
70
192
10
1.236325
20
0.200970
30
-0.065299
0
VERTEX
8
0
6
CONTINUOUS
62
252
70
192
10
1.236325
20
0.193043
30
-0.085948
0
VERTEX
8
0
6
CONTINUOUS
62
252
70
192
10
1.236325
20
0.183002
30
-0.105656
0
VERTEX
8
0
6
CONTINUOUS
62
252
70
192
10
1.236325
20
0.170955
30
-0.124206
0
VERTEX
8
0
6
CONTINUOUS
62
252
70
192
10
1.236325
20
0.157036
30
-0.141395
0
VERTEX
8
0
6
CONTINUOUS
62
252
70
192
10
1.236325
20
0.141395
30
-0.157036
0
VERTEX
8
0
6
CONTINUOUS
62
252
70
192
10
1.236325
20
0.124206
30
-0.170955
0
VERTEX
8
0
6
CONTINUOUS
62
252
70
192
10
1.236325
20
0.105656
30
-0.183002
0
VERTEX
8
0
6
CONTINUOUS
62
252
70
192
10
1.236325
20
0.085948
30
-0.193043
0
VERTEX
8
0
6
CONTINUOUS
62
252
70
192
10
1.236325
20
0.065299
30
-0.200970
0
VERTEX
8
0
6
CONTINUOUS
62
252
70
192
10
1.236325
20
0.043934
30
-0.206695
0
VERTEX
8
0
6
CONTINUOUS
62
252
70
192
10
1.236325
20
0.022088
30
-0.210155
0
VERTEX
8
0
6
CONTINUOUS
62
252
70
128
10
0.000000
20
0.000000
30
0.000000
71
2
72
91
73
1
0
VERTEX
8
0
6
CONTINUOUS
62
252
70
128
10
0.000000
20
0.000000
30
0.000000
71
1
72
91
73
92
0
VERTEX
8
0
6
CONTINUOUS
62
252
70
128
10
0.000000
20
0.000000
30
0.000000
71
1
72
92
73
60
0
VERTEX
8
0
6
CONTINUOUS
62
252
70
128
10
0.000000
20
0.000000
30
0.000000
71
60
72
92
73
93
0
VERTEX
8
0
6
CONTINUOUS
62
252
70
128
10
0.000000
20
0.000000
30
0.000000
71
60
72
93
73
59
0
VERTEX
8
0
6
CONTINUOUS
62
252
70
128
10
0.000000
20
0.000000
30
0.000000
71
59
72
93
73
94
0
VERTEX
8
0
6
CONTINUOUS
62
252
70
128
10
0.000000
20
0.000000
30
0.000000
71
59
72
94
73
58
0
VERTEX
8
0
6
CONTINUOUS
62
252
70
128
10
0.000000
20
0.000000
30
0.000000
71
58
72
94
73
95
0
VERTEX
8
0
6
CONTINUOUS
62
252
70
128
10
0.000000
20
0.000000
30
0.000000
71
58
72
95
73
57
0
VERTEX
8
0
6
CONTINUOUS
62
252
70
128
10
0.000000
20
0.000000
30
0.000000
71
57
72
95
73
96
0
VERTEX
8
0
6
CONTINUOUS
62
252
70
128
10
0.000000
20
0.000000
30
0.000000
71
57
72
96
73
56
0
VERTEX
8
0
6
CONTINUOUS
62
252
70
128
10
0.000000
20
0.000000
30
0.000000
71
56
72
96
73
97
0
VERTEX
8
0
6
CONTINUOUS
62
252
70
128
10
0.000000
20
0.000000
30
0.000000
71
56
72
97
73
55
0
VERTEX
8
0
6
CONTINUOUS
62
252
70
128
10
0.000000
20
0.000000
30
0.000000
71
55
72
97
73
98
0
VERTEX
8
0
6
CONTINUOUS
62
252
70
128
10
0.000000
20
0.000000
30
0.000000
71
55
72
98
73
54
0
VERTEX
8
0
6
CONTINUOUS
62
252
70
128
10
0.000000
20
0.000000
30
0.000000
71
54
72
98
73
99
0
VERTEX
8
0
6
CONTINUOUS
62
252
70
128
10
0.000000
20
0.000000
30
0.000000
71
54
72
99
73
53
0
VERTEX
8
0
6
CONTINUOUS
62
252
70
128
10
0.000000
20
0.000000
30
0.000000
71
53
72
99
73
100
0
VERTEX
8
0
6
CONTINUOUS
62
252
70
128
10
0.000000
20
0.000000
30
0.000000
71
53
72
100
73
52
0
VERTEX
8
0
6
CONTINUOUS
62
252
70
128
10
0.000000
20
0.000000
30
0.000000
71
52
72
100
73
101
0
VERTEX
8
0
6
CONTINUOUS
62
252
70
128
10
0.000000
20
0.000000
30
0.000000
71
52
72
101
73
51
0
VERTEX
8
0
6
CONTINUOUS
62
252
70
128
10
0.000000
20
0.000000
30
0.000000
71
51
72
101
73
102
0
VERTEX
8
0
6
CONTINUOUS
62
252
70
128
10
0.000000
20
0.000000
30
0.000000
71
51
72
102
73
50
0
VERTEX
8
0
6
CONTINUOUS
62
252
70
128
10
0.000000
20
0.000000
30
0.000000
71
50
72
102
73
103
0
VERTEX
8
0
6
CONTINUOUS
62
252
70
128
10
0.000000
20
0.000000
30
0.000000
71
50
72
103
73
49
0
VERTEX
8
0
6
CONTINUOUS
62
252
70
128
10
0.000000
20
0.000000
30
0.000000
71
49
72
103
73
104
0
VERTEX
8
0
6
CONTINUOUS
62
252
70
128
10
0.000000
20
0.000000
30
0.000000
71
49
72
104
73
48
0
VERTEX
8
0
6
CONTINUOUS
62
252
70
128
10
0.000000
20
0.000000
30
0.000000
71
48
72
104
73
105
0
VERTEX
8
0
6
CONTINUOUS
62
252
70
128
10
0.000000
20
0.000000
30
0.000000
71
48
72
105
73
47
0
VERTEX
8
0
6
CONTINUOUS
62
252
70
128
10
0.000000
20
0.000000
30
0.000000
71
47
72
105
73
106
0
VERTEX
8
0
6
CONTINUOUS
62
252
70
128
10
0.000000
20
0.000000
30
0.000000
71
47
72
106
73
46
0
VERTEX
8
0
6
CONTINUOUS
62
252
70
128
10
0.000000
20
0.000000
30
0.000000
71
46
72
106
73
107
0
VERTEX
8
0
6
CONTINUOUS
62
252
70
128
10
0.000000
20
0.000000
30
0.000000
71
46
72
107
73
45
0
VERTEX
8
0
6
CONTINUOUS
62
252
70
128
10
0.000000
20
0.000000
30
0.000000
71
45
72
107
73
108
0
VERTEX
8
0
6
CONTINUOUS
62
252
70
128
10
0.000000
20
0.000000
30
0.000000
71
45
72
108
73
44
0
VERTEX
8
0
6
CONTINUOUS
62
252
70
128
10
0.000000
20
0.000000
30
0.000000
71
44
72
108
73
109
0
VERTEX
8
0
6
CONTINUOUS
62
252
70
128
10
0.000000
20
0.000000
30
0.000000
71
44
72
109
73
43
0
VERTEX
8
0
6
CONTINUOUS
62
252
70
128
10
0.000000
20
0.000000
30
0.000000
71
43
72
109
73
110
0
VERTEX
8
0
6
CONTINUOUS
62
252
70
128
10
0.000000
20
0.000000
30
0.000000
71
43
72
110
73
42
0
VERTEX
8
0
6
CONTINUOUS
62
252
70
128
10
0.000000
20
0.000000
30
0.000000
71
42
72
110
73
111
0
VERTEX
8
0
6
CONTINUOUS
62
252
70
128
10
0.000000
20
0.000000
30
0.000000
71
42
72
111
73
41
0
VERTEX
8
0
6
CONTINUOUS
62
252
70
128
10
0.000000
20
0.000000
30
0.000000
71
41
72
111
73
112
0
VERTEX
8
0
6
CONTINUOUS
62
252
70
128
10
0.000000
20
0.000000
30
0.000000
71
41
72
112
73
40
0
VERTEX
8
0
6
CONTINUOUS
62
252
70
128
10
0.000000
20
0.000000
30
0.000000
71
40
72
112
73
113
0
VERTEX
8
0
6
CONTINUOUS
62
252
70
128
10
0.000000
20
0.000000
30
0.000000
71
40
72
113
73
39
0
VERTEX
8
0
6
CONTINUOUS
62
252
70
128
10
0.000000
20
0.000000
30
0.000000
71
39
72
113
73
114
0
VERTEX
8
0
6
CONTINUOUS
62
252
70
128
10
0.000000
20
0.000000
30
0.000000
71
39
72
114
73
38
0
VERTEX
8
0
6
CONTINUOUS
62
252
70
128
10
0.000000
20
0.000000
30
0.000000
71
38
72
114
73
115
0
VERTEX
8
0
6
CONTINUOUS
62
252
70
128
10
0.000000
20
0.000000
30
0.000000
71
38
72
115
73
37
0
VERTEX
8
0
6
CONTINUOUS
62
252
70
128
10
0.000000
20
0.000000
30
0.000000
71
37
72
115
73
116
0
VERTEX
8
0
6
CONTINUOUS
62
252
70
128
10
0.000000
20
0.000000
30
0.000000
71
37
72
116
73
36
0
VERTEX
8
0
6
CONTINUOUS
62
252
70
128
10
0.000000
20
0.000000
30
0.000000
71
36
72
116
73
117
0
VERTEX
8
0
6
CONTINUOUS
62
252
70
128
10
0.000000
20
0.000000
30
0.000000
71
36
72
117
73
35
0
VERTEX
8
0
6
CONTINUOUS
62
252
70
128
10
0.000000
20
0.000000
30
0.000000
71
35
72
117
73
118
0
VERTEX
8
0
6
CONTINUOUS
62
252
70
128
10
0.000000
20
0.000000
30
0.000000
71
35
72
118
73
34
0
VERTEX
8
0
6
CONTINUOUS
62
252
70
128
10
0.000000
20
0.000000
30
0.000000
71
34
72
118
73
119
0
VERTEX
8
0
6
CONTINUOUS
62
252
70
128
10
0.000000
20
0.000000
30
0.000000
71
34
72
119
73
33
0
VERTEX
8
0
6
CONTINUOUS
62
252
70
128
10
0.000000
20
0.000000
30
0.000000
71
33
72
119
73
120
0
VERTEX
8
0
6
CONTINUOUS
62
252
70
128
10
0.000000
20
0.000000
30
0.000000
71
33
72
120
73
32
0
VERTEX
8
0
6
CONTINUOUS
62
252
70
128
10
0.000000
20
0.000000
30
0.000000
71
32
72
120
73
61
0
VERTEX
8
0
6
CONTINUOUS
62
252
70
128
10
0.000000
20
0.000000
30
0.000000
71
32
72
61
73
31
0
VERTEX
8
0
6
CONTINUOUS
62
252
70
128
10
0.000000
20
0.000000
30
0.000000
71
31
72
61
73
62
0
VERTEX
8
0
6
CONTINUOUS
62
252
70
128
10
0.000000
20
0.000000
30
0.000000
71
31
72
62
73
30
0
VERTEX
8
0
6
CONTINUOUS
62
252
70
128
10
0.000000
20
0.000000
30
0.000000
71
30
72
62
73
63
0
VERTEX
8
0
6
CONTINUOUS
62
252
70
128
10
0.000000
20
0.000000
30
0.000000
71
30
72
63
73
29
0
VERTEX
8
0
6
CONTINUOUS
62
252
70
128
10
0.000000
20
0.000000
30
0.000000
71
29
72
63
73
64
0
VERTEX
8
0
6
CONTINUOUS
62
252
70
128
10
0.000000
20
0.000000
30
0.000000
71
29
72
64
73
28
0
VERTEX
8
0
6
CONTINUOUS
62
252
70
128
10
0.000000
20
0.000000
30
0.000000
71
28
72
64
73
65
0
VERTEX
8
0
6
CONTINUOUS
62
252
70
128
10
0.000000
20
0.000000
30
0.000000
71
28
72
65
73
27
0
VERTEX
8
0
6
CONTINUOUS
62
252
70
128
10
0.000000
20
0.000000
30
0.000000
71
27
72
65
73
66
0
VERTEX
8
0
6
CONTINUOUS
62
252
70
128
10
0.000000
20
0.000000
30
0.000000
71
27
72
66
73
26
0
VERTEX
8
0
6
CONTINUOUS
62
252
70
128
10
0.000000
20
0.000000
30
0.000000
71
26
72
66
73
67
0
VERTEX
8
0
6
CONTINUOUS
62
252
70
128
10
0.000000
20
0.000000
30
0.000000
71
26
72
67
73
25
0
VERTEX
8
0
6
CONTINUOUS
62
252
70
128
10
0.000000
20
0.000000
30
0.000000
71
25
72
67
73
68
0
VERTEX
8
0
6
CONTINUOUS
62
252
70
128
10
0.000000
20
0.000000
30
0.000000
71
25
72
68
73
24
0
VERTEX
8
0
6
CONTINUOUS
62
252
70
128
10
0.000000
20
0.000000
30
0.000000
71
24
72
68
73
69
0
VERTEX
8
0
6
CONTINUOUS
62
252
70
128
10
0.000000
20
0.000000
30
0.000000
71
24
72
69
73
23
0
VERTEX
8
0
6
CONTINUOUS
62
252
70
128
10
0.000000
20
0.000000
30
0.000000
71
23
72
69
73
70
0
VERTEX
8
0
6
CONTINUOUS
62
252
70
128
10
0.000000
20
0.000000
30
0.000000
71
23
72
70
73
22
0
VERTEX
8
0
6
CONTINUOUS
62
252
70
128
10
0.000000
20
0.000000
30
0.000000
71
22
72
70
73
71
0
VERTEX
8
0
6
CONTINUOUS
62
252
70
128
10
0.000000
20
0.000000
30
0.000000
71
22
72
71
73
21
0
VERTEX
8
0
6
CONTINUOUS
62
252
70
128
10
0.000000
20
0.000000
30
0.000000
71
21
72
71
73
72
0
VERTEX
8
0
6
CONTINUOUS
62
252
70
128
10
0.000000
20
0.000000
30
0.000000
71
21
72
72
73
20
0
VERTEX
8
0
6
CONTINUOUS
62
252
70
128
10
0.000000
20
0.000000
30
0.000000
71
20
72
72
73
73
0
VERTEX
8
0
6
CONTINUOUS
62
252
70
128
10
0.000000
20
0.000000
30
0.000000
71
20
72
73
73
19
0
VERTEX
8
0
6
CONTINUOUS
62
252
70
128
10
0.000000
20
0.000000
30
0.000000
71
19
72
73
73
74
0
VERTEX
8
0
6
CONTINUOUS
62
252
70
128
10
0.000000
20
0.000000
30
0.000000
71
19
72
74
73
18
0
VERTEX
8
0
6
CONTINUOUS
62
252
70
128
10
0.000000
20
0.000000
30
0.000000
71
18
72
74
73
75
0
VERTEX
8
0
6
CONTINUOUS
62
252
70
128
10
0.000000
20
0.000000
30
0.000000
71
18
72
75
73
17
0
VERTEX
8
0
6
CONTINUOUS
62
252
70
128
10
0.000000
20
0.000000
30
0.000000
71
17
72
75
73
76
0
VERTEX
8
0
6
CONTINUOUS
62
252
70
128
10
0.000000
20
0.000000
30
0.000000
71
17
72
76
73
16
0
VERTEX
8
0
6
CONTINUOUS
62
252
70
128
10
0.000000
20
0.000000
30
0.000000
71
16
72
76
73
77
0
VERTEX
8
0
6
CONTINUOUS
62
252
70
128
10
0.000000
20
0.000000
30
0.000000
71
16
72
77
73
15
0
VERTEX
8
0
6
CONTINUOUS
62
252
70
128
10
0.000000
20
0.000000
30
0.000000
71
15
72
77
73
78
0
VERTEX
8
0
6
CONTINUOUS
62
252
70
128
10
0.000000
20
0.000000
30
0.000000
71
15
72
78
73
14
0
VERTEX
8
0
6
CONTINUOUS
62
252
70
128
10
0.000000
20
0.000000
30
0.000000
71
14
72
78
73
79
0
VERTEX
8
0
6
CONTINUOUS
62
252
70
128
10
0.000000
20
0.000000
30
0.000000
71
14
72
79
73
13
0
VERTEX
8
0
6
CONTINUOUS
62
252
70
128
10
0.000000
20
0.000000
30
0.000000
71
13
72
79
73
80
0
VERTEX
8
0
6
CONTINUOUS
62
252
70
128
10
0.000000
20
0.000000
30
0.000000
71
13
72
80
73
12
0
VERTEX
8
0
6
CONTINUOUS
62
252
70
128
10
0.000000
20
0.000000
30
0.000000
71
12
72
80
73
81
0
VERTEX
8
0
6
CONTINUOUS
62
252
70
128
10
0.000000
20
0.000000
30
0.000000
71
12
72
81
73
11
0
VERTEX
8
0
6
CONTINUOUS
62
252
70
128
10
0.000000
20
0.000000
30
0.000000
71
11
72
81
73
82
0
VERTEX
8
0
6
CONTINUOUS
62
252
70
128
10
0.000000
20
0.000000
30
0.000000
71
11
72
82
73
10
0
VERTEX
8
0
6
CONTINUOUS
62
252
70
128
10
0.000000
20
0.000000
30
0.000000
71
10
72
82
73
83
0
VERTEX
8
0
6
CONTINUOUS
62
252
70
128
10
0.000000
20
0.000000
30
0.000000
71
10
72
83
73
9
0
VERTEX
8
0
6
CONTINUOUS
62
252
70
128
10
0.000000
20
0.000000
30
0.000000
71
9
72
83
73
84
0
VERTEX
8
0
6
CONTINUOUS
62
252
70
128
10
0.000000
20
0.000000
30
0.000000
71
9
72
84
73
8
0
VERTEX
8
0
6
CONTINUOUS
62
252
70
128
10
0.000000
20
0.000000
30
0.000000
71
8
72
84
73
85
0
VERTEX
8
0
6
CONTINUOUS
62
252
70
128
10
0.000000
20
0.000000
30
0.000000
71
8
72
85
73
7
0
VERTEX
8
0
6
CONTINUOUS
62
252
70
128
10
0.000000
20
0.000000
30
0.000000
71
7
72
85
73
86
0
VERTEX
8
0
6
CONTINUOUS
62
252
70
128
10
0.000000
20
0.000000
30
0.000000
71
7
72
86
73
6
0
VERTEX
8
0
6
CONTINUOUS
62
252
70
128
10
0.000000
20
0.000000
30
0.000000
71
6
72
86
73
87
0
VERTEX
8
0
6
CONTINUOUS
62
252
70
128
10
0.000000
20
0.000000
30
0.000000
71
6
72
87
73
5
0
VERTEX
8
0
6
CONTINUOUS
62
252
70
128
10
0.000000
20
0.000000
30
0.000000
71
5
72
87
73
88
0
VERTEX
8
0
6
CONTINUOUS
62
252
70
128
10
0.000000
20
0.000000
30
0.000000
71
5
72
88
73
4
0
VERTEX
8
0
6
CONTINUOUS
62
252
70
128
10
0.000000
20
0.000000
30
0.000000
71
4
72
88
73
89
0
VERTEX
8
0
6
CONTINUOUS
62
252
70
128
10
0.000000
20
0.000000
30
0.000000
71
4
72
89
73
3
0
VERTEX
8
0
6
CONTINUOUS
62
252
70
128
10
0.000000
20
0.000000
30
0.000000
71
3
72
89
73
90
0
VERTEX
8
0
6
CONTINUOUS
62
252
70
128
10
0.000000
20
0.000000
30
0.000000
71
3
72
90
73
2
0
VERTEX
8
0
6
CONTINUOUS
62
252
70
128
10
0.000000
20
0.000000
30
0.000000
71
2
72
90
73
91
0
SEQEND
0
POLYLINE
66
1
8
0
6
CONTINUOUS
62
252
70
64
75
0
10
0.000000
20
0.000000
30
0.000000
0
VERTEX
8
0
6
CONTINUOUS
62
252
70
192
10
1.078000
20
0.187500
30
-0.324760
0
VERTEX
8
0
6
CONTINUOUS
62
252
70
192
10
1.078000
20
0.152526
30
-0.342580
0
VERTEX
8
0
6
CONTINUOUS
62
252
70
192
10
1.078000
20
0.115881
30
-0.356646
0
VERTEX
8
0
6
CONTINUOUS
62
252
70
192
10
1.078000
20
0.077967
30
-0.366805
0
VERTEX
8
0
6
CONTINUOUS
62
252
70
192
10
1.078000
20
0.039198
30
-0.372946
0
VERTEX
8
0
6
CONTINUOUS
62
252
70
192
10
1.078000
20
0.000000
30
-0.375000
0
VERTEX
8
0
6
CONTINUOUS
62
252
70
192
10
1.078000
20
-0.039198
30
-0.372946
0
VERTEX
8
0
6
CONTINUOUS
62
252
70
192
10
1.078000
20
-0.077967
30
-0.366805
0
VERTEX
8
0
6
CONTINUOUS
62
252
70
192
10
1.078000
20
-0.115881
30
-0.356646
0
VERTEX
8
0
6
CONTINUOUS
62
252
70
192
10
1.078000
20
-0.152526
30
-0.342580
0
VERTEX
8
0
6
CONTINUOUS
62
252
70
192
10
1.078000
20
-0.187500
30
-0.324760
0
VERTEX
8
0
6
CONTINUOUS
62
252
70
192
10
1.078000
20
-0.220419
30
-0.303381
0
VERTEX
8
0
6
CONTINUOUS
62
252
70
192
10
1.078000
20
-0.250924
30
-0.278679
0
VERTEX
8
0
6
CONTINUOUS
62
252
70
192
10
1.078000
20
-0.278679
30
-0.250924
0
VERTEX
8
0
6
CONTINUOUS
62
252
70
192
10
1.078000
20
-0.303381
30
-0.220419
0
VERTEX
8
0
6
CONTINUOUS
62
252
70
192
10
1.078000
20
-0.324760
30
-0.187500
0
VERTEX
8
0
6
CONTINUOUS
62
252
70
192
10
1.078000
20
-0.342580
30
-0.152526
0
VERTEX
8
0
6
CONTINUOUS
62
252
70
192
10
1.078000
20
-0.356646
30
-0.115881
0
VERTEX
8
0
6
CONTINUOUS
62
252
70
192
10
1.078000
20
-0.366805
30
-0.077967
0
VERTEX
8
0
6
CONTINUOUS
62
252
70
192
10
1.078000
20
-0.372946
30
-0.039198
0
VERTEX
8
0
6
CONTINUOUS
62
252
70
192
10
1.078000
20
-0.375000
30
0.000000
0
VERTEX
8
0
6
CONTINUOUS
62
252
70
192
10
1.078000
20
-0.372946
30
0.039198
0
VERTEX
8
0
6
CONTINUOUS
62
252
70
192
10
1.078000
20
-0.366805
30
0.077967
0
VERTEX
8
0
6
CONTINUOUS
62
252
70
192
10
1.078000
20
-0.356646
30
0.115881
0
VERTEX
8
0
6
CONTINUOUS
62
252
70
192
10
1.078000
20
-0.342580
30
0.152526
0
VERTEX
8
0
6
CONTINUOUS
62
252
70
192
10
1.078000
20
-0.324760
30
0.187500
0
VERTEX
8
0
6
CONTINUOUS
62
252
70
192
10
1.078000
20
-0.303381
30
0.220419
0
VERTEX
8
0
6
CONTINUOUS
62
252
70
192
10
1.078000
20
-0.278679
30
0.250924
0
VERTEX
8
0
6
CONTINUOUS
62
252
70
192
10
1.078000
20
-0.250924
30
0.278679
0
VERTEX
8
0
6
CONTINUOUS
62
252
70
192
10
1.078000
20
-0.220419
30
0.303381
0
VERTEX
8
0
6
CONTINUOUS
62
252
70
192
10
1.078000
20
-0.187500
30
0.324760
0
VERTEX
8
0
6
CONTINUOUS
62
252
70
192
10
1.078000
20
-0.152526
30
0.342580
0
VERTEX
8
0
6
CONTINUOUS
62
252
70
192
10
1.078000
20
-0.115881
30
0.356646
0
VERTEX
8
0
6
CONTINUOUS
62
252
70
192
10
1.078000
20
-0.077967
30
0.366805
0
VERTEX
8
0
6
CONTINUOUS
62
252
70
192
10
1.078000
20
-0.039198
30
0.372946
0
VERTEX
8
0
6
CONTINUOUS
62
252
70
192
10
1.078000
20
0.000000
30
0.375000
0
VERTEX
8
0
6
CONTINUOUS
62
252
70
192
10
1.078000
20
0.039198
30
0.372946
0
VERTEX
8
0
6
CONTINUOUS
62
252
70
192
10
1.078000
20
0.077967
30
0.366805
0
VERTEX
8
0
6
CONTINUOUS
62
252
70
192
10
1.078000
20
0.115881
30
0.356646
0
VERTEX
8
0
6
CONTINUOUS
62
252
70
192
10
1.078000
20
0.152526
30
0.342580
0
VERTEX
8
0
6
CONTINUOUS
62
252
70
192
10
1.078000
20
0.187500
30
0.324760
0
VERTEX
8
0
6
CONTINUOUS
62
252
70
192
10
1.078000
20
0.220419
30
0.303381
0
VERTEX
8
0
6
CONTINUOUS
62
252
70
192
10
1.078000
20
0.250924
30
0.278679
0
VERTEX
8
0
6
CONTINUOUS
62
252
70
192
10
1.078000
20
0.278679
30
0.250924
0
VERTEX
8
0
6
CONTINUOUS
62
252
70
192
10
1.078000
20
0.303381
30
0.220419
0
VERTEX
8
0
6
CONTINUOUS
62
252
70
192
10
1.078000
20
0.324760
30
0.187500
0
VERTEX
8
0
6
CONTINUOUS
62
252
70
192
10
1.078000
20
0.342580
30
0.152526
0
VERTEX
8
0
6
CONTINUOUS
62
252
70
192
10
1.078000
20
0.356646
30
0.115881
0
VERTEX
8
0
6
CONTINUOUS
62
252
70
192
10
1.078000
20
0.366805
30
0.077967
0
VERTEX
8
0
6
CONTINUOUS
62
252
70
192
10
1.078000
20
0.372946
30
0.039198
0
VERTEX
8
0
6
CONTINUOUS
62
252
70
192
10
1.078000
20
0.375000
30
0.000000
0
VERTEX
8
0
6
CONTINUOUS
62
252
70
192
10
1.078000
20
0.372946
30
-0.039198
0
VERTEX
8
0
6
CONTINUOUS
62
252
70
192
10
1.078000
20
0.366805
30
-0.077967
0
VERTEX
8
0
6
CONTINUOUS
62
252
70
192
10
1.078000
20
0.356646
30
-0.115881
0
VERTEX
8
0
6
CONTINUOUS
62
252
70
192
10
1.078000
20
0.342580
30
-0.152526
0
VERTEX
8
0
6
CONTINUOUS
62
252
70
192
10
1.078000
20
0.324760
30
-0.187500
0
VERTEX
8
0
6
CONTINUOUS
62
252
70
192
10
1.078000
20
0.303381
30
-0.220419
0
VERTEX
8
0
6
CONTINUOUS
62
252
70
192
10
1.078000
20
0.278679
30
-0.250924
0
VERTEX
8
0
6
CONTINUOUS
62
252
70
192
10
1.078000
20
0.250924
30
-0.278679
0
VERTEX
8
0
6
CONTINUOUS
62
252
70
192
10
1.078000
20
0.220419
30
-0.303381
0
VERTEX
8
0
6
CONTINUOUS
62
252
70
192
10
0.970000
20
0.000000
30
-0.375000
0
VERTEX
8
0
6
CONTINUOUS
62
252
70
192
10
0.970000
20
0.039198
30
-0.372946
0
VERTEX
8
0
6
CONTINUOUS
62
252
70
192
10
0.970000
20
0.077967
30
-0.366805
0
VERTEX
8
0
6
CONTINUOUS
62
252
70
192
10
0.970000
20
0.115881
30
-0.356646
0
VERTEX
8
0
6
CONTINUOUS
62
252
70
192
10
0.970000
20
0.152526
30
-0.342580
0
VERTEX
8
0
6
CONTINUOUS
62
252
70
192
10
0.970000
20
0.187500
30
-0.324760
0
VERTEX
8
0
6
CONTINUOUS
62
252
70
192
10
0.970000
20
0.220419
30
-0.303381
0
VERTEX
8
0
6
CONTINUOUS
62
252
70
192
10
0.970000
20
0.250924
30
-0.278679
0
VERTEX
8
0
6
CONTINUOUS
62
252
70
192
10
0.970000
20
0.278679
30
-0.250924
0
VERTEX
8
0
6
CONTINUOUS
62
252
70
192
10
0.970000
20
0.303381
30
-0.220419
0
VERTEX
8
0
6
CONTINUOUS
62
252
70
192
10
0.970000
20
0.324760
30
-0.187500
0
VERTEX
8
0
6
CONTINUOUS
62
252
70
192
10
0.970000
20
0.342580
30
-0.152526
0
VERTEX
8
0
6
CONTINUOUS
62
252
70
192
10
0.970000
20
0.356646
30
-0.115881
0
VERTEX
8
0
6
CONTINUOUS
62
252
70
192
10
0.970000
20
0.366805
30
-0.077967
0
VERTEX
8
0
6
CONTINUOUS
62
252
70
192
10
0.970000
20
0.372946
30
-0.039198
0
VERTEX
8
0
6
CONTINUOUS
62
252
70
192
10
0.970000
20
0.375000
30
0.000000
0
VERTEX
8
0
6
CONTINUOUS
62
252
70
192
10
0.970000
20
0.372946
30
0.039198
0
VERTEX
8
0
6
CONTINUOUS
62
252
70
192
10
0.970000
20
0.366805
30
0.077967
0
VERTEX
8
0
6
CONTINUOUS
62
252
70
192
10
0.970000
20
0.356646
30
0.115881
0
VERTEX
8
0
6
CONTINUOUS
62
252
70
192
10
0.970000
20
0.342580
30
0.152526
0
VERTEX
8
0
6
CONTINUOUS
62
252
70
192
10
0.970000
20
0.324760
30
0.187500
0
VERTEX
8
0
6
CONTINUOUS
62
252
70
192
10
0.970000
20
0.303381
30
0.220419
0
VERTEX
8
0
6
CONTINUOUS
62
252
70
192
10
0.970000
20
0.278679
30
0.250924
0
VERTEX
8
0
6
CONTINUOUS
62
252
70
192
10
0.970000
20
0.250924
30
0.278679
0
VERTEX
8
0
6
CONTINUOUS
62
252
70
192
10
0.970000
20
0.220419
30
0.303381
0
VERTEX
8
0
6
CONTINUOUS
62
252
70
192
10
0.970000
20
0.187500
30
0.324760
0
VERTEX
8
0
6
CONTINUOUS
62
252
70
192
10
0.970000
20
0.152526
30
0.342580
0
VERTEX
8
0
6
CONTINUOUS
62
252
70
192
10
0.970000
20
0.115881
30
0.356646
0
VERTEX
8
0
6
CONTINUOUS
62
252
70
192
10
0.970000
20
0.077967
30
0.366805
0
VERTEX
8
0
6
CONTINUOUS
62
252
70
192
10
0.970000
20
0.039198
30
0.372946
0
VERTEX
8
0
6
CONTINUOUS
62
252
70
192
10
0.970000
20
0.000000
30
0.375000
0
VERTEX
8
0
6
CONTINUOUS
62
252
70
192
10
0.970000
20
-0.039198
30
0.372946
0
VERTEX
8
0
6
CONTINUOUS
62
252
70
192
10
0.970000
20
-0.077967
30
0.366805
0
VERTEX
8
0
6
CONTINUOUS
62
252
70
192
10
0.970000
20
-0.115881
30
0.356646
0
VERTEX
8
0
6
CONTINUOUS
62
252
70
192
10
0.970000
20
-0.152526
30
0.342580
0
VERTEX
8
0
6
CONTINUOUS
62
252
70
192
10
0.970000
20
-0.187500
30
0.324760
0
VERTEX
8
0
6
CONTINUOUS
62
252
70
192
10
0.970000
20
-0.220419
30
0.303381
0
VERTEX
8
0
6
CONTINUOUS
62
252
70
192
10
0.970000
20
-0.250924
30
0.278679
0
VERTEX
8
0
6
CONTINUOUS
62
252
70
192
10
0.970000
20
-0.278679
30
0.250924
0
VERTEX
8
0
6
CONTINUOUS
62
252
70
192
10
0.970000
20
-0.303381
30
0.220419
0
VERTEX
8
0
6
CONTINUOUS
62
252
70
192
10
0.970000
20
-0.324760
30
0.187500
0
VERTEX
8
0
6
CONTINUOUS
62
252
70
192
10
0.970000
20
-0.342580
30
0.152526
0
VERTEX
8
0
6
CONTINUOUS
62
252
70
192
10
0.970000
20
-0.356646
30
0.115881
0
VERTEX
8
0
6
CONTINUOUS
62
252
70
192
10
0.970000
20
-0.366805
30
0.077967
0
VERTEX
8
0
6
CONTINUOUS
62
252
70
192
10
0.970000
20
-0.372946
30
0.039198
0
VERTEX
8
0
6
CONTINUOUS
62
252
70
192
10
0.970000
20
-0.375000
30
0.000000
0
VERTEX
8
0
6
CONTINUOUS
62
252
70
192
10
0.970000
20
-0.372946
30
-0.039198
0
VERTEX
8
0
6
CONTINUOUS
62
252
70
192
10
0.970000
20
-0.366805
30
-0.077967
0
VERTEX
8
0
6
CONTINUOUS
62
252
70
192
10
0.970000
20
-0.356646
30
-0.115881
0
VERTEX
8
0
6
CONTINUOUS
62
252
70
192
10
0.970000
20
-0.342580
30
-0.152526
0
VERTEX
8
0
6
CONTINUOUS
62
252
70
192
10
0.970000
20
-0.324760
30
-0.187500
0
VERTEX
8
0
6
CONTINUOUS
62
252
70
192
10
0.970000
20
-0.303381
30
-0.220419
0
VERTEX
8
0
6
CONTINUOUS
62
252
70
192
10
0.970000
20
-0.278679
30
-0.250924
0
VERTEX
8
0
6
CONTINUOUS
62
252
70
192
10
0.970000
20
-0.250924
30
-0.278679
0
VERTEX
8
0
6
CONTINUOUS
62
252
70
192
10
0.970000
20
-0.220419
30
-0.303381
0
VERTEX
8
0
6
CONTINUOUS
62
252
70
192
10
0.970000
20
-0.187500
30
-0.324760
0
VERTEX
8
0
6
CONTINUOUS
62
252
70
192
10
0.970000
20
-0.152526
30
-0.342580
0
VERTEX
8
0
6
CONTINUOUS
62
252
70
192
10
0.970000
20
-0.115881
30
-0.356646
0
VERTEX
8
0
6
CONTINUOUS
62
252
70
192
10
0.970000
20
-0.077967
30
-0.366805
0
VERTEX
8
0
6
CONTINUOUS
62
252
70
192
10
0.970000
20
-0.039198
30
-0.372946
0
VERTEX
8
0
6
CONTINUOUS
62
252
70
128
10
0.000000
20
0.000000
30
0.000000
71
2
72
65
73
1
0
VERTEX
8
0
6
CONTINUOUS
62
252
70
128
10
0.000000
20
0.000000
30
0.000000
71
1
72
65
73
66
0
VERTEX
8
0
6
CONTINUOUS
62
252
70
128
10
0.000000
20
0.000000
30
0.000000
71
1
72
66
73
60
0
VERTEX
8
0
6
CONTINUOUS
62
252
70
128
10
0.000000
20
0.000000
30
0.000000
71
60
72
66
73
67
0
VERTEX
8
0
6
CONTINUOUS
62
252
70
128
10
0.000000
20
0.000000
30
0.000000
71
60
72
67
73
59
0
VERTEX
8
0
6
CONTINUOUS
62
252
70
128
10
0.000000
20
0.000000
30
0.000000
71
59
72
67
73
68
0
VERTEX
8
0
6
CONTINUOUS
62
252
70
128
10
0.000000
20
0.000000
30
0.000000
71
59
72
68
73
58
0
VERTEX
8
0
6
CONTINUOUS
62
252
70
128
10
0.000000
20
0.000000
30
0.000000
71
58
72
68
73
69
0
VERTEX
8
0
6
CONTINUOUS
62
252
70
128
10
0.000000
20
0.000000
30
0.000000
71
58
72
69
73
57
0
VERTEX
8
0
6
CONTINUOUS
62
252
70
128
10
0.000000
20
0.000000
30
0.000000
71
57
72
69
73
70
0
VERTEX
8
0
6
CONTINUOUS
62
252
70
128
10
0.000000
20
0.000000
30
0.000000
71
57
72
70
73
56
0
VERTEX
8
0
6
CONTINUOUS
62
252
70
128
10
0.000000
20
0.000000
30
0.000000
71
56
72
70
73
71
0
VERTEX
8
0
6
CONTINUOUS
62
252
70
128
10
0.000000
20
0.000000
30
0.000000
71
56
72
71
73
55
0
VERTEX
8
0
6
CONTINUOUS
62
252
70
128
10
0.000000
20
0.000000
30
0.000000
71
55
72
71
73
72
0
VERTEX
8
0
6
CONTINUOUS
62
252
70
128
10
0.000000
20
0.000000
30
0.000000
71
55
72
72
73
54
0
VERTEX
8
0
6
CONTINUOUS
62
252
70
128
10
0.000000
20
0.000000
30
0.000000
71
54
72
72
73
73
0
VERTEX
8
0
6
CONTINUOUS
62
252
70
128
10
0.000000
20
0.000000
30
0.000000
71
54
72
73
73
53
0
VERTEX
8
0
6
CONTINUOUS
62
252
70
128
10
0.000000
20
0.000000
30
0.000000
71
53
72
73
73
74
0
VERTEX
8
0
6
CONTINUOUS
62
252
70
128
10
0.000000
20
0.000000
30
0.000000
71
53
72
74
73
52
0
VERTEX
8
0
6
CONTINUOUS
62
252
70
128
10
0.000000
20
0.000000
30
0.000000
71
52
72
74
73
75
0
VERTEX
8
0
6
CONTINUOUS
62
252
70
128
10
0.000000
20
0.000000
30
0.000000
71
52
72
75
73
51
0
VERTEX
8
0
6
CONTINUOUS
62
252
70
128
10
0.000000
20
0.000000
30
0.000000
71
51
72
75
73
76
0
VERTEX
8
0
6
CONTINUOUS
62
252
70
128
10
0.000000
20
0.000000
30
0.000000
71
51
72
76
73
50
0
VERTEX
8
0
6
CONTINUOUS
62
252
70
128
10
0.000000
20
0.000000
30
0.000000
71
50
72
76
73
77
0
VERTEX
8
0
6
CONTINUOUS
62
252
70
128
10
0.000000
20
0.000000
30
0.000000
71
50
72
77
73
49
0
VERTEX
8
0
6
CONTINUOUS
62
252
70
128
10
0.000000
20
0.000000
30
0.000000
71
49
72
77
73
78
0
VERTEX
8
0
6
CONTINUOUS
62
252
70
128
10
0.000000
20
0.000000
30
0.000000
71
49
72
78
73
48
0
VERTEX
8
0
6
CONTINUOUS
62
252
70
128
10
0.000000
20
0.000000
30
0.000000
71
48
72
78
73
79
0
VERTEX
8
0
6
CONTINUOUS
62
252
70
128
10
0.000000
20
0.000000
30
0.000000
71
48
72
79
73
47
0
VERTEX
8
0
6
CONTINUOUS
62
252
70
128
10
0.000000
20
0.000000
30
0.000000
71
47
72
79
73
80
0
VERTEX
8
0
6
CONTINUOUS
62
252
70
128
10
0.000000
20
0.000000
30
0.000000
71
47
72
80
73
46
0
VERTEX
8
0
6
CONTINUOUS
62
252
70
128
10
0.000000
20
0.000000
30
0.000000
71
46
72
80
73
81
0
VERTEX
8
0
6
CONTINUOUS
62
252
70
128
10
0.000000
20
0.000000
30
0.000000
71
46
72
81
73
45
0
VERTEX
8
0
6
CONTINUOUS
62
252
70
128
10
0.000000
20
0.000000
30
0.000000
71
45
72
81
73
82
0
VERTEX
8
0
6
CONTINUOUS
62
252
70
128
10
0.000000
20
0.000000
30
0.000000
71
45
72
82
73
44
0
VERTEX
8
0
6
CONTINUOUS
62
252
70
128
10
0.000000
20
0.000000
30
0.000000
71
44
72
82
73
83
0
VERTEX
8
0
6
CONTINUOUS
62
252
70
128
10
0.000000
20
0.000000
30
0.000000
71
44
72
83
73
43
0
VERTEX
8
0
6
CONTINUOUS
62
252
70
128
10
0.000000
20
0.000000
30
0.000000
71
43
72
83
73
84
0
VERTEX
8
0
6
CONTINUOUS
62
252
70
128
10
0.000000
20
0.000000
30
0.000000
71
43
72
84
73
42
0
VERTEX
8
0
6
CONTINUOUS
62
252
70
128
10
0.000000
20
0.000000
30
0.000000
71
42
72
84
73
85
0
VERTEX
8
0
6
CONTINUOUS
62
252
70
128
10
0.000000
20
0.000000
30
0.000000
71
42
72
85
73
41
0
VERTEX
8
0
6
CONTINUOUS
62
252
70
128
10
0.000000
20
0.000000
30
0.000000
71
41
72
85
73
86
0
VERTEX
8
0
6
CONTINUOUS
62
252
70
128
10
0.000000
20
0.000000
30
0.000000
71
41
72
86
73
87
0
VERTEX
8
0
6
CONTINUOUS
62
252
70
128
10
0.000000
20
0.000000
30
0.000000
71
2
72
3
73
65
0
VERTEX
8
0
6
CONTINUOUS
62
252
70
128
10
0.000000
20
0.000000
30
0.000000
71
65
72
3
73
64
0
VERTEX
8
0
6
CONTINUOUS
62
252
70
128
10
0.000000
20
0.000000
30
0.000000
71
64
72
3
73
4
0
VERTEX
8
0
6
CONTINUOUS
62
252
70
128
10
0.000000
20
0.000000
30
0.000000
71
64
72
4
73
63
0
VERTEX
8
0
6
CONTINUOUS
62
252
70
128
10
0.000000
20
0.000000
30
0.000000
71
63
72
4
73
62
0
VERTEX
8
0
6
CONTINUOUS
62
252
70
128
10
0.000000
20
0.000000
30
0.000000
71
62
72
4
73
5
0
VERTEX
8
0
6
CONTINUOUS
62
252
70
128
10
0.000000
20
0.000000
30
0.000000
71
62
72
5
73
61
0
VERTEX
8
0
6
CONTINUOUS
62
252
70
128
10
0.000000
20
0.000000
30
0.000000
71
61
72
5
73
6
0
VERTEX
8
0
6
CONTINUOUS
62
252
70
128
10
0.000000
20
0.000000
30
0.000000
71
61
72
6
73
7
0
VERTEX
8
0
6
CONTINUOUS
62
252
70
128
10
0.000000
20
0.000000
30
0.000000
71
61
72
7
73
120
0
VERTEX
8
0
6
CONTINUOUS
62
252
70
128
10
0.000000
20
0.000000
30
0.000000
71
120
72
7
73
8
0
VERTEX
8
0
6
CONTINUOUS
62
252
70
128
10
0.000000
20
0.000000
30
0.000000
71
120
72
8
73
119
0
VERTEX
8
0
6
CONTINUOUS
62
252
70
128
10
0.000000
20
0.000000
30
0.000000
71
119
72
8
73
9
0
VERTEX
8
0
6
CONTINUOUS
62
252
70
128
10
0.000000
20
0.000000
30
0.000000
71
119
72
9
73
118
0
VERTEX
8
0
6
CONTINUOUS
62
252
70
128
10
0.000000
20
0.000000
30
0.000000
71
118
72
9
73
10
0
VERTEX
8
0
6
CONTINUOUS
62
252
70
128
10
0.000000
20
0.000000
30
0.000000
71
118
72
10
73
117
0
VERTEX
8
0
6
CONTINUOUS
62
252
70
128
10
0.000000
20
0.000000
30
0.000000
71
117
72
10
73
11
0
VERTEX
8
0
6
CONTINUOUS
62
252
70
128
10
0.000000
20
0.000000
30
0.000000
71
117
72
11
73
116
0
VERTEX
8
0
6
CONTINUOUS
62
252
70
128
10
0.000000
20
0.000000
30
0.000000
71
116
72
11
73
115
0
VERTEX
8
0
6
CONTINUOUS
62
252
70
128
10
0.000000
20
0.000000
30
0.000000
71
115
72
11
73
12
0
VERTEX
8
0
6
CONTINUOUS
62
252
70
128
10
0.000000
20
0.000000
30
0.000000
71
115
72
12
73
114
0
VERTEX
8
0
6
CONTINUOUS
62
252
70
128
10
0.000000
20
0.000000
30
0.000000
71
114
72
12
73
13
0
VERTEX
8
0
6
CONTINUOUS
62
252
70
128
10
0.000000
20
0.000000
30
0.000000
71
114
72
13
73
113
0
VERTEX
8
0
6
CONTINUOUS
62
252
70
128
10
0.000000
20
0.000000
30
0.000000
71
113
72
13
73
14
0
VERTEX
8
0
6
CONTINUOUS
62
252
70
128
10
0.000000
20
0.000000
30
0.000000
71
113
72
14
73
112
0
VERTEX
8
0
6
CONTINUOUS
62
252
70
128
10
0.000000
20
0.000000
30
0.000000
71
112
72
14
73
15
0
VERTEX
8
0
6
CONTINUOUS
62
252
70
128
10
0.000000
20
0.000000
30
0.000000
71
112
72
15
73
111
0
VERTEX
8
0
6
CONTINUOUS
62
252
70
128
10
0.000000
20
0.000000
30
0.000000
71
111
72
15
73
16
0
VERTEX
8
0
6
CONTINUOUS
62
252
70
128
10
0.000000
20
0.000000
30
0.000000
71
111
72
16
73
110
0
VERTEX
8
0
6
CONTINUOUS
62
252
70
128
10
0.000000
20
0.000000
30
0.000000
71
110
72
16
73
17
0
VERTEX
8
0
6
CONTINUOUS
62
252
70
128
10
0.000000
20
0.000000
30
0.000000
71
110
72
17
73
109
0
VERTEX
8
0
6
CONTINUOUS
62
252
70
128
10
0.000000
20
0.000000
30
0.000000
71
109
72
17
73
18
0
VERTEX
8
0
6
CONTINUOUS
62
252
70
128
10
0.000000
20
0.000000
30
0.000000
71
109
72
18
73
108
0
VERTEX
8
0
6
CONTINUOUS
62
252
70
128
10
0.000000
20
0.000000
30
0.000000
71
108
72
18
73
19
0
VERTEX
8
0
6
CONTINUOUS
62
252
70
128
10
0.000000
20
0.000000
30
0.000000
71
108
72
19
73
107
0
VERTEX
8
0
6
CONTINUOUS
62
252
70
128
10
0.000000
20
0.000000
30
0.000000
71
107
72
19
73
20
0
VERTEX
8
0
6
CONTINUOUS
62
252
70
128
10
0.000000
20
0.000000
30
0.000000
71
107
72
20
73
106
0
VERTEX
8
0
6
CONTINUOUS
62
252
70
128
10
0.000000
20
0.000000
30
0.000000
71
106
72
20
73
21
0
VERTEX
8
0
6
CONTINUOUS
62
252
70
128
10
0.000000
20
0.000000
30
0.000000
71
106
72
21
73
105
0
VERTEX
8
0
6
CONTINUOUS
62
252
70
128
10
0.000000
20
0.000000
30
0.000000
71
105
72
21
73
22
0
VERTEX
8
0
6
CONTINUOUS
62
252
70
128
10
0.000000
20
0.000000
30
0.000000
71
105
72
22
73
104
0
VERTEX
8
0
6
CONTINUOUS
62
252
70
128
10
0.000000
20
0.000000
30
0.000000
71
104
72
22
73
23
0
VERTEX
8
0
6
CONTINUOUS
62
252
70
128
10
0.000000
20
0.000000
30
0.000000
71
104
72
23
73
103
0
VERTEX
8
0
6
CONTINUOUS
62
252
70
128
10
0.000000
20
0.000000
30
0.000000
71
103
72
23
73
24
0
VERTEX
8
0
6
CONTINUOUS
62
252
70
128
10
0.000000
20
0.000000
30
0.000000
71
103
72
24
73
102
0
VERTEX
8
0
6
CONTINUOUS
62
252
70
128
10
0.000000
20
0.000000
30
0.000000
71
102
72
24
73
25
0
VERTEX
8
0
6
CONTINUOUS
62
252
70
128
10
0.000000
20
0.000000
30
0.000000
71
102
72
25
73
101
0
VERTEX
8
0
6
CONTINUOUS
62
252
70
128
10
0.000000
20
0.000000
30
0.000000
71
101
72
25
73
26
0
VERTEX
8
0
6
CONTINUOUS
62
252
70
128
10
0.000000
20
0.000000
30
0.000000
71
101
72
26
73
100
0
VERTEX
8
0
6
CONTINUOUS
62
252
70
128
10
0.000000
20
0.000000
30
0.000000
71
100
72
26
73
27
0
VERTEX
8
0
6
CONTINUOUS
62
252
70
128
10
0.000000
20
0.000000
30
0.000000
71
100
72
27
73
99
0
VERTEX
8
0
6
CONTINUOUS
62
252
70
128
10
0.000000
20
0.000000
30
0.000000
71
99
72
27
73
28
0
VERTEX
8
0
6
CONTINUOUS
62
252
70
128
10
0.000000
20
0.000000
30
0.000000
71
99
72
28
73
98
0
VERTEX
8
0
6
CONTINUOUS
62
252
70
128
10
0.000000
20
0.000000
30
0.000000
71
98
72
28
73
29
0
VERTEX
8
0
6
CONTINUOUS
62
252
70
128
10
0.000000
20
0.000000
30
0.000000
71
98
72
29
73
97
0
VERTEX
8
0
6
CONTINUOUS
62
252
70
128
10
0.000000
20
0.000000
30
0.000000
71
97
72
29
73
30
0
VERTEX
8
0
6
CONTINUOUS
62
252
70
128
10
0.000000
20
0.000000
30
0.000000
71
97
72
30
73
96
0
VERTEX
8
0
6
CONTINUOUS
62
252
70
128
10
0.000000
20
0.000000
30
0.000000
71
96
72
30
73
31
0
VERTEX
8
0
6
CONTINUOUS
62
252
70
128
10
0.000000
20
0.000000
30
0.000000
71
96
72
31
73
95
0
VERTEX
8
0
6
CONTINUOUS
62
252
70
128
10
0.000000
20
0.000000
30
0.000000
71
95
72
31
73
32
0
VERTEX
8
0
6
CONTINUOUS
62
252
70
128
10
0.000000
20
0.000000
30
0.000000
71
95
72
32
73
94
0
VERTEX
8
0
6
CONTINUOUS
62
252
70
128
10
0.000000
20
0.000000
30
0.000000
71
94
72
32
73
33
0
VERTEX
8
0
6
CONTINUOUS
62
252
70
128
10
0.000000
20
0.000000
30
0.000000
71
94
72
33
73
93
0
VERTEX
8
0
6
CONTINUOUS
62
252
70
128
10
0.000000
20
0.000000
30
0.000000
71
93
72
33
73
34
0
VERTEX
8
0
6
CONTINUOUS
62
252
70
128
10
0.000000
20
0.000000
30
0.000000
71
93
72
34
73
92
0
VERTEX
8
0
6
CONTINUOUS
62
252
70
128
10
0.000000
20
0.000000
30
0.000000
71
92
72
34
73
35
0
VERTEX
8
0
6
CONTINUOUS
62
252
70
128
10
0.000000
20
0.000000
30
0.000000
71
92
72
35
73
91
0
VERTEX
8
0
6
CONTINUOUS
62
252
70
128
10
0.000000
20
0.000000
30
0.000000
71
91
72
35
73
36
0
VERTEX
8
0
6
CONTINUOUS
62
252
70
128
10
0.000000
20
0.000000
30
0.000000
71
91
72
36
73
90
0
VERTEX
8
0
6
CONTINUOUS
62
252
70
128
10
0.000000
20
0.000000
30
0.000000
71
90
72
36
73
37
0
VERTEX
8
0
6
CONTINUOUS
62
252
70
128
10
0.000000
20
0.000000
30
0.000000
71
90
72
37
73
38
0
VERTEX
8
0
6
CONTINUOUS
62
252
70
128
10
0.000000
20
0.000000
30
0.000000
71
39
72
88
73
38
0
VERTEX
8
0
6
CONTINUOUS
62
252
70
128
10
0.000000
20
0.000000
30
0.000000
71
38
72
88
73
89
0
VERTEX
8
0
6
CONTINUOUS
62
252
70
128
10
0.000000
20
0.000000
30
0.000000
71
38
72
89
73
90
0
VERTEX
8
0
6
CONTINUOUS
62
252
70
128
10
0.000000
20
0.000000
30
0.000000
71
39
72
40
73
88
0
VERTEX
8
0
6
CONTINUOUS
62
252
70
128
10
0.000000
20
0.000000
30
0.000000
71
88
72
40
73
87
0
VERTEX
8
0
6
CONTINUOUS
62
252
70
128
10
0.000000
20
0.000000
30
0.000000
71
87
72
40
73
41
0
SEQEND
0
POLYLINE
66
1
8
0
6
CONTINUOUS
62
252
70
64
75
0
10
0.000000
20
0.000000
30
0.000000
0
VERTEX
8
0
6
CONTINUOUS
62
252
70
192
10
0.970000
20
0.000000
30
0.250000
0
VERTEX
8
0
6
CONTINUOUS
62
252
70
192
10
0.970000
20
-0.026132
30
0.248630
0
VERTEX
8
0
6
CONTINUOUS
62
252
70
192
10
0.970000
20
-0.051978
30
0.244537
0
VERTEX
8
0
6
CONTINUOUS
62
252
70
192
10
0.970000
20
-0.077254
30
0.237764
0
VERTEX
8
0
6
CONTINUOUS
62
252
70
192
10
0.970000
20
-0.101684
30
0.228386
0
VERTEX
8
0
6
CONTINUOUS
62
252
70
192
10
0.970000
20
-0.125000
30
0.216506
0
VERTEX
8
0
6
CONTINUOUS
62
252
70
192
10
0.970000
20
-0.146946
30
0.202254
0
VERTEX
8
0
6
CONTINUOUS
62
252
70
192
10
0.970000
20
-0.167283
30
0.185786
0
VERTEX
8
0
6
CONTINUOUS
62
252
70
192
10
0.970000
20
-0.185786
30
0.167283
0
VERTEX
8
0
6
CONTINUOUS
62
252
70
192
10
0.970000
20
-0.202254
30
0.146946
0
VERTEX
8
0
6
CONTINUOUS
62
252
70
192
10
0.970000
20
-0.216506
30
0.125000
0
VERTEX
8
0
6
CONTINUOUS
62
252
70
192
10
0.970000
20
-0.228386
30
0.101684
0
VERTEX
8
0
6
CONTINUOUS
62
252
70
192
10
0.970000
20
-0.237764
30
0.077254
0
VERTEX
8
0
6
CONTINUOUS
62
252
70
192
10
0.970000
20
-0.244537
30
0.051978
0
VERTEX
8
0
6
CONTINUOUS
62
252
70
192
10
0.970000
20
-0.248630
30
0.026132
0
VERTEX
8
0
6
CONTINUOUS
62
252
70
192
10
0.970000
20
-0.250000
30
0.000000
0
VERTEX
8
0
6
CONTINUOUS
62
252
70
192
10
0.970000
20
-0.248630
30
-0.026132
0
VERTEX
8
0
6
CONTINUOUS
62
252
70
192
10
0.970000
20
-0.244537
30
-0.051978
0
VERTEX
8
0
6
CONTINUOUS
62
252
70
192
10
0.970000
20
-0.237764
30
-0.077254
0
VERTEX
8
0
6
CONTINUOUS
62
252
70
192
10
0.970000
20
-0.228386
30
-0.101684
0
VERTEX
8
0
6
CONTINUOUS
62
252
70
192
10
0.970000
20
-0.216506
30
-0.125000
0
VERTEX
8
0
6
CONTINUOUS
62
252
70
192
10
0.970000
20
-0.202254
30
-0.146946
0
VERTEX
8
0
6
CONTINUOUS
62
252
70
192
10
0.970000
20
-0.185786
30
-0.167283
0
VERTEX
8
0
6
CONTINUOUS
62
252
70
192
10
0.970000
20
-0.167283
30
-0.185786
0
VERTEX
8
0
6
CONTINUOUS
62
252
70
192
10
0.970000
20
-0.146946
30
-0.202254
0
VERTEX
8
0
6
CONTINUOUS
62
252
70
192
10
0.970000
20
-0.125000
30
-0.216506
0
VERTEX
8
0
6
CONTINUOUS
62
252
70
192
10
0.970000
20
-0.101684
30
-0.228386
0
VERTEX
8
0
6
CONTINUOUS
62
252
70
192
10
0.970000
20
-0.077254
30
-0.237764
0
VERTEX
8
0
6
CONTINUOUS
62
252
70
192
10
0.970000
20
-0.051978
30
-0.244537
0
VERTEX
8
0
6
CONTINUOUS
62
252
70
192
10
0.970000
20
-0.026132
30
-0.248630
0
VERTEX
8
0
6
CONTINUOUS
62
252
70
192
10
0.970000
20
-0.000000
30
-0.250000
0
VERTEX
8
0
6
CONTINUOUS
62
252
70
192
10
0.970000
20
0.026132
30
-0.248630
0
VERTEX
8
0
6
CONTINUOUS
62
252
70
192
10
0.970000
20
0.051978
30
-0.244537
0
VERTEX
8
0
6
CONTINUOUS
62
252
70
192
10
0.970000
20
0.077254
30
-0.237764
0
VERTEX
8
0
6
CONTINUOUS
62
252
70
192
10
0.970000
20
0.101684
30
-0.228386
0
VERTEX
8
0
6
CONTINUOUS
62
252
70
192
10
0.970000
20
0.125000
30
-0.216506
0
VERTEX
8
0
6
CONTINUOUS
62
252
70
192
10
0.970000
20
0.146946
30
-0.202254
0
VERTEX
8
0
6
CONTINUOUS
62
252
70
192
10
0.970000
20
0.167283
30
-0.185786
0
VERTEX
8
0
6
CONTINUOUS
62
252
70
192
10
0.970000
20
0.185786
30
-0.167283
0
VERTEX
8
0
6
CONTINUOUS
62
252
70
192
10
0.970000
20
0.202254
30
-0.146946
0
VERTEX
8
0
6
CONTINUOUS
62
252
70
192
10
0.970000
20
0.216506
30
-0.125000
0
VERTEX
8
0
6
CONTINUOUS
62
252
70
192
10
0.970000
20
0.228386
30
-0.101684
0
VERTEX
8
0
6
CONTINUOUS
62
252
70
192
10
0.970000
20
0.237764
30
-0.077254
0
VERTEX
8
0
6
CONTINUOUS
62
252
70
192
10
0.970000
20
0.244537
30
-0.051978
0
VERTEX
8
0
6
CONTINUOUS
62
252
70
192
10
0.970000
20
0.248630
30
-0.026132
0
VERTEX
8
0
6
CONTINUOUS
62
252
70
192
10
0.970000
20
0.250000
30
-0.000000
0
VERTEX
8
0
6
CONTINUOUS
62
252
70
192
10
0.970000
20
0.248630
30
0.026132
0
VERTEX
8
0
6
CONTINUOUS
62
252
70
192
10
0.970000
20
0.244537
30
0.051978
0
VERTEX
8
0
6
CONTINUOUS
62
252
70
192
10
0.970000
20
0.237764
30
0.077254
0
VERTEX
8
0
6
CONTINUOUS
62
252
70
192
10
0.970000
20
0.228386
30
0.101684
0
VERTEX
8
0
6
CONTINUOUS
62
252
70
192
10
0.970000
20
0.216506
30
0.125000
0
VERTEX
8
0
6
CONTINUOUS
62
252
70
192
10
0.970000
20
0.202254
30
0.146946
0
VERTEX
8
0
6
CONTINUOUS
62
252
70
192
10
0.970000
20
0.185786
30
0.167283
0
VERTEX
8
0
6
CONTINUOUS
62
252
70
192
10
0.970000
20
0.167283
30
0.185786
0
VERTEX
8
0
6
CONTINUOUS
62
252
70
192
10
0.970000
20
0.146946
30
0.202254
0
VERTEX
8
0
6
CONTINUOUS
62
252
70
192
10
0.970000
20
0.125000
30
0.216506
0
VERTEX
8
0
6
CONTINUOUS
62
252
70
192
10
0.970000
20
0.101684
30
0.228386
0
VERTEX
8
0
6
CONTINUOUS
62
252
70
192
10
0.970000
20
0.077254
30
0.237764
0
VERTEX
8
0
6
CONTINUOUS
62
252
70
192
10
0.970000
20
0.051978
30
0.244537
0
VERTEX
8
0
6
CONTINUOUS
62
252
70
192
10
0.970000
20
0.026132
30
0.248630
0
VERTEX
8
0
6
CONTINUOUS
62
252
70
192
10
0.970000
20
0.000000
30
-0.375000
0
VERTEX
8
0
6
CONTINUOUS
62
252
70
192
10
0.970000
20
-0.039198
30
-0.372946
0
VERTEX
8
0
6
CONTINUOUS
62
252
70
192
10
0.970000
20
-0.077967
30
-0.366805
0
VERTEX
8
0
6
CONTINUOUS
62
252
70
192
10
0.970000
20
-0.115881
30
-0.356646
0
VERTEX
8
0
6
CONTINUOUS
62
252
70
192
10
0.970000
20
-0.152526
30
-0.342580
0
VERTEX
8
0
6
CONTINUOUS
62
252
70
192
10
0.970000
20
-0.187500
30
-0.324760
0
VERTEX
8
0
6
CONTINUOUS
62
252
70
192
10
0.970000
20
-0.220419
30
-0.303381
0
VERTEX
8
0
6
CONTINUOUS
62
252
70
192
10
0.970000
20
-0.250924
30
-0.278679
0
VERTEX
8
0
6
CONTINUOUS
62
252
70
192
10
0.970000
20
-0.278679
30
-0.250924
0
VERTEX
8
0
6
CONTINUOUS
62
252
70
192
10
0.970000
20
-0.303381
30
-0.220419
0
VERTEX
8
0
6
CONTINUOUS
62
252
70
192
10
0.970000
20
-0.324760
30
-0.187500
0
VERTEX
8
0
6
CONTINUOUS
62
252
70
192
10
0.970000
20
-0.342580
30
-0.152526
0
VERTEX
8
0
6
CONTINUOUS
62
252
70
192
10
0.970000
20
-0.356646
30
-0.115881
0
VERTEX
8
0
6
CONTINUOUS
62
252
70
192
10
0.970000
20
-0.366805
30
-0.077967
0
VERTEX
8
0
6
CONTINUOUS
62
252
70
192
10
0.970000
20
-0.372946
30
-0.039198
0
VERTEX
8
0
6
CONTINUOUS
62
252
70
192
10
0.970000
20
-0.375000
30
0.000000
0
VERTEX
8
0
6
CONTINUOUS
62
252
70
192
10
0.970000
20
-0.372946
30
0.039198
0
VERTEX
8
0
6
CONTINUOUS
62
252
70
192
10
0.970000
20
-0.366805
30
0.077967
0
VERTEX
8
0
6
CONTINUOUS
62
252
70
192
10
0.970000
20
-0.356646
30
0.115881
0
VERTEX
8
0
6
CONTINUOUS
62
252
70
192
10
0.970000
20
-0.342580
30
0.152526
0
VERTEX
8
0
6
CONTINUOUS
62
252
70
192
10
0.970000
20
-0.324760
30
0.187500
0
VERTEX
8
0
6
CONTINUOUS
62
252
70
192
10
0.970000
20
-0.303381
30
0.220419
0
VERTEX
8
0
6
CONTINUOUS
62
252
70
192
10
0.970000
20
-0.278679
30
0.250924
0
VERTEX
8
0
6
CONTINUOUS
62
252
70
192
10
0.970000
20
-0.250924
30
0.278679
0
VERTEX
8
0
6
CONTINUOUS
62
252
70
192
10
0.970000
20
-0.220419
30
0.303381
0
VERTEX
8
0
6
CONTINUOUS
62
252
70
192
10
0.970000
20
-0.187500
30
0.324760
0
VERTEX
8
0
6
CONTINUOUS
62
252
70
192
10
0.970000
20
-0.152526
30
0.342580
0
VERTEX
8
0
6
CONTINUOUS
62
252
70
192
10
0.970000
20
-0.115881
30
0.356646
0
VERTEX
8
0
6
CONTINUOUS
62
252
70
192
10
0.970000
20
-0.077967
30
0.366805
0
VERTEX
8
0
6
CONTINUOUS
62
252
70
192
10
0.970000
20
-0.039198
30
0.372946
0
VERTEX
8
0
6
CONTINUOUS
62
252
70
192
10
0.970000
20
0.000000
30
0.375000
0
VERTEX
8
0
6
CONTINUOUS
62
252
70
192
10
0.970000
20
0.039198
30
0.372946
0
VERTEX
8
0
6
CONTINUOUS
62
252
70
192
10
0.970000
20
0.077967
30
0.366805
0
VERTEX
8
0
6
CONTINUOUS
62
252
70
192
10
0.970000
20
0.115881
30
0.356646
0
VERTEX
8
0
6
CONTINUOUS
62
252
70
192
10
0.970000
20
0.152526
30
0.342580
0
VERTEX
8
0
6
CONTINUOUS
62
252
70
192
10
0.970000
20
0.187500
30
0.324760
0
VERTEX
8
0
6
CONTINUOUS
62
252
70
192
10
0.970000
20
0.220419
30
0.303381
0
VERTEX
8
0
6
CONTINUOUS
62
252
70
192
10
0.970000
20
0.250924
30
0.278679
0
VERTEX
8
0
6
CONTINUOUS
62
252
70
192
10
0.970000
20
0.278679
30
0.250924
0
VERTEX
8
0
6
CONTINUOUS
62
252
70
192
10
0.970000
20
0.303381
30
0.220419
0
VERTEX
8
0
6
CONTINUOUS
62
252
70
192
10
0.970000
20
0.324760
30
0.187500
0
VERTEX
8
0
6
CONTINUOUS
62
252
70
192
10
0.970000
20
0.342580
30
0.152526
0
VERTEX
8
0
6
CONTINUOUS
62
252
70
192
10
0.970000
20
0.356646
30
0.115881
0
VERTEX
8
0
6
CONTINUOUS
62
252
70
192
10
0.970000
20
0.366805
30
0.077967
0
VERTEX
8
0
6
CONTINUOUS
62
252
70
192
10
0.970000
20
0.372946
30
0.039198
0
VERTEX
8
0
6
CONTINUOUS
62
252
70
192
10
0.970000
20
0.375000
30
0.000000
0
VERTEX
8
0
6
CONTINUOUS
62
252
70
192
10
0.970000
20
0.372946
30
-0.039198
0
VERTEX
8
0
6
CONTINUOUS
62
252
70
192
10
0.970000
20
0.366805
30
-0.077967
0
VERTEX
8
0
6
CONTINUOUS
62
252
70
192
10
0.970000
20
0.356646
30
-0.115881
0
VERTEX
8
0
6
CONTINUOUS
62
252
70
192
10
0.970000
20
0.342580
30
-0.152526
0
VERTEX
8
0
6
CONTINUOUS
62
252
70
192
10
0.970000
20
0.324760
30
-0.187500
0
VERTEX
8
0
6
CONTINUOUS
62
252
70
192
10
0.970000
20
0.303381
30
-0.220419
0
VERTEX
8
0
6
CONTINUOUS
62
252
70
192
10
0.970000
20
0.278679
30
-0.250924
0
VERTEX
8
0
6
CONTINUOUS
62
252
70
192
10
0.970000
20
0.250924
30
-0.278679
0
VERTEX
8
0
6
CONTINUOUS
62
252
70
192
10
0.970000
20
0.220419
30
-0.303381
0
VERTEX
8
0
6
CONTINUOUS
62
252
70
192
10
0.970000
20
0.187500
30
-0.324760
0
VERTEX
8
0
6
CONTINUOUS
62
252
70
192
10
0.970000
20
0.152526
30
-0.342580
0
VERTEX
8
0
6
CONTINUOUS
62
252
70
192
10
0.970000
20
0.115881
30
-0.356646
0
VERTEX
8
0
6
CONTINUOUS
62
252
70
192
10
0.970000
20
0.077967
30
-0.366805
0
VERTEX
8
0
6
CONTINUOUS
62
252
70
192
10
0.970000
20
0.039198
30
-0.372946
0
VERTEX
8
0
6
CONTINUOUS
62
252
70
128
10
0.000000
20
0.000000
30
0.000000
71
2
72
90
73
1
0
VERTEX
8
0
6
CONTINUOUS
62
252
70
128
10
0.000000
20
0.000000
30
0.000000
71
1
72
90
73
91
0
VERTEX
8
0
6
CONTINUOUS
62
252
70
128
10
0.000000
20
0.000000
30
0.000000
71
1
72
91
73
92
0
VERTEX
8
0
6
CONTINUOUS
62
252
70
128
10
0.000000
20
0.000000
30
0.000000
71
2
72
3
73
90
0
VERTEX
8
0
6
CONTINUOUS
62
252
70
128
10
0.000000
20
0.000000
30
0.000000
71
90
72
3
73
89
0
VERTEX
8
0
6
CONTINUOUS
62
252
70
128
10
0.000000
20
0.000000
30
0.000000
71
89
72
3
73
88
0
VERTEX
8
0
6
CONTINUOUS
62
252
70
128
10
0.000000
20
0.000000
30
0.000000
71
88
72
3
73
4
0
VERTEX
8
0
6
CONTINUOUS
62
252
70
128
10
0.000000
20
0.000000
30
0.000000
71
88
72
4
73
87
0
VERTEX
8
0
6
CONTINUOUS
62
252
70
128
10
0.000000
20
0.000000
30
0.000000
71
87
72
4
73
5
0
VERTEX
8
0
6
CONTINUOUS
62
252
70
128
10
0.000000
20
0.000000
30
0.000000
71
87
72
5
73
6
0
VERTEX
8
0
6
CONTINUOUS
62
252
70
128
10
0.000000
20
0.000000
30
0.000000
71
87
72
6
73
86
0
VERTEX
8
0
6
CONTINUOUS
62
252
70
128
10
0.000000
20
0.000000
30
0.000000
71
86
72
6
73
7
0
VERTEX
8
0
6
CONTINUOUS
62
252
70
128
10
0.000000
20
0.000000
30
0.000000
71
86
72
7
73
85
0
VERTEX
8
0
6
CONTINUOUS
62
252
70
128
10
0.000000
20
0.000000
30
0.000000
71
85
72
7
73
84
0
VERTEX
8
0
6
CONTINUOUS
62
252
70
128
10
0.000000
20
0.000000
30
0.000000
71
84
72
7
73
8
0
VERTEX
8
0
6
CONTINUOUS
62
252
70
128
10
0.000000
20
0.000000
30
0.000000
71
84
72
8
73
9
0
VERTEX
8
0
6
CONTINUOUS
62
252
70
128
10
0.000000
20
0.000000
30
0.000000
71
10
72
82
73
9
0
VERTEX
8
0
6
CONTINUOUS
62
252
70
128
10
0.000000
20
0.000000
30
0.000000
71
9
72
82
73
83
0
VERTEX
8
0
6
CONTINUOUS
62
252
70
128
10
0.000000
20
0.000000
30
0.000000
71
9
72
83
73
84
0
VERTEX
8
0
6
CONTINUOUS
62
252
70
128
10
0.000000
20
0.000000
30
0.000000
71
82
72
10
73
81
0
VERTEX
8
0
6
CONTINUOUS
62
252
70
128
10
0.000000
20
0.000000
30
0.000000
71
81
72
10
73
11
0
VERTEX
8
0
6
CONTINUOUS
62
252
70
128
10
0.000000
20
0.000000
30
0.000000
71
81
72
11
73
12
0
VERTEX
8
0
6
CONTINUOUS
62
252
70
128
10
0.000000
20
0.000000
30
0.000000
71
81
72
12
73
80
0
VERTEX
8
0
6
CONTINUOUS
62
252
70
128
10
0.000000
20
0.000000
30
0.000000
71
80
72
12
73
13
0
VERTEX
8
0
6
CONTINUOUS
62
252
70
128
10
0.000000
20
0.000000
30
0.000000
71
80
72
13
73
79
0
VERTEX
8
0
6
CONTINUOUS
62
252
70
128
10
0.000000
20
0.000000
30
0.000000
71
79
72
13
73
14
0
VERTEX
8
0
6
CONTINUOUS
62
252
70
128
10
0.000000
20
0.000000
30
0.000000
71
79
72
14
73
78
0
VERTEX
8
0
6
CONTINUOUS
62
252
70
128
10
0.000000
20
0.000000
30
0.000000
71
78
72
14
73
15
0
VERTEX
8
0
6
CONTINUOUS
62
252
70
128
10
0.000000
20
0.000000
30
0.000000
71
78
72
15
73
77
0
VERTEX
8
0
6
CONTINUOUS
62
252
70
128
10
0.000000
20
0.000000
30
0.000000
71
77
72
15
73
16
0
VERTEX
8
0
6
CONTINUOUS
62
252
70
128
10
0.000000
20
0.000000
30
0.000000
71
77
72
16
73
76
0
VERTEX
8
0
6
CONTINUOUS
62
252
70
128
10
0.000000
20
0.000000
30
0.000000
71
76
72
16
73
75
0
VERTEX
8
0
6
CONTINUOUS
62
252
70
128
10
0.000000
20
0.000000
30
0.000000
71
75
72
16
73
17
0
VERTEX
8
0
6
CONTINUOUS
62
252
70
128
10
0.000000
20
0.000000
30
0.000000
71
75
72
17
73
18
0
VERTEX
8
0
6
CONTINUOUS
62
252
70
128
10
0.000000
20
0.000000
30
0.000000
71
19
72
73
73
18
0
VERTEX
8
0
6
CONTINUOUS
62
252
70
128
10
0.000000
20
0.000000
30
0.000000
71
18
72
73
73
74
0
VERTEX
8
0
6
CONTINUOUS
62
252
70
128
10
0.000000
20
0.000000
30
0.000000
71
18
72
74
73
75
0
VERTEX
8
0
6
CONTINUOUS
62
252
70
128
10
0.000000
20
0.000000
30
0.000000
71
19
72
20
73
73
0
VERTEX
8
0
6
CONTINUOUS
62
252
70
128
10
0.000000
20
0.000000
30
0.000000
71
73
72
20
73
72
0
VERTEX
8
0
6
CONTINUOUS
62
252
70
128
10
0.000000
20
0.000000
30
0.000000
71
72
72
20
73
21
0
VERTEX
8
0
6
CONTINUOUS
62
252
70
128
10
0.000000
20
0.000000
30
0.000000
71
72
72
21
73
71
0
VERTEX
8
0
6
CONTINUOUS
62
252
70
128
10
0.000000
20
0.000000
30
0.000000
71
71
72
21
73
70
0
VERTEX
8
0
6
CONTINUOUS
62
252
70
128
10
0.000000
20
0.000000
30
0.000000
71
70
72
21
73
22
0
VERTEX
8
0
6
CONTINUOUS
62
252
70
128
10
0.000000
20
0.000000
30
0.000000
71
70
72
22
73
23
0
VERTEX
8
0
6
CONTINUOUS
62
252
70
128
10
0.000000
20
0.000000
30
0.000000
71
70
72
23
73
69
0
VERTEX
8
0
6
CONTINUOUS
62
252
70
128
10
0.000000
20
0.000000
30
0.000000
71
69
72
23
73
24
0
VERTEX
8
0
6
CONTINUOUS
62
252
70
128
10
0.000000
20
0.000000
30
0.000000
71
69
72
24
73
68
0
VERTEX
8
0
6
CONTINUOUS
62
252
70
128
10
0.000000
20
0.000000
30
0.000000
71
68
72
24
73
25
0
VERTEX
8
0
6
CONTINUOUS
62
252
70
128
10
0.000000
20
0.000000
30
0.000000
71
68
72
25
73
67
0
VERTEX
8
0
6
CONTINUOUS
62
252
70
128
10
0.000000
20
0.000000
30
0.000000
71
67
72
25
73
26
0
VERTEX
8
0
6
CONTINUOUS
62
252
70
128
10
0.000000
20
0.000000
30
0.000000
71
67
72
26
73
66
0
VERTEX
8
0
6
CONTINUOUS
62
252
70
128
10
0.000000
20
0.000000
30
0.000000
71
66
72
26
73
27
0
VERTEX
8
0
6
CONTINUOUS
62
252
70
128
10
0.000000
20
0.000000
30
0.000000
71
66
72
27
73
65
0
VERTEX
8
0
6
CONTINUOUS
62
252
70
128
10
0.000000
20
0.000000
30
0.000000
71
65
72
27
73
28
0
VERTEX
8
0
6
CONTINUOUS
62
252
70
128
10
0.000000
20
0.000000
30
0.000000
71
65
72
28
73
64
0
VERTEX
8
0
6
CONTINUOUS
62
252
70
128
10
0.000000
20
0.000000
30
0.000000
71
64
72
28
73
29
0
VERTEX
8
0
6
CONTINUOUS
62
252
70
128
10
0.000000
20
0.000000
30
0.000000
71
64
72
29
73
63
0
VERTEX
8
0
6
CONTINUOUS
62
252
70
128
10
0.000000
20
0.000000
30
0.000000
71
63
72
29
73
30
0
VERTEX
8
0
6
CONTINUOUS
62
252
70
128
10
0.000000
20
0.000000
30
0.000000
71
63
72
30
73
62
0
VERTEX
8
0
6
CONTINUOUS
62
252
70
128
10
0.000000
20
0.000000
30
0.000000
71
62
72
30
73
31
0
VERTEX
8
0
6
CONTINUOUS
62
252
70
128
10
0.000000
20
0.000000
30
0.000000
71
62
72
31
73
61
0
VERTEX
8
0
6
CONTINUOUS
62
252
70
128
10
0.000000
20
0.000000
30
0.000000
71
61
72
31
73
32
0
VERTEX
8
0
6
CONTINUOUS
62
252
70
128
10
0.000000
20
0.000000
30
0.000000
71
61
72
32
73
120
0
VERTEX
8
0
6
CONTINUOUS
62
252
70
128
10
0.000000
20
0.000000
30
0.000000
71
120
72
32
73
33
0
VERTEX
8
0
6
CONTINUOUS
62
252
70
128
10
0.000000
20
0.000000
30
0.000000
71
120
72
33
73
119
0
VERTEX
8
0
6
CONTINUOUS
62
252
70
128
10
0.000000
20
0.000000
30
0.000000
71
119
72
33
73
34
0
VERTEX
8
0
6
CONTINUOUS
62
252
70
128
10
0.000000
20
0.000000
30
0.000000
71
119
72
34
73
118
0
VERTEX
8
0
6
CONTINUOUS
62
252
70
128
10
0.000000
20
0.000000
30
0.000000
71
118
72
34
73
35
0
VERTEX
8
0
6
CONTINUOUS
62
252
70
128
10
0.000000
20
0.000000
30
0.000000
71
118
72
35
73
117
0
VERTEX
8
0
6
CONTINUOUS
62
252
70
128
10
0.000000
20
0.000000
30
0.000000
71
117
72
35
73
36
0
VERTEX
8
0
6
CONTINUOUS
62
252
70
128
10
0.000000
20
0.000000
30
0.000000
71
117
72
36
73
116
0
VERTEX
8
0
6
CONTINUOUS
62
252
70
128
10
0.000000
20
0.000000
30
0.000000
71
116
72
36
73
37
0
VERTEX
8
0
6
CONTINUOUS
62
252
70
128
10
0.000000
20
0.000000
30
0.000000
71
116
72
37
73
115
0
VERTEX
8
0
6
CONTINUOUS
62
252
70
128
10
0.000000
20
0.000000
30
0.000000
71
115
72
37
73
38
0
VERTEX
8
0
6
CONTINUOUS
62
252
70
128
10
0.000000
20
0.000000
30
0.000000
71
115
72
38
73
114
0
VERTEX
8
0
6
CONTINUOUS
62
252
70
128
10
0.000000
20
0.000000
30
0.000000
71
114
72
38
73
39
0
VERTEX
8
0
6
CONTINUOUS
62
252
70
128
10
0.000000
20
0.000000
30
0.000000
71
114
72
39
73
113
0
VERTEX
8
0
6
CONTINUOUS
62
252
70
128
10
0.000000
20
0.000000
30
0.000000
71
113
72
39
73
40
0
VERTEX
8
0
6
CONTINUOUS
62
252
70
128
10
0.000000
20
0.000000
30
0.000000
71
113
72
40
73
112
0
VERTEX
8
0
6
CONTINUOUS
62
252
70
128
10
0.000000
20
0.000000
30
0.000000
71
112
72
40
73
41
0
VERTEX
8
0
6
CONTINUOUS
62
252
70
128
10
0.000000
20
0.000000
30
0.000000
71
112
72
41
73
111
0
VERTEX
8
0
6
CONTINUOUS
62
252
70
128
10
0.000000
20
0.000000
30
0.000000
71
111
72
41
73
42
0
VERTEX
8
0
6
CONTINUOUS
62
252
70
128
10
0.000000
20
0.000000
30
0.000000
71
111
72
42
73
110
0
VERTEX
8
0
6
CONTINUOUS
62
252
70
128
10
0.000000
20
0.000000
30
0.000000
71
110
72
42
73
43
0
VERTEX
8
0
6
CONTINUOUS
62
252
70
128
10
0.000000
20
0.000000
30
0.000000
71
110
72
43
73
109
0
VERTEX
8
0
6
CONTINUOUS
62
252
70
128
10
0.000000
20
0.000000
30
0.000000
71
109
72
43
73
44
0
VERTEX
8
0
6
CONTINUOUS
62
252
70
128
10
0.000000
20
0.000000
30
0.000000
71
109
72
44
73
108
0
VERTEX
8
0
6
CONTINUOUS
62
252
70
128
10
0.000000
20
0.000000
30
0.000000
71
108
72
44
73
45
0
VERTEX
8
0
6
CONTINUOUS
62
252
70
128
10
0.000000
20
0.000000
30
0.000000
71
108
72
45
73
107
0
VERTEX
8
0
6
CONTINUOUS
62
252
70
128
10
0.000000
20
0.000000
30
0.000000
71
107
72
45
73
46
0
VERTEX
8
0
6
CONTINUOUS
62
252
70
128
10
0.000000
20
0.000000
30
0.000000
71
107
72
46
73
106
0
VERTEX
8
0
6
CONTINUOUS
62
252
70
128
10
0.000000
20
0.000000
30
0.000000
71
106
72
46
73
47
0
VERTEX
8
0
6
CONTINUOUS
62
252
70
128
10
0.000000
20
0.000000
30
0.000000
71
106
72
47
73
105
0
VERTEX
8
0
6
CONTINUOUS
62
252
70
128
10
0.000000
20
0.000000
30
0.000000
71
105
72
47
73
48
0
VERTEX
8
0
6
CONTINUOUS
62
252
70
128
10
0.000000
20
0.000000
30
0.000000
71
105
72
48
73
104
0
VERTEX
8
0
6
CONTINUOUS
62
252
70
128
10
0.000000
20
0.000000
30
0.000000
71
104
72
48
73
49
0
VERTEX
8
0
6
CONTINUOUS
62
252
70
128
10
0.000000
20
0.000000
30
0.000000
71
104
72
49
73
103
0
VERTEX
8
0
6
CONTINUOUS
62
252
70
128
10
0.000000
20
0.000000
30
0.000000
71
103
72
49
73
50
0
VERTEX
8
0
6
CONTINUOUS
62
252
70
128
10
0.000000
20
0.000000
30
0.000000
71
103
72
50
73
102
0
VERTEX
8
0
6
CONTINUOUS
62
252
70
128
10
0.000000
20
0.000000
30
0.000000
71
102
72
50
73
51
0
VERTEX
8
0
6
CONTINUOUS
62
252
70
128
10
0.000000
20
0.000000
30
0.000000
71
102
72
51
73
101
0
VERTEX
8
0
6
CONTINUOUS
62
252
70
128
10
0.000000
20
0.000000
30
0.000000
71
101
72
51
73
52
0
VERTEX
8
0
6
CONTINUOUS
62
252
70
128
10
0.000000
20
0.000000
30
0.000000
71
101
72
52
73
100
0
VERTEX
8
0
6
CONTINUOUS
62
252
70
128
10
0.000000
20
0.000000
30
0.000000
71
100
72
52
73
53
0
VERTEX
8
0
6
CONTINUOUS
62
252
70
128
10
0.000000
20
0.000000
30
0.000000
71
100
72
53
73
99
0
VERTEX
8
0
6
CONTINUOUS
62
252
70
128
10
0.000000
20
0.000000
30
0.000000
71
99
72
53
73
54
0
VERTEX
8
0
6
CONTINUOUS
62
252
70
128
10
0.000000
20
0.000000
30
0.000000
71
99
72
54
73
98
0
VERTEX
8
0
6
CONTINUOUS
62
252
70
128
10
0.000000
20
0.000000
30
0.000000
71
98
72
54
73
55
0
VERTEX
8
0
6
CONTINUOUS
62
252
70
128
10
0.000000
20
0.000000
30
0.000000
71
98
72
55
73
97
0
VERTEX
8
0
6
CONTINUOUS
62
252
70
128
10
0.000000
20
0.000000
30
0.000000
71
97
72
55
73
96
0
VERTEX
8
0
6
CONTINUOUS
62
252
70
128
10
0.000000
20
0.000000
30
0.000000
71
96
72
55
73
56
0
VERTEX
8
0
6
CONTINUOUS
62
252
70
128
10
0.000000
20
0.000000
30
0.000000
71
96
72
56
73
57
0
VERTEX
8
0
6
CONTINUOUS
62
252
70
128
10
0.000000
20
0.000000
30
0.000000
71
96
72
57
73
95
0
VERTEX
8
0
6
CONTINUOUS
62
252
70
128
10
0.000000
20
0.000000
30
0.000000
71
95
72
57
73
58
0
VERTEX
8
0
6
CONTINUOUS
62
252
70
128
10
0.000000
20
0.000000
30
0.000000
71
95
72
58
73
94
0
VERTEX
8
0
6
CONTINUOUS
62
252
70
128
10
0.000000
20
0.000000
30
0.000000
71
94
72
58
73
59
0
VERTEX
8
0
6
CONTINUOUS
62
252
70
128
10
0.000000
20
0.000000
30
0.000000
71
94
72
59
73
93
0
VERTEX
8
0
6
CONTINUOUS
62
252
70
128
10
0.000000
20
0.000000
30
0.000000
71
93
72
59
73
60
0
VERTEX
8
0
6
CONTINUOUS
62
252
70
128
10
0.000000
20
0.000000
30
0.000000
71
93
72
60
73
92
0
VERTEX
8
0
6
CONTINUOUS
62
252
70
128
10
0.000000
20
0.000000
30
0.000000
71
92
72
60
73
1
0
SEQEND
0
POLYLINE
66
1
8
0
6
CONTINUOUS
62
252
70
64
75
0
10
0.000000
20
0.000000
30
0.000000
0
VERTEX
8
0
6
CONTINUOUS
62
252
70
192
10
1.078000
20
0.187500
30
0.324760
0
VERTEX
8
0
6
CONTINUOUS
62
252
70
192
10
1.079667
20
0.232450
30
0.298808
0
VERTEX
8
0
6
CONTINUOUS
62
252
70
192
10
1.084637
20
0.277822
30
0.272612
0
VERTEX
8
0
6
CONTINUOUS
62
252
70
192
10
1.093003
20
0.324884
30
0.245441
0
VERTEX
8
0
6
CONTINUOUS
62
252
70
192
10
1.105052
20
0.375000
30
0.216506
0
VERTEX
8
0
6
CONTINUOUS
62
252
70
192
10
1.093003
20
0.375000
30
0.158637
0
VERTEX
8
0
6
CONTINUOUS
62
252
70
192
10
1.084637
20
0.375000
30
0.104295
0
VERTEX
8
0
6
CONTINUOUS
62
252
70
192
10
1.079667
20
0.375000
30
0.051903
0
VERTEX
8
0
6
CONTINUOUS
62
252
70
192
10
1.078000
20
0.375000
30
0.000000
0
VERTEX
8
0
6
CONTINUOUS
62
252
70
192
10
1.078000
20
0.372946
30
0.039198
0
VERTEX
8
0
6
CONTINUOUS
62
252
70
192
10
1.078000
20
0.366805
30
0.077967
0
VERTEX
8
0
6
CONTINUOUS
62
252
70
192
10
1.078000
20
0.356646
30
0.115881
0
VERTEX
8
0
6
CONTINUOUS
62
252
70
192
10
1.078000
20
0.342580
30
0.152526
0
VERTEX
8
0
6
CONTINUOUS
62
252
70
192
10
1.078000
20
0.324760
30
0.187500
0
VERTEX
8
0
6
CONTINUOUS
62
252
70
192
10
1.078000
20
0.303381
30
0.220419
0
VERTEX
8
0
6
CONTINUOUS
62
252
70
192
10
1.078000
20
0.278679
30
0.250924
0
VERTEX
8
0
6
CONTINUOUS
62
252
70
192
10
1.078000
20
0.250924
30
0.278679
0
VERTEX
8
0
6
CONTINUOUS
62
252
70
192
10
1.078000
20
0.220419
30
0.303381
0
VERTEX
8
0
6
CONTINUOUS
62
252
70
128
10
0.000000
20
0.000000
30
0.000000
71
1
72
2
73
18
0
VERTEX
8
0
6
CONTINUOUS
62
252
70
128
10
0.000000
20
0.000000
30
0.000000
71
18
72
2
73
17
0
VERTEX
8
0
6
CONTINUOUS
62
252
70
128
10
0.000000
20
0.000000
30
0.000000
71
17
72
2
73
3
0
VERTEX
8
0
6
CONTINUOUS
62
252
70
128
10
0.000000
20
0.000000
30
0.000000
71
17
72
3
73
16
0
VERTEX
8
0
6
CONTINUOUS
62
252
70
128
10
0.000000
20
0.000000
30
0.000000
71
16
72
3
73
4
0
VERTEX
8
0
6
CONTINUOUS
62
252
70
128
10
0.000000
20
0.000000
30
0.000000
71
16
72
4
73
15
0
VERTEX
8
0
6
CONTINUOUS
62
252
70
128
10
0.000000
20
0.000000
30
0.000000
71
15
72
4
73
5
0
VERTEX
8
0
6
CONTINUOUS
62
252
70
128
10
0.000000
20
0.000000
30
0.000000
71
15
72
5
73
14
0
VERTEX
8
0
6
CONTINUOUS
62
252
70
128
10
0.000000
20
0.000000
30
0.000000
71
14
72
5
73
13
0
VERTEX
8
0
6
CONTINUOUS
62
252
70
128
10
0.000000
20
0.000000
30
0.000000
71
13
72
5
73
6
0
VERTEX
8
0
6
CONTINUOUS
62
252
70
128
10
0.000000
20
0.000000
30
0.000000
71
13
72
6
73
12
0
VERTEX
8
0
6
CONTINUOUS
62
252
70
128
10
0.000000
20
0.000000
30
0.000000
71
12
72
6
73
7
0
VERTEX
8
0
6
CONTINUOUS
62
252
70
128
10
0.000000
20
0.000000
30
0.000000
71
12
72
7
73
11
0
VERTEX
8
0
6
CONTINUOUS
62
252
70
128
10
0.000000
20
0.000000
30
0.000000
71
11
72
7
73
8
0
VERTEX
8
0
6
CONTINUOUS
62
252
70
128
10
0.000000
20
0.000000
30
0.000000
71
11
72
8
73
10
0
VERTEX
8
0
6
CONTINUOUS
62
252
70
128
10
0.000000
20
0.000000
30
0.000000
71
10
72
8
73
9
0
SEQEND
0
POLYLINE
66
1
8
0
6
CONTINUOUS
62
252
70
64
75
0
10
0.000000
20
0.000000
30
0.000000
0
VERTEX
8
0
6
CONTINUOUS
62
252
70
192
10
1.105052
20
0.375000
30
-0.216506
0
VERTEX
8
0
6
CONTINUOUS
62
252
70
192
10
1.093003
20
0.324884
30
-0.245441
0
VERTEX
8
0
6
CONTINUOUS
62
252
70
192
10
1.084637
20
0.277822
30
-0.272612
0
VERTEX
8
0
6
CONTINUOUS
62
252
70
192
10
1.079667
20
0.232450
30
-0.298808
0
VERTEX
8
0
6
CONTINUOUS
62
252
70
192
10
1.078000
20
0.187500
30
-0.324760
0
VERTEX
8
0
6
CONTINUOUS
62
252
70
192
10
1.078000
20
0.220419
30
-0.303381
0
VERTEX
8
0
6
CONTINUOUS
62
252
70
192
10
1.078000
20
0.250924
30
-0.278679
0
VERTEX
8
0
6
CONTINUOUS
62
252
70
192
10
1.078000
20
0.278679
30
-0.250924
0
VERTEX
8
0
6
CONTINUOUS
62
252
70
192
10
1.078000
20
0.303381
30
-0.220419
0
VERTEX
8
0
6
CONTINUOUS
62
252
70
192
10
1.078000
20
0.324760
30
-0.187500
0
VERTEX
8
0
6
CONTINUOUS
62
252
70
192
10
1.078000
20
0.342580
30
-0.152526
0
VERTEX
8
0
6
CONTINUOUS
62
252
70
192
10
1.078000
20
0.356646
30
-0.115881
0
VERTEX
8
0
6
CONTINUOUS
62
252
70
192
10
1.078000
20
0.366805
30
-0.077967
0
VERTEX
8
0
6
CONTINUOUS
62
252
70
192
10
1.078000
20
0.372946
30
-0.039198
0
VERTEX
8
0
6
CONTINUOUS
62
252
70
192
10
1.078000
20
0.375000
30
0.000000
0
VERTEX
8
0
6
CONTINUOUS
62
252
70
192
10
1.079667
20
0.375000
30
-0.051903
0
VERTEX
8
0
6
CONTINUOUS
62
252
70
192
10
1.084637
20
0.375000
30
-0.104295
0
VERTEX
8
0
6
CONTINUOUS
62
252
70
192
10
1.093003
20
0.375000
30
-0.158637
0
VERTEX
8
0
6
CONTINUOUS
62
252
70
128
10
0.000000
20
0.000000
30
0.000000
71
2
72
9
73
1
0
VERTEX
8
0
6
CONTINUOUS
62
252
70
128
10
0.000000
20
0.000000
30
0.000000
71
1
72
9
73
10
0
VERTEX
8
0
6
CONTINUOUS
62
252
70
128
10
0.000000
20
0.000000
30
0.000000
71
1
72
10
73
11
0
VERTEX
8
0
6
CONTINUOUS
62
252
70
128
10
0.000000
20
0.000000
30
0.000000
71
9
72
2
73
8
0
VERTEX
8
0
6
CONTINUOUS
62
252
70
128
10
0.000000
20
0.000000
30
0.000000
71
8
72
2
73
3
0
VERTEX
8
0
6
CONTINUOUS
62
252
70
128
10
0.000000
20
0.000000
30
0.000000
71
8
72
3
73
7
0
VERTEX
8
0
6
CONTINUOUS
62
252
70
128
10
0.000000
20
0.000000
30
0.000000
71
7
72
3
73
4
0
VERTEX
8
0
6
CONTINUOUS
62
252
70
128
10
0.000000
20
0.000000
30
0.000000
71
7
72
4
73
6
0
VERTEX
8
0
6
CONTINUOUS
62
252
70
128
10
0.000000
20
0.000000
30
0.000000
71
6
72
4
73
5
0
VERTEX
8
0
6
CONTINUOUS
62
252
70
128
10
0.000000
20
0.000000
30
0.000000
71
1
72
11
73
18
0
VERTEX
8
0
6
CONTINUOUS
62
252
70
128
10
0.000000
20
0.000000
30
0.000000
71
18
72
11
73
12
0
VERTEX
8
0
6
CONTINUOUS
62
252
70
128
10
0.000000
20
0.000000
30
0.000000
71
18
72
12
73
17
0
VERTEX
8
0
6
CONTINUOUS
62
252
70
128
10
0.000000
20
0.000000
30
0.000000
71
17
72
12
73
13
0
VERTEX
8
0
6
CONTINUOUS
62
252
70
128
10
0.000000
20
0.000000
30
0.000000
71
17
72
13
73
16
0
VERTEX
8
0
6
CONTINUOUS
62
252
70
128
10
0.000000
20
0.000000
30
0.000000
71
16
72
13
73
14
0
VERTEX
8
0
6
CONTINUOUS
62
252
70
128
10
0.000000
20
0.000000
30
0.000000
71
16
72
14
73
15
0
SEQEND
0
POLYLINE
66
1
8
0
6
CONTINUOUS
62
252
70
64
75
0
10
0.000000
20
0.000000
30
0.000000
0
VERTEX
8
0
6
CONTINUOUS
62
252
70
192
10
1.078000
20
-0.187500
30
0.324760
0
VERTEX
8
0
6
CONTINUOUS
62
252
70
192
10
1.079667
20
-0.142550
30
0.350711
0
VERTEX
8
0
6
CONTINUOUS
62
252
70
192
10
1.084637
20
-0.097178
30
0.376907
0
VERTEX
8
0
6
CONTINUOUS
62
252
70
192
10
1.093003
20
-0.050116
30
0.404078
0
VERTEX
8
0
6
CONTINUOUS
62
252
70
192
10
1.105052
20
0.000000
30
0.433013
0
VERTEX
8
0
6
CONTINUOUS
62
252
70
192
10
1.093003
20
0.050116
30
0.404078
0
VERTEX
8
0
6
CONTINUOUS
62
252
70
192
10
1.084637
20
0.097178
30
0.376907
0
VERTEX
8
0
6
CONTINUOUS
62
252
70
192
10
1.079667
20
0.142550
30
0.350711
0
VERTEX
8
0
6
CONTINUOUS
62
252
70
192
10
1.078000
20
0.187500
30
0.324760
0
VERTEX
8
0
6
CONTINUOUS
62
252
70
192
10
1.078000
20
0.152526
30
0.342580
0
VERTEX
8
0
6
CONTINUOUS
62
252
70
192
10
1.078000
20
0.115881
30
0.356646
0
VERTEX
8
0
6
CONTINUOUS
62
252
70
192
10
1.078000
20
0.077967
30
0.366805
0
VERTEX
8
0
6
CONTINUOUS
62
252
70
192
10
1.078000
20
0.039198
30
0.372946
0
VERTEX
8
0
6
CONTINUOUS
62
252
70
192
10
1.078000
20
0.000000
30
0.375000
0
VERTEX
8
0
6
CONTINUOUS
62
252
70
192
10
1.078000
20
-0.039198
30
0.372946
0
VERTEX
8
0
6
CONTINUOUS
62
252
70
192
10
1.078000
20
-0.077967
30
0.366805
0
VERTEX
8
0
6
CONTINUOUS
62
252
70
192
10
1.078000
20
-0.115881
30
0.356646
0
VERTEX
8
0
6
CONTINUOUS
62
252
70
192
10
1.078000
20
-0.152526
30
0.342580
0
VERTEX
8
0
6
CONTINUOUS
62
252
70
128
10
0.000000
20
0.000000
30
0.000000
71
1
72
2
73
18
0
VERTEX
8
0
6
CONTINUOUS
62
252
70
128
10
0.000000
20
0.000000
30
0.000000
71
18
72
2
73
17
0
VERTEX
8
0
6
CONTINUOUS
62
252
70
128
10
0.000000
20
0.000000
30
0.000000
71
17
72
2
73
3
0
VERTEX
8
0
6
CONTINUOUS
62
252
70
128
10
0.000000
20
0.000000
30
0.000000
71
17
72
3
73
16
0
VERTEX
8
0
6
CONTINUOUS
62
252
70
128
10
0.000000
20
0.000000
30
0.000000
71
16
72
3
73
4
0
VERTEX
8
0
6
CONTINUOUS
62
252
70
128
10
0.000000
20
0.000000
30
0.000000
71
16
72
4
73
15
0
VERTEX
8
0
6
CONTINUOUS
62
252
70
128
10
0.000000
20
0.000000
30
0.000000
71
15
72
4
73
5
0
VERTEX
8
0
6
CONTINUOUS
62
252
70
128
10
0.000000
20
0.000000
30
0.000000
71
15
72
5
73
14
0
VERTEX
8
0
6
CONTINUOUS
62
252
70
128
10
0.000000
20
0.000000
30
0.000000
71
14
72
5
73
13
0
VERTEX
8
0
6
CONTINUOUS
62
252
70
128
10
0.000000
20
0.000000
30
0.000000
71
13
72
5
73
6
0
VERTEX
8
0
6
CONTINUOUS
62
252
70
128
10
0.000000
20
0.000000
30
0.000000
71
13
72
6
73
12
0
VERTEX
8
0
6
CONTINUOUS
62
252
70
128
10
0.000000
20
0.000000
30
0.000000
71
12
72
6
73
7
0
VERTEX
8
0
6
CONTINUOUS
62
252
70
128
10
0.000000
20
0.000000
30
0.000000
71
12
72
7
73
11
0
VERTEX
8
0
6
CONTINUOUS
62
252
70
128
10
0.000000
20
0.000000
30
0.000000
71
11
72
7
73
8
0
VERTEX
8
0
6
CONTINUOUS
62
252
70
128
10
0.000000
20
0.000000
30
0.000000
71
11
72
8
73
10
0
VERTEX
8
0
6
CONTINUOUS
62
252
70
128
10
0.000000
20
0.000000
30
0.000000
71
10
72
8
73
9
0
SEQEND
0
POLYLINE
66
1
8
0
6
CONTINUOUS
62
252
70
64
75
0
10
0.000000
20
0.000000
30
0.000000
0
VERTEX
8
0
6
CONTINUOUS
62
252
70
192
10
1.078000
20
-0.375000
30
0.000000
0
VERTEX
8
0
6
CONTINUOUS
62
252
70
192
10
1.079667
20
-0.375000
30
0.051903
0
VERTEX
8
0
6
CONTINUOUS
62
252
70
192
10
1.084637
20
-0.375000
30
0.104295
0
VERTEX
8
0
6
CONTINUOUS
62
252
70
192
10
1.093003
20
-0.375000
30
0.158637
0
VERTEX
8
0
6
CONTINUOUS
62
252
70
192
10
1.105052
20
-0.375000
30
0.216506
0
VERTEX
8
0
6
CONTINUOUS
62
252
70
192
10
1.093003
20
-0.324884
30
0.245441
0
VERTEX
8
0
6
CONTINUOUS
62
252
70
192
10
1.084637
20
-0.277822
30
0.272612
0
VERTEX
8
0
6
CONTINUOUS
62
252
70
192
10
1.079667
20
-0.232450
30
0.298808
0
VERTEX
8
0
6
CONTINUOUS
62
252
70
192
10
1.078000
20
-0.187500
30
0.324760
0
VERTEX
8
0
6
CONTINUOUS
62
252
70
192
10
1.078000
20
-0.220419
30
0.303381
0
VERTEX
8
0
6
CONTINUOUS
62
252
70
192
10
1.078000
20
-0.250924
30
0.278679
0
VERTEX
8
0
6
CONTINUOUS
62
252
70
192
10
1.078000
20
-0.278679
30
0.250924
0
VERTEX
8
0
6
CONTINUOUS
62
252
70
192
10
1.078000
20
-0.303381
30
0.220419
0
VERTEX
8
0
6
CONTINUOUS
62
252
70
192
10
1.078000
20
-0.324760
30
0.187500
0
VERTEX
8
0
6
CONTINUOUS
62
252
70
192
10
1.078000
20
-0.342580
30
0.152526
0
VERTEX
8
0
6
CONTINUOUS
62
252
70
192
10
1.078000
20
-0.356646
30
0.115881
0
VERTEX
8
0
6
CONTINUOUS
62
252
70
192
10
1.078000
20
-0.366805
30
0.077967
0
VERTEX
8
0
6
CONTINUOUS
62
252
70
192
10
1.078000
20
-0.372946
30
0.039198
0
VERTEX
8
0
6
CONTINUOUS
62
252
70
128
10
0.000000
20
0.000000
30
0.000000
71
1
72
2
73
18
0
VERTEX
8
0
6
CONTINUOUS
62
252
70
128
10
0.000000
20
0.000000
30
0.000000
71
18
72
2
73
17
0
VERTEX
8
0
6
CONTINUOUS
62
252
70
128
10
0.000000
20
0.000000
30
0.000000
71
17
72
2
73
3
0
VERTEX
8
0
6
CONTINUOUS
62
252
70
128
10
0.000000
20
0.000000
30
0.000000
71
17
72
3
73
16
0
VERTEX
8
0
6
CONTINUOUS
62
252
70
128
10
0.000000
20
0.000000
30
0.000000
71
16
72
3
73
4
0
VERTEX
8
0
6
CONTINUOUS
62
252
70
128
10
0.000000
20
0.000000
30
0.000000
71
16
72
4
73
15
0
VERTEX
8
0
6
CONTINUOUS
62
252
70
128
10
0.000000
20
0.000000
30
0.000000
71
15
72
4
73
5
0
VERTEX
8
0
6
CONTINUOUS
62
252
70
128
10
0.000000
20
0.000000
30
0.000000
71
15
72
5
73
14
0
VERTEX
8
0
6
CONTINUOUS
62
252
70
128
10
0.000000
20
0.000000
30
0.000000
71
14
72
5
73
13
0
VERTEX
8
0
6
CONTINUOUS
62
252
70
128
10
0.000000
20
0.000000
30
0.000000
71
13
72
5
73
6
0
VERTEX
8
0
6
CONTINUOUS
62
252
70
128
10
0.000000
20
0.000000
30
0.000000
71
13
72
6
73
12
0
VERTEX
8
0
6
CONTINUOUS
62
252
70
128
10
0.000000
20
0.000000
30
0.000000
71
12
72
6
73
7
0
VERTEX
8
0
6
CONTINUOUS
62
252
70
128
10
0.000000
20
0.000000
30
0.000000
71
12
72
7
73
11
0
VERTEX
8
0
6
CONTINUOUS
62
252
70
128
10
0.000000
20
0.000000
30
0.000000
71
11
72
7
73
8
0
VERTEX
8
0
6
CONTINUOUS
62
252
70
128
10
0.000000
20
0.000000
30
0.000000
71
11
72
8
73
10
0
VERTEX
8
0
6
CONTINUOUS
62
252
70
128
10
0.000000
20
0.000000
30
0.000000
71
10
72
8
73
9
0
SEQEND
0
POLYLINE
66
1
8
0
6
CONTINUOUS
62
252
70
64
75
0
10
0.000000
20
0.000000
30
0.000000
0
VERTEX
8
0
6
CONTINUOUS
62
252
70
192
10
1.105052
20
0.000000
30
-0.433013
0
VERTEX
8
0
6
CONTINUOUS
62
252
70
192
10
1.093003
20
-0.050116
30
-0.404078
0
VERTEX
8
0
6
CONTINUOUS
62
252
70
192
10
1.084637
20
-0.097178
30
-0.376907
0
VERTEX
8
0
6
CONTINUOUS
62
252
70
192
10
1.079667
20
-0.142550
30
-0.350711
0
VERTEX
8
0
6
CONTINUOUS
62
252
70
192
10
1.078000
20
-0.187500
30
-0.324760
0
VERTEX
8
0
6
CONTINUOUS
62
252
70
192
10
1.078000
20
-0.152526
30
-0.342580
0
VERTEX
8
0
6
CONTINUOUS
62
252
70
192
10
1.078000
20
-0.115881
30
-0.356646
0
VERTEX
8
0
6
CONTINUOUS
62
252
70
192
10
1.078000
20
-0.077967
30
-0.366805
0
VERTEX
8
0
6
CONTINUOUS
62
252
70
192
10
1.078000
20
-0.039198
30
-0.372946
0
VERTEX
8
0
6
CONTINUOUS
62
252
70
192
10
1.078000
20
0.000000
30
-0.375000
0
VERTEX
8
0
6
CONTINUOUS
62
252
70
192
10
1.078000
20
0.039198
30
-0.372946
0
VERTEX
8
0
6
CONTINUOUS
62
252
70
192
10
1.078000
20
0.077967
30
-0.366805
0
VERTEX
8
0
6
CONTINUOUS
62
252
70
192
10
1.078000
20
0.115881
30
-0.356646
0
VERTEX
8
0
6
CONTINUOUS
62
252
70
192
10
1.078000
20
0.152526
30
-0.342580
0
VERTEX
8
0
6
CONTINUOUS
62
252
70
192
10
1.078000
20
0.187500
30
-0.324760
0
VERTEX
8
0
6
CONTINUOUS
62
252
70
192
10
1.079667
20
0.142550
30
-0.350711
0
VERTEX
8
0
6
CONTINUOUS
62
252
70
192
10
1.084637
20
0.097178
30
-0.376907
0
VERTEX
8
0
6
CONTINUOUS
62
252
70
192
10
1.093003
20
0.050116
30
-0.404078
0
VERTEX
8
0
6
CONTINUOUS
62
252
70
128
10
0.000000
20
0.000000
30
0.000000
71
2
72
9
73
1
0
VERTEX
8
0
6
CONTINUOUS
62
252
70
128
10
0.000000
20
0.000000
30
0.000000
71
1
72
9
73
10
0
VERTEX
8
0
6
CONTINUOUS
62
252
70
128
10
0.000000
20
0.000000
30
0.000000
71
1
72
10
73
11
0
VERTEX
8
0
6
CONTINUOUS
62
252
70
128
10
0.000000
20
0.000000
30
0.000000
71
9
72
2
73
8
0
VERTEX
8
0
6
CONTINUOUS
62
252
70
128
10
0.000000
20
0.000000
30
0.000000
71
8
72
2
73
3
0
VERTEX
8
0
6
CONTINUOUS
62
252
70
128
10
0.000000
20
0.000000
30
0.000000
71
8
72
3
73
7
0
VERTEX
8
0
6
CONTINUOUS
62
252
70
128
10
0.000000
20
0.000000
30
0.000000
71
7
72
3
73
4
0
VERTEX
8
0
6
CONTINUOUS
62
252
70
128
10
0.000000
20
0.000000
30
0.000000
71
7
72
4
73
6
0
VERTEX
8
0
6
CONTINUOUS
62
252
70
128
10
0.000000
20
0.000000
30
0.000000
71
6
72
4
73
5
0
VERTEX
8
0
6
CONTINUOUS
62
252
70
128
10
0.000000
20
0.000000
30
0.000000
71
1
72
11
73
18
0
VERTEX
8
0
6
CONTINUOUS
62
252
70
128
10
0.000000
20
0.000000
30
0.000000
71
18
72
11
73
12
0
VERTEX
8
0
6
CONTINUOUS
62
252
70
128
10
0.000000
20
0.000000
30
0.000000
71
18
72
12
73
17
0
VERTEX
8
0
6
CONTINUOUS
62
252
70
128
10
0.000000
20
0.000000
30
0.000000
71
17
72
12
73
13
0
VERTEX
8
0
6
CONTINUOUS
62
252
70
128
10
0.000000
20
0.000000
30
0.000000
71
17
72
13
73
16
0
VERTEX
8
0
6
CONTINUOUS
62
252
70
128
10
0.000000
20
0.000000
30
0.000000
71
16
72
13
73
14
0
VERTEX
8
0
6
CONTINUOUS
62
252
70
128
10
0.000000
20
0.000000
30
0.000000
71
16
72
14
73
15
0
SEQEND
0
POLYLINE
66
1
8
0
6
CONTINUOUS
62
252
70
64
75
0
10
0.000000
20
0.000000
30
0.000000
0
VERTEX
8
0
6
CONTINUOUS
62
252
70
192
10
1.078000
20
-0.187500
30
-0.324760
0
VERTEX
8
0
6
CONTINUOUS
62
252
70
192
10
1.079667
20
-0.232450
30
-0.298808
0
VERTEX
8
0
6
CONTINUOUS
62
252
70
192
10
1.084637
20
-0.277822
30
-0.272612
0
VERTEX
8
0
6
CONTINUOUS
62
252
70
192
10
1.093003
20
-0.324884
30
-0.245441
0
VERTEX
8
0
6
CONTINUOUS
62
252
70
192
10
1.105052
20
-0.375000
30
-0.216506
0
VERTEX
8
0
6
CONTINUOUS
62
252
70
192
10
1.093003
20
-0.375000
30
-0.158637
0
VERTEX
8
0
6
CONTINUOUS
62
252
70
192
10
1.084637
20
-0.375000
30
-0.104295
0
VERTEX
8
0
6
CONTINUOUS
62
252
70
192
10
1.079667
20
-0.375000
30
-0.051903
0
VERTEX
8
0
6
CONTINUOUS
62
252
70
192
10
1.078000
20
-0.375000
30
0.000000
0
VERTEX
8
0
6
CONTINUOUS
62
252
70
192
10
1.078000
20
-0.372946
30
-0.039198
0
VERTEX
8
0
6
CONTINUOUS
62
252
70
192
10
1.078000
20
-0.366805
30
-0.077967
0
VERTEX
8
0
6
CONTINUOUS
62
252
70
192
10
1.078000
20
-0.356646
30
-0.115881
0
VERTEX
8
0
6
CONTINUOUS
62
252
70
192
10
1.078000
20
-0.342580
30
-0.152526
0
VERTEX
8
0
6
CONTINUOUS
62
252
70
192
10
1.078000
20
-0.324760
30
-0.187500
0
VERTEX
8
0
6
CONTINUOUS
62
252
70
192
10
1.078000
20
-0.303381
30
-0.220419
0
VERTEX
8
0
6
CONTINUOUS
62
252
70
192
10
1.078000
20
-0.278679
30
-0.250924
0
VERTEX
8
0
6
CONTINUOUS
62
252
70
192
10
1.078000
20
-0.250924
30
-0.278679
0
VERTEX
8
0
6
CONTINUOUS
62
252
70
192
10
1.078000
20
-0.220419
30
-0.303381
0
VERTEX
8
0
6
CONTINUOUS
62
252
70
128
10
0.000000
20
0.000000
30
0.000000
71
1
72
2
73
18
0
VERTEX
8
0
6
CONTINUOUS
62
252
70
128
10
0.000000
20
0.000000
30
0.000000
71
18
72
2
73
17
0
VERTEX
8
0
6
CONTINUOUS
62
252
70
128
10
0.000000
20
0.000000
30
0.000000
71
17
72
2
73
3
0
VERTEX
8
0
6
CONTINUOUS
62
252
70
128
10
0.000000
20
0.000000
30
0.000000
71
17
72
3
73
16
0
VERTEX
8
0
6
CONTINUOUS
62
252
70
128
10
0.000000
20
0.000000
30
0.000000
71
16
72
3
73
4
0
VERTEX
8
0
6
CONTINUOUS
62
252
70
128
10
0.000000
20
0.000000
30
0.000000
71
16
72
4
73
15
0
VERTEX
8
0
6
CONTINUOUS
62
252
70
128
10
0.000000
20
0.000000
30
0.000000
71
15
72
4
73
5
0
VERTEX
8
0
6
CONTINUOUS
62
252
70
128
10
0.000000
20
0.000000
30
0.000000
71
15
72
5
73
14
0
VERTEX
8
0
6
CONTINUOUS
62
252
70
128
10
0.000000
20
0.000000
30
0.000000
71
14
72
5
73
13
0
VERTEX
8
0
6
CONTINUOUS
62
252
70
128
10
0.000000
20
0.000000
30
0.000000
71
13
72
5
73
6
0
VERTEX
8
0
6
CONTINUOUS
62
252
70
128
10
0.000000
20
0.000000
30
0.000000
71
13
72
6
73
12
0
VERTEX
8
0
6
CONTINUOUS
62
252
70
128
10
0.000000
20
0.000000
30
0.000000
71
12
72
6
73
7
0
VERTEX
8
0
6
CONTINUOUS
62
252
70
128
10
0.000000
20
0.000000
30
0.000000
71
12
72
7
73
11
0
VERTEX
8
0
6
CONTINUOUS
62
252
70
128
10
0.000000
20
0.000000
30
0.000000
71
11
72
7
73
8
0
VERTEX
8
0
6
CONTINUOUS
62
252
70
128
10
0.000000
20
0.000000
30
0.000000
71
11
72
8
73
10
0
VERTEX
8
0
6
CONTINUOUS
62
252
70
128
10
0.000000
20
0.000000
30
0.000000
71
10
72
8
73
9
0
SEQEND
0
POLYLINE
66
1
8
0
6
CONTINUOUS
62
252
70
64
75
0
10
0.000000
20
0.000000
30
0.000000
0
VERTEX
8
0
6
CONTINUOUS
62
252
70
192
10
1.105052
20
-0.375000
30
-0.216506
0
VERTEX
8
0
6
CONTINUOUS
62
252
70
192
10
1.093003
20
-0.324884
30
-0.245441
0
VERTEX
8
0
6
CONTINUOUS
62
252
70
192
10
1.084637
20
-0.277822
30
-0.272612
0
VERTEX
8
0
6
CONTINUOUS
62
252
70
192
10
1.079667
20
-0.232450
30
-0.298808
0
VERTEX
8
0
6
CONTINUOUS
62
252
70
192
10
1.078000
20
-0.187500
30
-0.324760
0
VERTEX
8
0
6
CONTINUOUS
62
252
70
192
10
1.079667
20
-0.142550
30
-0.350711
0
VERTEX
8
0
6
CONTINUOUS
62
252
70
192
10
1.084637
20
-0.097178
30
-0.376907
0
VERTEX
8
0
6
CONTINUOUS
62
252
70
192
10
1.093003
20
-0.050116
30
-0.404078
0
VERTEX
8
0
6
CONTINUOUS
62
252
70
192
10
1.105052
20
0.000000
30
-0.433013
0
VERTEX
8
0
6
CONTINUOUS
62
252
70
192
10
1.662948
20
0.000000
30
-0.433013
0
VERTEX
8
0
6
CONTINUOUS
62
252
70
192
10
1.674997
20
-0.050116
30
-0.404078
0
VERTEX
8
0
6
CONTINUOUS
62
252
70
192
10
1.683363
20
-0.097178
30
-0.376907
0
VERTEX
8
0
6
CONTINUOUS
62
252
70
192
10
1.688333
20
-0.142550
30
-0.350711
0
VERTEX
8
0
6
CONTINUOUS
62
252
70
192
10
1.690000
20
-0.187500
30
-0.324760
0
VERTEX
8
0
6
CONTINUOUS
62
252
70
192
10
1.688333
20
-0.232450
30
-0.298808
0
VERTEX
8
0
6
CONTINUOUS
62
252
70
192
10
1.683363
20
-0.277822
30
-0.272612
0
VERTEX
8
0
6
CONTINUOUS
62
252
70
192
10
1.674997
20
-0.324884
30
-0.245441
0
VERTEX
8
0
6
CONTINUOUS
62
252
70
192
10
1.662948
20
-0.375000
30
-0.216506
0
VERTEX
8
0
6
CONTINUOUS
62
252
70
128
10
0.000000
20
0.000000
30
0.000000
71
18
72
1
73
17
0
VERTEX
8
0
6
CONTINUOUS
62
252
70
128
10
0.000000
20
0.000000
30
0.000000
71
17
72
1
73
2
0
VERTEX
8
0
6
CONTINUOUS
62
252
70
128
10
0.000000
20
0.000000
30
0.000000
71
17
72
2
73
16
0
VERTEX
8
0
6
CONTINUOUS
62
252
70
128
10
0.000000
20
0.000000
30
0.000000
71
16
72
2
73
3
0
VERTEX
8
0
6
CONTINUOUS
62
252
70
128
10
0.000000
20
0.000000
30
0.000000
71
16
72
3
73
4
0
VERTEX
8
0
6
CONTINUOUS
62
252
70
128
10
0.000000
20
0.000000
30
0.000000
71
16
72
4
73
15
0
VERTEX
8
0
6
CONTINUOUS
62
252
70
128
10
0.000000
20
0.000000
30
0.000000
71
15
72
4
73
5
0
VERTEX
8
0
6
CONTINUOUS
62
252
70
128
10
0.000000
20
0.000000
30
0.000000
71
15
72
5
73
14
0
VERTEX
8
0
6
CONTINUOUS
62
252
70
128
10
0.000000
20
0.000000
30
0.000000
71
14
72
5
73
13
0
VERTEX
8
0
6
CONTINUOUS
62
252
70
128
10
0.000000
20
0.000000
30
0.000000
71
13
72
5
73
6
0
VERTEX
8
0
6
CONTINUOUS
62
252
70
128
10
0.000000
20
0.000000
30
0.000000
71
13
72
6
73
7
0
VERTEX
8
0
6
CONTINUOUS
62
252
70
128
10
0.000000
20
0.000000
30
0.000000
71
13
72
7
73
12
0
VERTEX
8
0
6
CONTINUOUS
62
252
70
128
10
0.000000
20
0.000000
30
0.000000
71
12
72
7
73
8
0
VERTEX
8
0
6
CONTINUOUS
62
252
70
128
10
0.000000
20
0.000000
30
0.000000
71
12
72
8
73
11
0
VERTEX
8
0
6
CONTINUOUS
62
252
70
128
10
0.000000
20
0.000000
30
0.000000
71
11
72
8
73
9
0
VERTEX
8
0
6
CONTINUOUS
62
252
70
128
10
0.000000
20
0.000000
30
0.000000
71
11
72
9
73
10
0
SEQEND
0
POLYLINE
66
1
8
0
6
CONTINUOUS
62
252
70
64
75
0
10
0.000000
20
0.000000
30
0.000000
0
VERTEX
8
0
6
CONTINUOUS
62
252
70
192
10
1.105052
20
0.000000
30
-0.433013
0
VERTEX
8
0
6
CONTINUOUS
62
252
70
192
10
1.093003
20
0.050116
30
-0.404078
0
VERTEX
8
0
6
CONTINUOUS
62
252
70
192
10
1.084637
20
0.097178
30
-0.376907
0
VERTEX
8
0
6
CONTINUOUS
62
252
70
192
10
1.079667
20
0.142550
30
-0.350711
0
VERTEX
8
0
6
CONTINUOUS
62
252
70
192
10
1.078000
20
0.187500
30
-0.324760
0
VERTEX
8
0
6
CONTINUOUS
62
252
70
192
10
1.079667
20
0.232450
30
-0.298808
0
VERTEX
8
0
6
CONTINUOUS
62
252
70
192
10
1.084637
20
0.277822
30
-0.272612
0
VERTEX
8
0
6
CONTINUOUS
62
252
70
192
10
1.093003
20
0.324884
30
-0.245441
0
VERTEX
8
0
6
CONTINUOUS
62
252
70
192
10
1.105052
20
0.375000
30
-0.216506
0
VERTEX
8
0
6
CONTINUOUS
62
252
70
192
10
1.662948
20
0.375000
30
-0.216506
0
VERTEX
8
0
6
CONTINUOUS
62
252
70
192
10
1.674997
20
0.324884
30
-0.245441
0
VERTEX
8
0
6
CONTINUOUS
62
252
70
192
10
1.683363
20
0.277822
30
-0.272612
0
VERTEX
8
0
6
CONTINUOUS
62
252
70
192
10
1.688333
20
0.232450
30
-0.298808
0
VERTEX
8
0
6
CONTINUOUS
62
252
70
192
10
1.690000
20
0.187500
30
-0.324760
0
VERTEX
8
0
6
CONTINUOUS
62
252
70
192
10
1.688333
20
0.142550
30
-0.350711
0
VERTEX
8
0
6
CONTINUOUS
62
252
70
192
10
1.683363
20
0.097178
30
-0.376907
0
VERTEX
8
0
6
CONTINUOUS
62
252
70
192
10
1.674997
20
0.050116
30
-0.404078
0
VERTEX
8
0
6
CONTINUOUS
62
252
70
192
10
1.662948
20
0.000000
30
-0.433013
0
VERTEX
8
0
6
CONTINUOUS
62
252
70
128
10
0.000000
20
0.000000
30
0.000000
71
1
72
2
73
18
0
VERTEX
8
0
6
CONTINUOUS
62
252
70
128
10
0.000000
20
0.000000
30
0.000000
71
18
72
2
73
17
0
VERTEX
8
0
6
CONTINUOUS
62
252
70
128
10
0.000000
20
0.000000
30
0.000000
71
17
72
2
73
3
0
VERTEX
8
0
6
CONTINUOUS
62
252
70
128
10
0.000000
20
0.000000
30
0.000000
71
17
72
3
73
16
0
VERTEX
8
0
6
CONTINUOUS
62
252
70
128
10
0.000000
20
0.000000
30
0.000000
71
16
72
3
73
15
0
VERTEX
8
0
6
CONTINUOUS
62
252
70
128
10
0.000000
20
0.000000
30
0.000000
71
15
72
3
73
4
0
VERTEX
8
0
6
CONTINUOUS
62
252
70
128
10
0.000000
20
0.000000
30
0.000000
71
15
72
4
73
14
0
VERTEX
8
0
6
CONTINUOUS
62
252
70
128
10
0.000000
20
0.000000
30
0.000000
71
14
72
4
73
5
0
VERTEX
8
0
6
CONTINUOUS
62
252
70
128
10
0.000000
20
0.000000
30
0.000000
71
14
72
5
73
6
0
VERTEX
8
0
6
CONTINUOUS
62
252
70
128
10
0.000000
20
0.000000
30
0.000000
71
14
72
6
73
13
0
VERTEX
8
0
6
CONTINUOUS
62
252
70
128
10
0.000000
20
0.000000
30
0.000000
71
13
72
6
73
7
0
VERTEX
8
0
6
CONTINUOUS
62
252
70
128
10
0.000000
20
0.000000
30
0.000000
71
13
72
7
73
12
0
VERTEX
8
0
6
CONTINUOUS
62
252
70
128
10
0.000000
20
0.000000
30
0.000000
71
12
72
7
73
8
0
VERTEX
8
0
6
CONTINUOUS
62
252
70
128
10
0.000000
20
0.000000
30
0.000000
71
12
72
8
73
11
0
VERTEX
8
0
6
CONTINUOUS
62
252
70
128
10
0.000000
20
0.000000
30
0.000000
71
11
72
8
73
10
0
VERTEX
8
0
6
CONTINUOUS
62
252
70
128
10
0.000000
20
0.000000
30
0.000000
71
10
72
8
73
9
0
SEQEND
0
POLYLINE
66
1
8
0
6
CONTINUOUS
62
252
70
64
75
0
10
0.000000
20
0.000000
30
0.000000
0
VERTEX
8
0
6
CONTINUOUS
62
252
70
192
10
1.105052
20
0.375000
30
-0.216506
0
VERTEX
8
0
6
CONTINUOUS
62
252
70
192
10
1.093003
20
0.375000
30
-0.158637
0
VERTEX
8
0
6
CONTINUOUS
62
252
70
192
10
1.084637
20
0.375000
30
-0.104295
0
VERTEX
8
0
6
CONTINUOUS
62
252
70
192
10
1.079667
20
0.375000
30
-0.051903
0
VERTEX
8
0
6
CONTINUOUS
62
252
70
192
10
1.078000
20
0.375000
30
0.000000
0
VERTEX
8
0
6
CONTINUOUS
62
252
70
192
10
1.079667
20
0.375000
30
0.051903
0
VERTEX
8
0
6
CONTINUOUS
62
252
70
192
10
1.084637
20
0.375000
30
0.104295
0
VERTEX
8
0
6
CONTINUOUS
62
252
70
192
10
1.093003
20
0.375000
30
0.158637
0
VERTEX
8
0
6
CONTINUOUS
62
252
70
192
10
1.105052
20
0.375000
30
0.216506
0
VERTEX
8
0
6
CONTINUOUS
62
252
70
192
10
1.662948
20
0.375000
30
0.216506
0
VERTEX
8
0
6
CONTINUOUS
62
252
70
192
10
1.674997
20
0.375000
30
0.158637
0
VERTEX
8
0
6
CONTINUOUS
62
252
70
192
10
1.683363
20
0.375000
30
0.104295
0
VERTEX
8
0
6
CONTINUOUS
62
252
70
192
10
1.688333
20
0.375000
30
0.051903
0
VERTEX
8
0
6
CONTINUOUS
62
252
70
192
10
1.690000
20
0.375000
30
0.000000
0
VERTEX
8
0
6
CONTINUOUS
62
252
70
192
10
1.688333
20
0.375000
30
-0.051903
0
VERTEX
8
0
6
CONTINUOUS
62
252
70
192
10
1.683363
20
0.375000
30
-0.104295
0
VERTEX
8
0
6
CONTINUOUS
62
252
70
192
10
1.674997
20
0.375000
30
-0.158637
0
VERTEX
8
0
6
CONTINUOUS
62
252
70
192
10
1.662948
20
0.375000
30
-0.216506
0
VERTEX
8
0
6
CONTINUOUS
62
252
70
128
10
0.000000
20
0.000000
30
0.000000
71
1
72
2
73
18
0
VERTEX
8
0
6
CONTINUOUS
62
252
70
128
10
0.000000
20
0.000000
30
0.000000
71
18
72
2
73
17
0
VERTEX
8
0
6
CONTINUOUS
62
252
70
128
10
0.000000
20
0.000000
30
0.000000
71
17
72
2
73
3
0
VERTEX
8
0
6
CONTINUOUS
62
252
70
128
10
0.000000
20
0.000000
30
0.000000
71
17
72
3
73
16
0
VERTEX
8
0
6
CONTINUOUS
62
252
70
128
10
0.000000
20
0.000000
30
0.000000
71
16
72
3
73
15
0
VERTEX
8
0
6
CONTINUOUS
62
252
70
128
10
0.000000
20
0.000000
30
0.000000
71
15
72
3
73
4
0
VERTEX
8
0
6
CONTINUOUS
62
252
70
128
10
0.000000
20
0.000000
30
0.000000
71
15
72
4
73
5
0
VERTEX
8
0
6
CONTINUOUS
62
252
70
128
10
0.000000
20
0.000000
30
0.000000
71
15
72
5
73
14
0
VERTEX
8
0
6
CONTINUOUS
62
252
70
128
10
0.000000
20
0.000000
30
0.000000
71
14
72
5
73
6
0
VERTEX
8
0
6
CONTINUOUS
62
252
70
128
10
0.000000
20
0.000000
30
0.000000
71
14
72
6
73
13
0
VERTEX
8
0
6
CONTINUOUS
62
252
70
128
10
0.000000
20
0.000000
30
0.000000
71
13
72
6
73
12
0
VERTEX
8
0
6
CONTINUOUS
62
252
70
128
10
0.000000
20
0.000000
30
0.000000
71
12
72
6
73
7
0
VERTEX
8
0
6
CONTINUOUS
62
252
70
128
10
0.000000
20
0.000000
30
0.000000
71
12
72
7
73
8
0
VERTEX
8
0
6
CONTINUOUS
62
252
70
128
10
0.000000
20
0.000000
30
0.000000
71
12
72
8
73
11
0
VERTEX
8
0
6
CONTINUOUS
62
252
70
128
10
0.000000
20
0.000000
30
0.000000
71
11
72
8
73
9
0
VERTEX
8
0
6
CONTINUOUS
62
252
70
128
10
0.000000
20
0.000000
30
0.000000
71
11
72
9
73
10
0
SEQEND
0
POLYLINE
66
1
8
0
6
CONTINUOUS
62
252
70
64
75
0
10
0.000000
20
0.000000
30
0.000000
0
VERTEX
8
0
6
CONTINUOUS
62
252
70
192
10
1.662948
20
0.000000
30
0.433013
0
VERTEX
8
0
6
CONTINUOUS
62
252
70
192
10
1.674997
20
-0.050116
30
0.404078
0
VERTEX
8
0
6
CONTINUOUS
62
252
70
192
10
1.683363
20
-0.097178
30
0.376907
0
VERTEX
8
0
6
CONTINUOUS
62
252
70
192
10
1.688333
20
-0.142550
30
0.350711
0
VERTEX
8
0
6
CONTINUOUS
62
252
70
192
10
1.690000
20
-0.187500
30
0.324760
0
VERTEX
8
0
6
CONTINUOUS
62
252
70
192
10
1.690000
20
-0.152526
30
0.342580
0
VERTEX
8
0
6
CONTINUOUS
62
252
70
192
10
1.690000
20
-0.115881
30
0.356646
0
VERTEX
8
0
6
CONTINUOUS
62
252
70
192
10
1.690000
20
-0.077967
30
0.366805
0
VERTEX
8
0
6
CONTINUOUS
62
252
70
192
10
1.690000
20
-0.039198
30
0.372946
0
VERTEX
8
0
6
CONTINUOUS
62
252
70
192
10
1.690000
20
0.000000
30
0.375000
0
VERTEX
8
0
6
CONTINUOUS
62
252
70
192
10
1.690000
20
0.039198
30
0.372946
0
VERTEX
8
0
6
CONTINUOUS
62
252
70
192
10
1.690000
20
0.077967
30
0.366805
0
VERTEX
8
0
6
CONTINUOUS
62
252
70
192
10
1.690000
20
0.115881
30
0.356646
0
VERTEX
8
0
6
CONTINUOUS
62
252
70
192
10
1.690000
20
0.152526
30
0.342580
0
VERTEX
8
0
6
CONTINUOUS
62
252
70
192
10
1.690000
20
0.187500
30
0.324760
0
VERTEX
8
0
6
CONTINUOUS
62
252
70
192
10
1.688333
20
0.142550
30
0.350711
0
VERTEX
8
0
6
CONTINUOUS
62
252
70
192
10
1.683363
20
0.097178
30
0.376907
0
VERTEX
8
0
6
CONTINUOUS
62
252
70
192
10
1.674997
20
0.050116
30
0.404078
0
VERTEX
8
0
6
CONTINUOUS
62
252
70
128
10
0.000000
20
0.000000
30
0.000000
71
2
72
9
73
1
0
VERTEX
8
0
6
CONTINUOUS
62
252
70
128
10
0.000000
20
0.000000
30
0.000000
71
1
72
9
73
10
0
VERTEX
8
0
6
CONTINUOUS
62
252
70
128
10
0.000000
20
0.000000
30
0.000000
71
1
72
10
73
11
0
VERTEX
8
0
6
CONTINUOUS
62
252
70
128
10
0.000000
20
0.000000
30
0.000000
71
9
72
2
73
8
0
VERTEX
8
0
6
CONTINUOUS
62
252
70
128
10
0.000000
20
0.000000
30
0.000000
71
8
72
2
73
3
0
VERTEX
8
0
6
CONTINUOUS
62
252
70
128
10
0.000000
20
0.000000
30
0.000000
71
8
72
3
73
7
0
VERTEX
8
0
6
CONTINUOUS
62
252
70
128
10
0.000000
20
0.000000
30
0.000000
71
7
72
3
73
4
0
VERTEX
8
0
6
CONTINUOUS
62
252
70
128
10
0.000000
20
0.000000
30
0.000000
71
7
72
4
73
6
0
VERTEX
8
0
6
CONTINUOUS
62
252
70
128
10
0.000000
20
0.000000
30
0.000000
71
6
72
4
73
5
0
VERTEX
8
0
6
CONTINUOUS
62
252
70
128
10
0.000000
20
0.000000
30
0.000000
71
1
72
11
73
18
0
VERTEX
8
0
6
CONTINUOUS
62
252
70
128
10
0.000000
20
0.000000
30
0.000000
71
18
72
11
73
12
0
VERTEX
8
0
6
CONTINUOUS
62
252
70
128
10
0.000000
20
0.000000
30
0.000000
71
18
72
12
73
17
0
VERTEX
8
0
6
CONTINUOUS
62
252
70
128
10
0.000000
20
0.000000
30
0.000000
71
17
72
12
73
13
0
VERTEX
8
0
6
CONTINUOUS
62
252
70
128
10
0.000000
20
0.000000
30
0.000000
71
17
72
13
73
16
0
VERTEX
8
0
6
CONTINUOUS
62
252
70
128
10
0.000000
20
0.000000
30
0.000000
71
16
72
13
73
14
0
VERTEX
8
0
6
CONTINUOUS
62
252
70
128
10
0.000000
20
0.000000
30
0.000000
71
16
72
14
73
15
0
SEQEND
0
POLYLINE
66
1
8
0
6
CONTINUOUS
62
252
70
64
75
0
10
0.000000
20
0.000000
30
0.000000
0
VERTEX
8
0
6
CONTINUOUS
62
252
70
192
10
1.662948
20
-0.375000
30
0.216506
0
VERTEX
8
0
6
CONTINUOUS
62
252
70
192
10
1.674997
20
-0.375000
30
0.158637
0
VERTEX
8
0
6
CONTINUOUS
62
252
70
192
10
1.683363
20
-0.375000
30
0.104295
0
VERTEX
8
0
6
CONTINUOUS
62
252
70
192
10
1.688333
20
-0.375000
30
0.051903
0
VERTEX
8
0
6
CONTINUOUS
62
252
70
192
10
1.690000
20
-0.375000
30
-0.000000
0
VERTEX
8
0
6
CONTINUOUS
62
252
70
192
10
1.690000
20
-0.372946
30
0.039198
0
VERTEX
8
0
6
CONTINUOUS
62
252
70
192
10
1.690000
20
-0.366805
30
0.077967
0
VERTEX
8
0
6
CONTINUOUS
62
252
70
192
10
1.690000
20
-0.356646
30
0.115881
0
VERTEX
8
0
6
CONTINUOUS
62
252
70
192
10
1.690000
20
-0.342580
30
0.152526
0
VERTEX
8
0
6
CONTINUOUS
62
252
70
192
10
1.690000
20
-0.324760
30
0.187500
0
VERTEX
8
0
6
CONTINUOUS
62
252
70
192
10
1.690000
20
-0.303381
30
0.220419
0
VERTEX
8
0
6
CONTINUOUS
62
252
70
192
10
1.690000
20
-0.278679
30
0.250924
0
VERTEX
8
0
6
CONTINUOUS
62
252
70
192
10
1.690000
20
-0.250924
30
0.278679
0
VERTEX
8
0
6
CONTINUOUS
62
252
70
192
10
1.690000
20
-0.220419
30
0.303381
0
VERTEX
8
0
6
CONTINUOUS
62
252
70
192
10
1.690000
20
-0.187500
30
0.324760
0
VERTEX
8
0
6
CONTINUOUS
62
252
70
192
10
1.688333
20
-0.232450
30
0.298808
0
VERTEX
8
0
6
CONTINUOUS
62
252
70
192
10
1.683363
20
-0.277822
30
0.272612
0
VERTEX
8
0
6
CONTINUOUS
62
252
70
192
10
1.674997
20
-0.324884
30
0.245441
0
VERTEX
8
0
6
CONTINUOUS
62
252
70
128
10
0.000000
20
0.000000
30
0.000000
71
2
72
9
73
1
0
VERTEX
8
0
6
CONTINUOUS
62
252
70
128
10
0.000000
20
0.000000
30
0.000000
71
1
72
9
73
10
0
VERTEX
8
0
6
CONTINUOUS
62
252
70
128
10
0.000000
20
0.000000
30
0.000000
71
1
72
10
73
11
0
VERTEX
8
0
6
CONTINUOUS
62
252
70
128
10
0.000000
20
0.000000
30
0.000000
71
9
72
2
73
8
0
VERTEX
8
0
6
CONTINUOUS
62
252
70
128
10
0.000000
20
0.000000
30
0.000000
71
8
72
2
73
3
0
VERTEX
8
0
6
CONTINUOUS
62
252
70
128
10
0.000000
20
0.000000
30
0.000000
71
8
72
3
73
7
0
VERTEX
8
0
6
CONTINUOUS
62
252
70
128
10
0.000000
20
0.000000
30
0.000000
71
7
72
3
73
4
0
VERTEX
8
0
6
CONTINUOUS
62
252
70
128
10
0.000000
20
0.000000
30
0.000000
71
7
72
4
73
6
0
VERTEX
8
0
6
CONTINUOUS
62
252
70
128
10
0.000000
20
0.000000
30
0.000000
71
6
72
4
73
5
0
VERTEX
8
0
6
CONTINUOUS
62
252
70
128
10
0.000000
20
0.000000
30
0.000000
71
1
72
11
73
18
0
VERTEX
8
0
6
CONTINUOUS
62
252
70
128
10
0.000000
20
0.000000
30
0.000000
71
18
72
11
73
12
0
VERTEX
8
0
6
CONTINUOUS
62
252
70
128
10
0.000000
20
0.000000
30
0.000000
71
18
72
12
73
17
0
VERTEX
8
0
6
CONTINUOUS
62
252
70
128
10
0.000000
20
0.000000
30
0.000000
71
17
72
12
73
13
0
VERTEX
8
0
6
CONTINUOUS
62
252
70
128
10
0.000000
20
0.000000
30
0.000000
71
17
72
13
73
16
0
VERTEX
8
0
6
CONTINUOUS
62
252
70
128
10
0.000000
20
0.000000
30
0.000000
71
16
72
13
73
14
0
VERTEX
8
0
6
CONTINUOUS
62
252
70
128
10
0.000000
20
0.000000
30
0.000000
71
16
72
14
73
15
0
SEQEND
0
POLYLINE
66
1
8
0
6
CONTINUOUS
62
252
70
64
75
0
10
0.000000
20
0.000000
30
0.000000
0
VERTEX
8
0
6
CONTINUOUS
62
252
70
192
10
1.690000
20
0.375000
30
0.000000
0
VERTEX
8
0
6
CONTINUOUS
62
252
70
192
10
1.688333
20
0.375000
30
0.051903
0
VERTEX
8
0
6
CONTINUOUS
62
252
70
192
10
1.683363
20
0.375000
30
0.104295
0
VERTEX
8
0
6
CONTINUOUS
62
252
70
192
10
1.674997
20
0.375000
30
0.158637
0
VERTEX
8
0
6
CONTINUOUS
62
252
70
192
10
1.662948
20
0.375000
30
0.216506
0
VERTEX
8
0
6
CONTINUOUS
62
252
70
192
10
1.674997
20
0.324884
30
0.245441
0
VERTEX
8
0
6
CONTINUOUS
62
252
70
192
10
1.683363
20
0.277822
30
0.272612
0
VERTEX
8
0
6
CONTINUOUS
62
252
70
192
10
1.688333
20
0.232450
30
0.298808
0
VERTEX
8
0
6
CONTINUOUS
62
252
70
192
10
1.690000
20
0.187500
30
0.324760
0
VERTEX
8
0
6
CONTINUOUS
62
252
70
192
10
1.690000
20
0.220419
30
0.303381
0
VERTEX
8
0
6
CONTINUOUS
62
252
70
192
10
1.690000
20
0.250924
30
0.278679
0
VERTEX
8
0
6
CONTINUOUS
62
252
70
192
10
1.690000
20
0.278679
30
0.250924
0
VERTEX
8
0
6
CONTINUOUS
62
252
70
192
10
1.690000
20
0.303381
30
0.220419
0
VERTEX
8
0
6
CONTINUOUS
62
252
70
192
10
1.690000
20
0.324760
30
0.187500
0
VERTEX
8
0
6
CONTINUOUS
62
252
70
192
10
1.690000
20
0.342580
30
0.152526
0
VERTEX
8
0
6
CONTINUOUS
62
252
70
192
10
1.690000
20
0.356646
30
0.115881
0
VERTEX
8
0
6
CONTINUOUS
62
252
70
192
10
1.690000
20
0.366805
30
0.077967
0
VERTEX
8
0
6
CONTINUOUS
62
252
70
192
10
1.690000
20
0.372946
30
0.039198
0
VERTEX
8
0
6
CONTINUOUS
62
252
70
128
10
0.000000
20
0.000000
30
0.000000
71
1
72
2
73
18
0
VERTEX
8
0
6
CONTINUOUS
62
252
70
128
10
0.000000
20
0.000000
30
0.000000
71
18
72
2
73
17
0
VERTEX
8
0
6
CONTINUOUS
62
252
70
128
10
0.000000
20
0.000000
30
0.000000
71
17
72
2
73
3
0
VERTEX
8
0
6
CONTINUOUS
62
252
70
128
10
0.000000
20
0.000000
30
0.000000
71
17
72
3
73
16
0
VERTEX
8
0
6
CONTINUOUS
62
252
70
128
10
0.000000
20
0.000000
30
0.000000
71
16
72
3
73
4
0
VERTEX
8
0
6
CONTINUOUS
62
252
70
128
10
0.000000
20
0.000000
30
0.000000
71
16
72
4
73
15
0
VERTEX
8
0
6
CONTINUOUS
62
252
70
128
10
0.000000
20
0.000000
30
0.000000
71
15
72
4
73
5
0
VERTEX
8
0
6
CONTINUOUS
62
252
70
128
10
0.000000
20
0.000000
30
0.000000
71
15
72
5
73
14
0
VERTEX
8
0
6
CONTINUOUS
62
252
70
128
10
0.000000
20
0.000000
30
0.000000
71
14
72
5
73
13
0
VERTEX
8
0
6
CONTINUOUS
62
252
70
128
10
0.000000
20
0.000000
30
0.000000
71
13
72
5
73
6
0
VERTEX
8
0
6
CONTINUOUS
62
252
70
128
10
0.000000
20
0.000000
30
0.000000
71
13
72
6
73
12
0
VERTEX
8
0
6
CONTINUOUS
62
252
70
128
10
0.000000
20
0.000000
30
0.000000
71
12
72
6
73
7
0
VERTEX
8
0
6
CONTINUOUS
62
252
70
128
10
0.000000
20
0.000000
30
0.000000
71
12
72
7
73
11
0
VERTEX
8
0
6
CONTINUOUS
62
252
70
128
10
0.000000
20
0.000000
30
0.000000
71
11
72
7
73
8
0
VERTEX
8
0
6
CONTINUOUS
62
252
70
128
10
0.000000
20
0.000000
30
0.000000
71
11
72
8
73
10
0
VERTEX
8
0
6
CONTINUOUS
62
252
70
128
10
0.000000
20
0.000000
30
0.000000
71
10
72
8
73
9
0
SEQEND
0
POLYLINE
66
1
8
0
6
CONTINUOUS
62
252
70
64
75
0
10
0.000000
20
0.000000
30
0.000000
0
VERTEX
8
0
6
CONTINUOUS
62
252
70
192
10
1.690000
20
0.187500
30
-0.324760
0
VERTEX
8
0
6
CONTINUOUS
62
252
70
192
10
1.688333
20
0.232450
30
-0.298808
0
VERTEX
8
0
6
CONTINUOUS
62
252
70
192
10
1.683363
20
0.277822
30
-0.272612
0
VERTEX
8
0
6
CONTINUOUS
62
252
70
192
10
1.674997
20
0.324884
30
-0.245441
0
VERTEX
8
0
6
CONTINUOUS
62
252
70
192
10
1.662948
20
0.375000
30
-0.216506
0
VERTEX
8
0
6
CONTINUOUS
62
252
70
192
10
1.674997
20
0.375000
30
-0.158637
0
VERTEX
8
0
6
CONTINUOUS
62
252
70
192
10
1.683363
20
0.375000
30
-0.104295
0
VERTEX
8
0
6
CONTINUOUS
62
252
70
192
10
1.688333
20
0.375000
30
-0.051903
0
VERTEX
8
0
6
CONTINUOUS
62
252
70
192
10
1.690000
20
0.375000
30
0.000000
0
VERTEX
8
0
6
CONTINUOUS
62
252
70
192
10
1.690000
20
0.372946
30
-0.039198
0
VERTEX
8
0
6
CONTINUOUS
62
252
70
192
10
1.690000
20
0.366805
30
-0.077967
0
VERTEX
8
0
6
CONTINUOUS
62
252
70
192
10
1.690000
20
0.356646
30
-0.115881
0
VERTEX
8
0
6
CONTINUOUS
62
252
70
192
10
1.690000
20
0.342580
30
-0.152526
0
VERTEX
8
0
6
CONTINUOUS
62
252
70
192
10
1.690000
20
0.324760
30
-0.187500
0
VERTEX
8
0
6
CONTINUOUS
62
252
70
192
10
1.690000
20
0.303381
30
-0.220419
0
VERTEX
8
0
6
CONTINUOUS
62
252
70
192
10
1.690000
20
0.278679
30
-0.250924
0
VERTEX
8
0
6
CONTINUOUS
62
252
70
192
10
1.690000
20
0.250924
30
-0.278679
0
VERTEX
8
0
6
CONTINUOUS
62
252
70
192
10
1.690000
20
0.220419
30
-0.303381
0
VERTEX
8
0
6
CONTINUOUS
62
252
70
128
10
0.000000
20
0.000000
30
0.000000
71
1
72
2
73
18
0
VERTEX
8
0
6
CONTINUOUS
62
252
70
128
10
0.000000
20
0.000000
30
0.000000
71
18
72
2
73
17
0
VERTEX
8
0
6
CONTINUOUS
62
252
70
128
10
0.000000
20
0.000000
30
0.000000
71
17
72
2
73
3
0
VERTEX
8
0
6
CONTINUOUS
62
252
70
128
10
0.000000
20
0.000000
30
0.000000
71
17
72
3
73
16
0
VERTEX
8
0
6
CONTINUOUS
62
252
70
128
10
0.000000
20
0.000000
30
0.000000
71
16
72
3
73
4
0
VERTEX
8
0
6
CONTINUOUS
62
252
70
128
10
0.000000
20
0.000000
30
0.000000
71
16
72
4
73
15
0
VERTEX
8
0
6
CONTINUOUS
62
252
70
128
10
0.000000
20
0.000000
30
0.000000
71
15
72
4
73
5
0
VERTEX
8
0
6
CONTINUOUS
62
252
70
128
10
0.000000
20
0.000000
30
0.000000
71
15
72
5
73
14
0
VERTEX
8
0
6
CONTINUOUS
62
252
70
128
10
0.000000
20
0.000000
30
0.000000
71
14
72
5
73
13
0
VERTEX
8
0
6
CONTINUOUS
62
252
70
128
10
0.000000
20
0.000000
30
0.000000
71
13
72
5
73
6
0
VERTEX
8
0
6
CONTINUOUS
62
252
70
128
10
0.000000
20
0.000000
30
0.000000
71
13
72
6
73
12
0
VERTEX
8
0
6
CONTINUOUS
62
252
70
128
10
0.000000
20
0.000000
30
0.000000
71
12
72
6
73
7
0
VERTEX
8
0
6
CONTINUOUS
62
252
70
128
10
0.000000
20
0.000000
30
0.000000
71
12
72
7
73
11
0
VERTEX
8
0
6
CONTINUOUS
62
252
70
128
10
0.000000
20
0.000000
30
0.000000
71
11
72
7
73
8
0
VERTEX
8
0
6
CONTINUOUS
62
252
70
128
10
0.000000
20
0.000000
30
0.000000
71
11
72
8
73
10
0
VERTEX
8
0
6
CONTINUOUS
62
252
70
128
10
0.000000
20
0.000000
30
0.000000
71
10
72
8
73
9
0
SEQEND
0
POLYLINE
66
1
8
0
6
CONTINUOUS
62
252
70
64
75
0
10
0.000000
20
0.000000
30
0.000000
0
VERTEX
8
0
6
CONTINUOUS
62
252
70
192
10
1.662948
20
-0.375000
30
-0.216506
0
VERTEX
8
0
6
CONTINUOUS
62
252
70
192
10
1.674997
20
-0.324884
30
-0.245441
0
VERTEX
8
0
6
CONTINUOUS
62
252
70
192
10
1.683363
20
-0.277822
30
-0.272612
0
VERTEX
8
0
6
CONTINUOUS
62
252
70
192
10
1.688333
20
-0.232450
30
-0.298808
0
VERTEX
8
0
6
CONTINUOUS
62
252
70
192
10
1.690000
20
-0.187500
30
-0.324760
0
VERTEX
8
0
6
CONTINUOUS
62
252
70
192
10
1.690000
20
-0.220419
30
-0.303381
0
VERTEX
8
0
6
CONTINUOUS
62
252
70
192
10
1.690000
20
-0.250924
30
-0.278679
0
VERTEX
8
0
6
CONTINUOUS
62
252
70
192
10
1.690000
20
-0.278679
30
-0.250924
0
VERTEX
8
0
6
CONTINUOUS
62
252
70
192
10
1.690000
20
-0.303381
30
-0.220419
0
VERTEX
8
0
6
CONTINUOUS
62
252
70
192
10
1.690000
20
-0.324760
30
-0.187500
0
VERTEX
8
0
6
CONTINUOUS
62
252
70
192
10
1.690000
20
-0.342580
30
-0.152526
0
VERTEX
8
0
6
CONTINUOUS
62
252
70
192
10
1.690000
20
-0.356646
30
-0.115881
0
VERTEX
8
0
6
CONTINUOUS
62
252
70
192
10
1.690000
20
-0.366805
30
-0.077967
0
VERTEX
8
0
6
CONTINUOUS
62
252
70
192
10
1.690000
20
-0.372946
30
-0.039198
0
VERTEX
8
0
6
CONTINUOUS
62
252
70
192
10
1.690000
20
-0.375000
30
-0.000000
0
VERTEX
8
0
6
CONTINUOUS
62
252
70
192
10
1.688333
20
-0.375000
30
-0.051903
0
VERTEX
8
0
6
CONTINUOUS
62
252
70
192
10
1.683363
20
-0.375000
30
-0.104295
0
VERTEX
8
0
6
CONTINUOUS
62
252
70
192
10
1.674997
20
-0.375000
30
-0.158637
0
VERTEX
8
0
6
CONTINUOUS
62
252
70
128
10
0.000000
20
0.000000
30
0.000000
71
2
72
9
73
1
0
VERTEX
8
0
6
CONTINUOUS
62
252
70
128
10
0.000000
20
0.000000
30
0.000000
71
1
72
9
73
10
0
VERTEX
8
0
6
CONTINUOUS
62
252
70
128
10
0.000000
20
0.000000
30
0.000000
71
1
72
10
73
11
0
VERTEX
8
0
6
CONTINUOUS
62
252
70
128
10
0.000000
20
0.000000
30
0.000000
71
9
72
2
73
8
0
VERTEX
8
0
6
CONTINUOUS
62
252
70
128
10
0.000000
20
0.000000
30
0.000000
71
8
72
2
73
3
0
VERTEX
8
0
6
CONTINUOUS
62
252
70
128
10
0.000000
20
0.000000
30
0.000000
71
8
72
3
73
7
0
VERTEX
8
0
6
CONTINUOUS
62
252
70
128
10
0.000000
20
0.000000
30
0.000000
71
7
72
3
73
4
0
VERTEX
8
0
6
CONTINUOUS
62
252
70
128
10
0.000000
20
0.000000
30
0.000000
71
7
72
4
73
6
0
VERTEX
8
0
6
CONTINUOUS
62
252
70
128
10
0.000000
20
0.000000
30
0.000000
71
6
72
4
73
5
0
VERTEX
8
0
6
CONTINUOUS
62
252
70
128
10
0.000000
20
0.000000
30
0.000000
71
1
72
11
73
18
0
VERTEX
8
0
6
CONTINUOUS
62
252
70
128
10
0.000000
20
0.000000
30
0.000000
71
18
72
11
73
12
0
VERTEX
8
0
6
CONTINUOUS
62
252
70
128
10
0.000000
20
0.000000
30
0.000000
71
18
72
12
73
17
0
VERTEX
8
0
6
CONTINUOUS
62
252
70
128
10
0.000000
20
0.000000
30
0.000000
71
17
72
12
73
13
0
VERTEX
8
0
6
CONTINUOUS
62
252
70
128
10
0.000000
20
0.000000
30
0.000000
71
17
72
13
73
16
0
VERTEX
8
0
6
CONTINUOUS
62
252
70
128
10
0.000000
20
0.000000
30
0.000000
71
16
72
13
73
14
0
VERTEX
8
0
6
CONTINUOUS
62
252
70
128
10
0.000000
20
0.000000
30
0.000000
71
16
72
14
73
15
0
SEQEND
0
POLYLINE
66
1
8
0
6
CONTINUOUS
62
252
70
64
75
0
10
0.000000
20
0.000000
30
0.000000
0
VERTEX
8
0
6
CONTINUOUS
62
252
70
192
10
1.662948
20
0.000000
30
-0.433013
0
VERTEX
8
0
6
CONTINUOUS
62
252
70
192
10
1.674997
20
0.050116
30
-0.404078
0
VERTEX
8
0
6
CONTINUOUS
62
252
70
192
10
1.683363
20
0.097178
30
-0.376907
0
VERTEX
8
0
6
CONTINUOUS
62
252
70
192
10
1.688333
20
0.142550
30
-0.350711
0
VERTEX
8
0
6
CONTINUOUS
62
252
70
192
10
1.690000
20
0.187500
30
-0.324760
0
VERTEX
8
0
6
CONTINUOUS
62
252
70
192
10
1.690000
20
0.152526
30
-0.342580
0
VERTEX
8
0
6
CONTINUOUS
62
252
70
192
10
1.690000
20
0.115881
30
-0.356646
0
VERTEX
8
0
6
CONTINUOUS
62
252
70
192
10
1.690000
20
0.077967
30
-0.366805
0
VERTEX
8
0
6
CONTINUOUS
62
252
70
192
10
1.690000
20
0.039198
30
-0.372946
0
VERTEX
8
0
6
CONTINUOUS
62
252
70
192
10
1.690000
20
0.000000
30
-0.375000
0
VERTEX
8
0
6
CONTINUOUS
62
252
70
192
10
1.690000
20
-0.039198
30
-0.372946
0
VERTEX
8
0
6
CONTINUOUS
62
252
70
192
10
1.690000
20
-0.077967
30
-0.366805
0
VERTEX
8
0
6
CONTINUOUS
62
252
70
192
10
1.690000
20
-0.115881
30
-0.356646
0
VERTEX
8
0
6
CONTINUOUS
62
252
70
192
10
1.690000
20
-0.152526
30
-0.342580
0
VERTEX
8
0
6
CONTINUOUS
62
252
70
192
10
1.690000
20
-0.187500
30
-0.324760
0
VERTEX
8
0
6
CONTINUOUS
62
252
70
192
10
1.688333
20
-0.142550
30
-0.350711
0
VERTEX
8
0
6
CONTINUOUS
62
252
70
192
10
1.683363
20
-0.097178
30
-0.376907
0
VERTEX
8
0
6
CONTINUOUS
62
252
70
192
10
1.674997
20
-0.050116
30
-0.404078
0
VERTEX
8
0
6
CONTINUOUS
62
252
70
128
10
0.000000
20
0.000000
30
0.000000
71
2
72
9
73
1
0
VERTEX
8
0
6
CONTINUOUS
62
252
70
128
10
0.000000
20
0.000000
30
0.000000
71
1
72
9
73
10
0
VERTEX
8
0
6
CONTINUOUS
62
252
70
128
10
0.000000
20
0.000000
30
0.000000
71
1
72
10
73
11
0
VERTEX
8
0
6
CONTINUOUS
62
252
70
128
10
0.000000
20
0.000000
30
0.000000
71
9
72
2
73
8
0
VERTEX
8
0
6
CONTINUOUS
62
252
70
128
10
0.000000
20
0.000000
30
0.000000
71
8
72
2
73
3
0
VERTEX
8
0
6
CONTINUOUS
62
252
70
128
10
0.000000
20
0.000000
30
0.000000
71
8
72
3
73
7
0
VERTEX
8
0
6
CONTINUOUS
62
252
70
128
10
0.000000
20
0.000000
30
0.000000
71
7
72
3
73
4
0
VERTEX
8
0
6
CONTINUOUS
62
252
70
128
10
0.000000
20
0.000000
30
0.000000
71
7
72
4
73
6
0
VERTEX
8
0
6
CONTINUOUS
62
252
70
128
10
0.000000
20
0.000000
30
0.000000
71
6
72
4
73
5
0
VERTEX
8
0
6
CONTINUOUS
62
252
70
128
10
0.000000
20
0.000000
30
0.000000
71
1
72
11
73
18
0
VERTEX
8
0
6
CONTINUOUS
62
252
70
128
10
0.000000
20
0.000000
30
0.000000
71
18
72
11
73
12
0
VERTEX
8
0
6
CONTINUOUS
62
252
70
128
10
0.000000
20
0.000000
30
0.000000
71
18
72
12
73
17
0
VERTEX
8
0
6
CONTINUOUS
62
252
70
128
10
0.000000
20
0.000000
30
0.000000
71
17
72
12
73
13
0
VERTEX
8
0
6
CONTINUOUS
62
252
70
128
10
0.000000
20
0.000000
30
0.000000
71
17
72
13
73
16
0
VERTEX
8
0
6
CONTINUOUS
62
252
70
128
10
0.000000
20
0.000000
30
0.000000
71
16
72
13
73
14
0
VERTEX
8
0
6
CONTINUOUS
62
252
70
128
10
0.000000
20
0.000000
30
0.000000
71
16
72
14
73
15
0
SEQEND
0
POLYLINE
66
1
8
0
6
CONTINUOUS
62
252
70
64
75
0
10
0.000000
20
0.000000
30
0.000000
0
VERTEX
8
0
6
CONTINUOUS
62
252
70
192
10
1.078000
20
-0.375000
30
0.000000
0
VERTEX
8
0
6
CONTINUOUS
62
252
70
192
10
1.079667
20
-0.375000
30
-0.051903
0
VERTEX
8
0
6
CONTINUOUS
62
252
70
192
10
1.084637
20
-0.375000
30
-0.104295
0
VERTEX
8
0
6
CONTINUOUS
62
252
70
192
10
1.093003
20
-0.375000
30
-0.158637
0
VERTEX
8
0
6
CONTINUOUS
62
252
70
192
10
1.105052
20
-0.375000
30
-0.216506
0
VERTEX
8
0
6
CONTINUOUS
62
252
70
192
10
1.662948
20
-0.375000
30
-0.216506
0
VERTEX
8
0
6
CONTINUOUS
62
252
70
192
10
1.674997
20
-0.375000
30
-0.158637
0
VERTEX
8
0
6
CONTINUOUS
62
252
70
192
10
1.683363
20
-0.375000
30
-0.104295
0
VERTEX
8
0
6
CONTINUOUS
62
252
70
192
10
1.688333
20
-0.375000
30
-0.051903
0
VERTEX
8
0
6
CONTINUOUS
62
252
70
192
10
1.690000
20
-0.375000
30
-0.000000
0
VERTEX
8
0
6
CONTINUOUS
62
252
70
192
10
1.688333
20
-0.375000
30
0.051903
0
VERTEX
8
0
6
CONTINUOUS
62
252
70
192
10
1.683363
20
-0.375000
30
0.104295
0
VERTEX
8
0
6
CONTINUOUS
62
252
70
192
10
1.674997
20
-0.375000
30
0.158637
0
VERTEX
8
0
6
CONTINUOUS
62
252
70
192
10
1.662948
20
-0.375000
30
0.216506
0
VERTEX
8
0
6
CONTINUOUS
62
252
70
192
10
1.105052
20
-0.375000
30
0.216506
0
VERTEX
8
0
6
CONTINUOUS
62
252
70
192
10
1.093003
20
-0.375000
30
0.158637
0
VERTEX
8
0
6
CONTINUOUS
62
252
70
192
10
1.084637
20
-0.375000
30
0.104295
0
VERTEX
8
0
6
CONTINUOUS
62
252
70
192
10
1.079667
20
-0.375000
30
0.051903
0
VERTEX
8
0
6
CONTINUOUS
62
252
70
128
10
0.000000
20
0.000000
30
0.000000
71
2
72
9
73
1
0
VERTEX
8
0
6
CONTINUOUS
62
252
70
128
10
0.000000
20
0.000000
30
0.000000
71
1
72
9
73
10
0
VERTEX
8
0
6
CONTINUOUS
62
252
70
128
10
0.000000
20
0.000000
30
0.000000
71
1
72
10
73
11
0
VERTEX
8
0
6
CONTINUOUS
62
252
70
128
10
0.000000
20
0.000000
30
0.000000
71
9
72
2
73
8
0
VERTEX
8
0
6
CONTINUOUS
62
252
70
128
10
0.000000
20
0.000000
30
0.000000
71
8
72
2
73
3
0
VERTEX
8
0
6
CONTINUOUS
62
252
70
128
10
0.000000
20
0.000000
30
0.000000
71
8
72
3
73
4
0
VERTEX
8
0
6
CONTINUOUS
62
252
70
128
10
0.000000
20
0.000000
30
0.000000
71
5
72
6
73
4
0
VERTEX
8
0
6
CONTINUOUS
62
252
70
128
10
0.000000
20
0.000000
30
0.000000
71
4
72
6
73
7
0
VERTEX
8
0
6
CONTINUOUS
62
252
70
128
10
0.000000
20
0.000000
30
0.000000
71
4
72
7
73
8
0
VERTEX
8
0
6
CONTINUOUS
62
252
70
128
10
0.000000
20
0.000000
30
0.000000
71
1
72
11
73
18
0
VERTEX
8
0
6
CONTINUOUS
62
252
70
128
10
0.000000
20
0.000000
30
0.000000
71
18
72
11
73
12
0
VERTEX
8
0
6
CONTINUOUS
62
252
70
128
10
0.000000
20
0.000000
30
0.000000
71
18
72
12
73
17
0
VERTEX
8
0
6
CONTINUOUS
62
252
70
128
10
0.000000
20
0.000000
30
0.000000
71
17
72
12
73
16
0
VERTEX
8
0
6
CONTINUOUS
62
252
70
128
10
0.000000
20
0.000000
30
0.000000
71
16
72
12
73
13
0
VERTEX
8
0
6
CONTINUOUS
62
252
70
128
10
0.000000
20
0.000000
30
0.000000
71
16
72
13
73
14
0
VERTEX
8
0
6
CONTINUOUS
62
252
70
128
10
0.000000
20
0.000000
30
0.000000
71
14
72
15
73
16
0
SEQEND
0
POLYLINE
66
1
8
0
6
CONTINUOUS
62
252
70
64
75
0
10
0.000000
20
0.000000
30
0.000000
0
VERTEX
8
0
6
CONTINUOUS
62
252
70
192
10
1.078000
20
-0.187500
30
0.324760
0
VERTEX
8
0
6
CONTINUOUS
62
252
70
192
10
1.079667
20
-0.232450
30
0.298808
0
VERTEX
8
0
6
CONTINUOUS
62
252
70
192
10
1.084637
20
-0.277822
30
0.272612
0
VERTEX
8
0
6
CONTINUOUS
62
252
70
192
10
1.093003
20
-0.324884
30
0.245441
0
VERTEX
8
0
6
CONTINUOUS
62
252
70
192
10
1.105052
20
-0.375000
30
0.216506
0
VERTEX
8
0
6
CONTINUOUS
62
252
70
192
10
1.662948
20
-0.375000
30
0.216506
0
VERTEX
8
0
6
CONTINUOUS
62
252
70
192
10
1.674997
20
-0.324884
30
0.245441
0
VERTEX
8
0
6
CONTINUOUS
62
252
70
192
10
1.683363
20
-0.277822
30
0.272612
0
VERTEX
8
0
6
CONTINUOUS
62
252
70
192
10
1.688333
20
-0.232450
30
0.298808
0
VERTEX
8
0
6
CONTINUOUS
62
252
70
192
10
1.690000
20
-0.187500
30
0.324760
0
VERTEX
8
0
6
CONTINUOUS
62
252
70
192
10
1.688333
20
-0.142550
30
0.350711
0
VERTEX
8
0
6
CONTINUOUS
62
252
70
192
10
1.683363
20
-0.097178
30
0.376907
0
VERTEX
8
0
6
CONTINUOUS
62
252
70
192
10
1.674997
20
-0.050116
30
0.404078
0
VERTEX
8
0
6
CONTINUOUS
62
252
70
192
10
1.662948
20
0.000000
30
0.433013
0
VERTEX
8
0
6
CONTINUOUS
62
252
70
192
10
1.105052
20
0.000000
30
0.433013
0
VERTEX
8
0
6
CONTINUOUS
62
252
70
192
10
1.093003
20
-0.050116
30
0.404078
0
VERTEX
8
0
6
CONTINUOUS
62
252
70
192
10
1.084637
20
-0.097178
30
0.376907
0
VERTEX
8
0
6
CONTINUOUS
62
252
70
192
10
1.079667
20
-0.142550
30
0.350711
0
VERTEX
8
0
6
CONTINUOUS
62
252
70
128
10
0.000000
20
0.000000
30
0.000000
71
2
72
10
73
1
0
VERTEX
8
0
6
CONTINUOUS
62
252
70
128
10
0.000000
20
0.000000
30
0.000000
71
1
72
10
73
11
0
VERTEX
8
0
6
CONTINUOUS
62
252
70
128
10
0.000000
20
0.000000
30
0.000000
71
1
72
11
73
18
0
VERTEX
8
0
6
CONTINUOUS
62
252
70
128
10
0.000000
20
0.000000
30
0.000000
71
18
72
11
73
12
0
VERTEX
8
0
6
CONTINUOUS
62
252
70
128
10
0.000000
20
0.000000
30
0.000000
71
18
72
12
73
17
0
VERTEX
8
0
6
CONTINUOUS
62
252
70
128
10
0.000000
20
0.000000
30
0.000000
71
17
72
12
73
13
0
VERTEX
8
0
6
CONTINUOUS
62
252
70
128
10
0.000000
20
0.000000
30
0.000000
71
17
72
13
73
16
0
VERTEX
8
0
6
CONTINUOUS
62
252
70
128
10
0.000000
20
0.000000
30
0.000000
71
16
72
13
73
15
0
VERTEX
8
0
6
CONTINUOUS
62
252
70
128
10
0.000000
20
0.000000
30
0.000000
71
15
72
13
73
14
0
VERTEX
8
0
6
CONTINUOUS
62
252
70
128
10
0.000000
20
0.000000
30
0.000000
71
3
72
8
73
2
0
VERTEX
8
0
6
CONTINUOUS
62
252
70
128
10
0.000000
20
0.000000
30
0.000000
71
2
72
8
73
9
0
VERTEX
8
0
6
CONTINUOUS
62
252
70
128
10
0.000000
20
0.000000
30
0.000000
71
2
72
9
73
10
0
VERTEX
8
0
6
CONTINUOUS
62
252
70
128
10
0.000000
20
0.000000
30
0.000000
71
8
72
3
73
7
0
VERTEX
8
0
6
CONTINUOUS
62
252
70
128
10
0.000000
20
0.000000
30
0.000000
71
7
72
3
73
4
0
VERTEX
8
0
6
CONTINUOUS
62
252
70
128
10
0.000000
20
0.000000
30
0.000000
71
7
72
4
73
5
0
VERTEX
8
0
6
CONTINUOUS
62
252
70
128
10
0.000000
20
0.000000
30
0.000000
71
5
72
6
73
7
0
SEQEND
0
POLYLINE
66
1
8
0
6
CONTINUOUS
62
252
70
64
75
0
10
0.000000
20
0.000000
30
0.000000
0
VERTEX
8
0
6
CONTINUOUS
62
252
70
192
10
1.078000
20
0.187500
30
0.324760
0
VERTEX
8
0
6
CONTINUOUS
62
252
70
192
10
1.079667
20
0.142550
30
0.350711
0
VERTEX
8
0
6
CONTINUOUS
62
252
70
192
10
1.084637
20
0.097178
30
0.376907
0
VERTEX
8
0
6
CONTINUOUS
62
252
70
192
10
1.093003
20
0.050116
30
0.404078
0
VERTEX
8
0
6
CONTINUOUS
62
252
70
192
10
1.105052
20
0.000000
30
0.433013
0
VERTEX
8
0
6
CONTINUOUS
62
252
70
192
10
1.662948
20
0.000000
30
0.433013
0
VERTEX
8
0
6
CONTINUOUS
62
252
70
192
10
1.674997
20
0.050116
30
0.404078
0
VERTEX
8
0
6
CONTINUOUS
62
252
70
192
10
1.683363
20
0.097178
30
0.376907
0
VERTEX
8
0
6
CONTINUOUS
62
252
70
192
10
1.688333
20
0.142550
30
0.350711
0
VERTEX
8
0
6
CONTINUOUS
62
252
70
192
10
1.690000
20
0.187500
30
0.324760
0
VERTEX
8
0
6
CONTINUOUS
62
252
70
192
10
1.688333
20
0.232450
30
0.298808
0
VERTEX
8
0
6
CONTINUOUS
62
252
70
192
10
1.683363
20
0.277822
30
0.272612
0
VERTEX
8
0
6
CONTINUOUS
62
252
70
192
10
1.674997
20
0.324884
30
0.245441
0
VERTEX
8
0
6
CONTINUOUS
62
252
70
192
10
1.662948
20
0.375000
30
0.216506
0
VERTEX
8
0
6
CONTINUOUS
62
252
70
192
10
1.105052
20
0.375000
30
0.216506
0
VERTEX
8
0
6
CONTINUOUS
62
252
70
192
10
1.093003
20
0.324884
30
0.245441
0
VERTEX
8
0
6
CONTINUOUS
62
252
70
192
10
1.084637
20
0.277822
30
0.272612
0
VERTEX
8
0
6
CONTINUOUS
62
252
70
192
10
1.079667
20
0.232450
30
0.298808
0
VERTEX
8
0
6
CONTINUOUS
62
252
70
128
10
0.000000
20
0.000000
30
0.000000
71
2
72
10
73
1
0
VERTEX
8
0
6
CONTINUOUS
62
252
70
128
10
0.000000
20
0.000000
30
0.000000
71
1
72
10
73
11
0
VERTEX
8
0
6
CONTINUOUS
62
252
70
128
10
0.000000
20
0.000000
30
0.000000
71
1
72
11
73
18
0
VERTEX
8
0
6
CONTINUOUS
62
252
70
128
10
0.000000
20
0.000000
30
0.000000
71
18
72
11
73
17
0
VERTEX
8
0
6
CONTINUOUS
62
252
70
128
10
0.000000
20
0.000000
30
0.000000
71
17
72
11
73
12
0
VERTEX
8
0
6
CONTINUOUS
62
252
70
128
10
0.000000
20
0.000000
30
0.000000
71
17
72
12
73
16
0
VERTEX
8
0
6
CONTINUOUS
62
252
70
128
10
0.000000
20
0.000000
30
0.000000
71
16
72
12
73
13
0
VERTEX
8
0
6
CONTINUOUS
62
252
70
128
10
0.000000
20
0.000000
30
0.000000
71
16
72
13
73
14
0
VERTEX
8
0
6
CONTINUOUS
62
252
70
128
10
0.000000
20
0.000000
30
0.000000
71
3
72
8
73
2
0
VERTEX
8
0
6
CONTINUOUS
62
252
70
128
10
0.000000
20
0.000000
30
0.000000
71
2
72
8
73
9
0
VERTEX
8
0
6
CONTINUOUS
62
252
70
128
10
0.000000
20
0.000000
30
0.000000
71
2
72
9
73
10
0
VERTEX
8
0
6
CONTINUOUS
62
252
70
128
10
0.000000
20
0.000000
30
0.000000
71
8
72
3
73
7
0
VERTEX
8
0
6
CONTINUOUS
62
252
70
128
10
0.000000
20
0.000000
30
0.000000
71
7
72
3
73
4
0
VERTEX
8
0
6
CONTINUOUS
62
252
70
128
10
0.000000
20
0.000000
30
0.000000
71
7
72
4
73
5
0
VERTEX
8
0
6
CONTINUOUS
62
252
70
128
10
0.000000
20
0.000000
30
0.000000
71
5
72
6
73
7
0
VERTEX
8
0
6
CONTINUOUS
62
252
70
128
10
0.000000
20
0.000000
30
0.000000
71
14
72
15
73
16
0
SEQEND
0
POLYLINE
66
1
8
0
6
CONTINUOUS
62
252
70
64
75
0
10
0.000000
20
0.000000
30
0.000000
0
VERTEX
8
0
6
CONTINUOUS
62
252
70
192
10
1.690000
20
0.000000
30
-0.268035
0
VERTEX
8
0
6
CONTINUOUS
62
252
70
192
10
1.690000
20
-0.028017
30
-0.266567
0
VERTEX
8
0
6
CONTINUOUS
62
252
70
192
10
1.690000
20
-0.055728
30
-0.262178
0
VERTEX
8
0
6
CONTINUOUS
62
252
70
192
10
1.690000
20
-0.082827
30
-0.254916
0
VERTEX
8
0
6
CONTINUOUS
62
252
70
192
10
1.690000
20
-0.109020
30
-0.244862
0
VERTEX
8
0
6
CONTINUOUS
62
252
70
192
10
1.690000
20
-0.134017
30
-0.232125
0
VERTEX
8
0
6
CONTINUOUS
62
252
70
192
10
1.690000
20
-0.157547
30
-0.216845
0
VERTEX
8
0
6
CONTINUOUS
62
252
70
192
10
1.690000
20
-0.179350
30
-0.199189
0
VERTEX
8
0
6
CONTINUOUS
62
252
70
192
10
1.690000
20
-0.199189
30
-0.179350
0
VERTEX
8
0
6
CONTINUOUS
62
252
70
192
10
1.690000
20
-0.216845
30
-0.157547
0
VERTEX
8
0
6
CONTINUOUS
62
252
70
192
10
1.690000
20
-0.232125
30
-0.134018
0
VERTEX
8
0
6
CONTINUOUS
62
252
70
192
10
1.690000
20
-0.244862
30
-0.109020
0
VERTEX
8
0
6
CONTINUOUS
62
252
70
192
10
1.690000
20
-0.254916
30
-0.082827
0
VERTEX
8
0
6
CONTINUOUS
62
252
70
192
10
1.690000
20
-0.262178
30
-0.055728
0
VERTEX
8
0
6
CONTINUOUS
62
252
70
192
10
1.690000
20
-0.266567
30
-0.028017
0
VERTEX
8
0
6
CONTINUOUS
62
252
70
192
10
1.690000
20
-0.268035
30
-0.000000
0
VERTEX
8
0
6
CONTINUOUS
62
252
70
192
10
1.690000
20
-0.266567
30
0.028017
0
VERTEX
8
0
6
CONTINUOUS
62
252
70
192
10
1.690000
20
-0.262178
30
0.055728
0
VERTEX
8
0
6
CONTINUOUS
62
252
70
192
10
1.690000
20
-0.254916
30
0.082827
0
VERTEX
8
0
6
CONTINUOUS
62
252
70
192
10
1.690000
20
-0.244862
30
0.109020
0
VERTEX
8
0
6
CONTINUOUS
62
252
70
192
10
1.690000
20
-0.232125
30
0.134017
0
VERTEX
8
0
6
CONTINUOUS
62
252
70
192
10
1.690000
20
-0.216845
30
0.157547
0
VERTEX
8
0
6
CONTINUOUS
62
252
70
192
10
1.690000
20
-0.199189
30
0.179350
0
VERTEX
8
0
6
CONTINUOUS
62
252
70
192
10
1.690000
20
-0.179350
30
0.199189
0
VERTEX
8
0
6
CONTINUOUS
62
252
70
192
10
1.690000
20
-0.157547
30
0.216845
0
VERTEX
8
0
6
CONTINUOUS
62
252
70
192
10
1.690000
20
-0.134018
30
0.232125
0
VERTEX
8
0
6
CONTINUOUS
62
252
70
192
10
1.690000
20
-0.109020
30
0.244862
0
VERTEX
8
0
6
CONTINUOUS
62
252
70
192
10
1.690000
20
-0.082827
30
0.254916
0
VERTEX
8
0
6
CONTINUOUS
62
252
70
192
10
1.690000
20
-0.055728
30
0.262178
0
VERTEX
8
0
6
CONTINUOUS
62
252
70
192
10
1.690000
20
-0.028017
30
0.266567
0
VERTEX
8
0
6
CONTINUOUS
62
252
70
192
10
1.690000
20
-0.000000
30
0.268035
0
VERTEX
8
0
6
CONTINUOUS
62
252
70
192
10
1.690000
20
0.028017
30
0.266567
0
VERTEX
8
0
6
CONTINUOUS
62
252
70
192
10
1.690000
20
0.055728
30
0.262178
0
VERTEX
8
0
6
CONTINUOUS
62
252
70
192
10
1.690000
20
0.082827
30
0.254916
0
VERTEX
8
0
6
CONTINUOUS
62
252
70
192
10
1.690000
20
0.109020
30
0.244862
0
VERTEX
8
0
6
CONTINUOUS
62
252
70
192
10
1.690000
20
0.134017
30
0.232125
0
VERTEX
8
0
6
CONTINUOUS
62
252
70
192
10
1.690000
20
0.157547
30
0.216845
0
VERTEX
8
0
6
CONTINUOUS
62
252
70
192
10
1.690000
20
0.179350
30
0.199189
0
VERTEX
8
0
6
CONTINUOUS
62
252
70
192
10
1.690000
20
0.199189
30
0.179350
0
VERTEX
8
0
6
CONTINUOUS
62
252
70
192
10
1.690000
20
0.216845
30
0.157547
0
VERTEX
8
0
6
CONTINUOUS
62
252
70
192
10
1.690000
20
0.232125
30
0.134018
0
VERTEX
8
0
6
CONTINUOUS
62
252
70
192
10
1.690000
20
0.244862
30
0.109020
0
VERTEX
8
0
6
CONTINUOUS
62
252
70
192
10
1.690000
20
0.254916
30
0.082827
0
VERTEX
8
0
6
CONTINUOUS
62
252
70
192
10
1.690000
20
0.262178
30
0.055728
0
VERTEX
8
0
6
CONTINUOUS
62
252
70
192
10
1.690000
20
0.266567
30
0.028017
0
VERTEX
8
0
6
CONTINUOUS
62
252
70
192
10
1.690000
20
0.268035
30
0.000000
0
VERTEX
8
0
6
CONTINUOUS
62
252
70
192
10
1.690000
20
0.266567
30
-0.028017
0
VERTEX
8
0
6
CONTINUOUS
62
252
70
192
10
1.690000
20
0.262178
30
-0.055728
0
VERTEX
8
0
6
CONTINUOUS
62
252
70
192
10
1.690000
20
0.254916
30
-0.082827
0
VERTEX
8
0
6
CONTINUOUS
62
252
70
192
10
1.690000
20
0.244862
30
-0.109020
0
VERTEX
8
0
6
CONTINUOUS
62
252
70
192
10
1.690000
20
0.232125
30
-0.134017
0
VERTEX
8
0
6
CONTINUOUS
62
252
70
192
10
1.690000
20
0.216845
30
-0.157547
0
VERTEX
8
0
6
CONTINUOUS
62
252
70
192
10
1.690000
20
0.199189
30
-0.179350
0
VERTEX
8
0
6
CONTINUOUS
62
252
70
192
10
1.690000
20
0.179350
30
-0.199189
0
VERTEX
8
0
6
CONTINUOUS
62
252
70
192
10
1.690000
20
0.157547
30
-0.216845
0
VERTEX
8
0
6
CONTINUOUS
62
252
70
192
10
1.690000
20
0.134018
30
-0.232125
0
VERTEX
8
0
6
CONTINUOUS
62
252
70
192
10
1.690000
20
0.109020
30
-0.244862
0
VERTEX
8
0
6
CONTINUOUS
62
252
70
192
10
1.690000
20
0.082827
30
-0.254916
0
VERTEX
8
0
6
CONTINUOUS
62
252
70
192
10
1.690000
20
0.055728
30
-0.262178
0
VERTEX
8
0
6
CONTINUOUS
62
252
70
192
10
1.690000
20
0.028017
30
-0.266567
0
VERTEX
8
0
6
CONTINUOUS
62
252
70
192
10
1.690000
20
0.187500
30
0.324760
0
VERTEX
8
0
6
CONTINUOUS
62
252
70
192
10
1.690000
20
0.152526
30
0.342580
0
VERTEX
8
0
6
CONTINUOUS
62
252
70
192
10
1.690000
20
0.115881
30
0.356646
0
VERTEX
8
0
6
CONTINUOUS
62
252
70
192
10
1.690000
20
0.077967
30
0.366805
0
VERTEX
8
0
6
CONTINUOUS
62
252
70
192
10
1.690000
20
0.039198
30
0.372946
0
VERTEX
8
0
6
CONTINUOUS
62
252
70
192
10
1.690000
20
0.000000
30
0.375000
0
VERTEX
8
0
6
CONTINUOUS
62
252
70
192
10
1.690000
20
-0.039198
30
0.372946
0
VERTEX
8
0
6
CONTINUOUS
62
252
70
192
10
1.690000
20
-0.077967
30
0.366805
0
VERTEX
8
0
6
CONTINUOUS
62
252
70
192
10
1.690000
20
-0.115881
30
0.356646
0
VERTEX
8
0
6
CONTINUOUS
62
252
70
192
10
1.690000
20
-0.152526
30
0.342580
0
VERTEX
8
0
6
CONTINUOUS
62
252
70
192
10
1.690000
20
-0.187500
30
0.324760
0
VERTEX
8
0
6
CONTINUOUS
62
252
70
192
10
1.690000
20
-0.220419
30
0.303381
0
VERTEX
8
0
6
CONTINUOUS
62
252
70
192
10
1.690000
20
-0.250924
30
0.278679
0
VERTEX
8
0
6
CONTINUOUS
62
252
70
192
10
1.690000
20
-0.278679
30
0.250924
0
VERTEX
8
0
6
CONTINUOUS
62
252
70
192
10
1.690000
20
-0.303381
30
0.220419
0
VERTEX
8
0
6
CONTINUOUS
62
252
70
192
10
1.690000
20
-0.324760
30
0.187500
0
VERTEX
8
0
6
CONTINUOUS
62
252
70
192
10
1.690000
20
-0.342580
30
0.152526
0
VERTEX
8
0
6
CONTINUOUS
62
252
70
192
10
1.690000
20
-0.356646
30
0.115881
0
VERTEX
8
0
6
CONTINUOUS
62
252
70
192
10
1.690000
20
-0.366805
30
0.077967
0
VERTEX
8
0
6
CONTINUOUS
62
252
70
192
10
1.690000
20
-0.372946
30
0.039198
0
VERTEX
8
0
6
CONTINUOUS
62
252
70
192
10
1.690000
20
-0.375000
30
-0.000000
0
VERTEX
8
0
6
CONTINUOUS
62
252
70
192
10
1.690000
20
-0.372946
30
-0.039198
0
VERTEX
8
0
6
CONTINUOUS
62
252
70
192
10
1.690000
20
-0.366805
30
-0.077967
0
VERTEX
8
0
6
CONTINUOUS
62
252
70
192
10
1.690000
20
-0.356646
30
-0.115881
0
VERTEX
8
0
6
CONTINUOUS
62
252
70
192
10
1.690000
20
-0.342580
30
-0.152526
0
VERTEX
8
0
6
CONTINUOUS
62
252
70
192
10
1.690000
20
-0.324760
30
-0.187500
0
VERTEX
8
0
6
CONTINUOUS
62
252
70
192
10
1.690000
20
-0.303381
30
-0.220419
0
VERTEX
8
0
6
CONTINUOUS
62
252
70
192
10
1.690000
20
-0.278679
30
-0.250924
0
VERTEX
8
0
6
CONTINUOUS
62
252
70
192
10
1.690000
20
-0.250924
30
-0.278679
0
VERTEX
8
0
6
CONTINUOUS
62
252
70
192
10
1.690000
20
-0.220419
30
-0.303381
0
VERTEX
8
0
6
CONTINUOUS
62
252
70
192
10
1.690000
20
-0.187500
30
-0.324760
0
VERTEX
8
0
6
CONTINUOUS
62
252
70
192
10
1.690000
20
-0.152526
30
-0.342580
0
VERTEX
8
0
6
CONTINUOUS
62
252
70
192
10
1.690000
20
-0.115881
30
-0.356646
0
VERTEX
8
0
6
CONTINUOUS
62
252
70
192
10
1.690000
20
-0.077967
30
-0.366805
0
VERTEX
8
0
6
CONTINUOUS
62
252
70
192
10
1.690000
20
-0.039198
30
-0.372946
0
VERTEX
8
0
6
CONTINUOUS
62
252
70
192
10
1.690000
20
0.000000
30
-0.375000
0
VERTEX
8
0
6
CONTINUOUS
62
252
70
192
10
1.690000
20
0.039198
30
-0.372946
0
VERTEX
8
0
6
CONTINUOUS
62
252
70
192
10
1.690000
20
0.077967
30
-0.366805
0
VERTEX
8
0
6
CONTINUOUS
62
252
70
192
10
1.690000
20
0.115881
30
-0.356646
0
VERTEX
8
0
6
CONTINUOUS
62
252
70
192
10
1.690000
20
0.152526
30
-0.342580
0
VERTEX
8
0
6
CONTINUOUS
62
252
70
192
10
1.690000
20
0.187500
30
-0.324760
0
VERTEX
8
0
6
CONTINUOUS
62
252
70
192
10
1.690000
20
0.220419
30
-0.303381
0
VERTEX
8
0
6
CONTINUOUS
62
252
70
192
10
1.690000
20
0.250924
30
-0.278679
0
VERTEX
8
0
6
CONTINUOUS
62
252
70
192
10
1.690000
20
0.278679
30
-0.250924
0
VERTEX
8
0
6
CONTINUOUS
62
252
70
192
10
1.690000
20
0.303381
30
-0.220419
0
VERTEX
8
0
6
CONTINUOUS
62
252
70
192
10
1.690000
20
0.324760
30
-0.187500
0
VERTEX
8
0
6
CONTINUOUS
62
252
70
192
10
1.690000
20
0.342580
30
-0.152526
0
VERTEX
8
0
6
CONTINUOUS
62
252
70
192
10
1.690000
20
0.356646
30
-0.115881
0
VERTEX
8
0
6
CONTINUOUS
62
252
70
192
10
1.690000
20
0.366805
30
-0.077967
0
VERTEX
8
0
6
CONTINUOUS
62
252
70
192
10
1.690000
20
0.372946
30
-0.039198
0
VERTEX
8
0
6
CONTINUOUS
62
252
70
192
10
1.690000
20
0.375000
30
0.000000
0
VERTEX
8
0
6
CONTINUOUS
62
252
70
192
10
1.690000
20
0.372946
30
0.039198
0
VERTEX
8
0
6
CONTINUOUS
62
252
70
192
10
1.690000
20
0.366805
30
0.077967
0
VERTEX
8
0
6
CONTINUOUS
62
252
70
192
10
1.690000
20
0.356646
30
0.115881
0
VERTEX
8
0
6
CONTINUOUS
62
252
70
192
10
1.690000
20
0.342580
30
0.152526
0
VERTEX
8
0
6
CONTINUOUS
62
252
70
192
10
1.690000
20
0.324760
30
0.187500
0
VERTEX
8
0
6
CONTINUOUS
62
252
70
192
10
1.690000
20
0.303381
30
0.220419
0
VERTEX
8
0
6
CONTINUOUS
62
252
70
192
10
1.690000
20
0.278679
30
0.250924
0
VERTEX
8
0
6
CONTINUOUS
62
252
70
192
10
1.690000
20
0.250924
30
0.278679
0
VERTEX
8
0
6
CONTINUOUS
62
252
70
192
10
1.690000
20
0.220419
30
0.303381
0
VERTEX
8
0
6
CONTINUOUS
62
252
70
128
10
0.000000
20
0.000000
30
0.000000
71
2
72
95
73
1
0
VERTEX
8
0
6
CONTINUOUS
62
252
70
128
10
0.000000
20
0.000000
30
0.000000
71
1
72
95
73
96
0
VERTEX
8
0
6
CONTINUOUS
62
252
70
128
10
0.000000
20
0.000000
30
0.000000
71
1
72
96
73
97
0
VERTEX
8
0
6
CONTINUOUS
62
252
70
128
10
0.000000
20
0.000000
30
0.000000
71
95
72
2
73
94
0
VERTEX
8
0
6
CONTINUOUS
62
252
70
128
10
0.000000
20
0.000000
30
0.000000
71
94
72
2
73
3
0
VERTEX
8
0
6
CONTINUOUS
62
252
70
128
10
0.000000
20
0.000000
30
0.000000
71
94
72
3
73
93
0
VERTEX
8
0
6
CONTINUOUS
62
252
70
128
10
0.000000
20
0.000000
30
0.000000
71
93
72
3
73
4
0
VERTEX
8
0
6
CONTINUOUS
62
252
70
128
10
0.000000
20
0.000000
30
0.000000
71
93
72
4
73
92
0
VERTEX
8
0
6
CONTINUOUS
62
252
70
128
10
0.000000
20
0.000000
30
0.000000
71
92
72
4
73
5
0
VERTEX
8
0
6
CONTINUOUS
62
252
70
128
10
0.000000
20
0.000000
30
0.000000
71
92
72
5
73
6
0
VERTEX
8
0
6
CONTINUOUS
62
252
70
128
10
0.000000
20
0.000000
30
0.000000
71
7
72
90
73
6
0
VERTEX
8
0
6
CONTINUOUS
62
252
70
128
10
0.000000
20
0.000000
30
0.000000
71
6
72
90
73
91
0
VERTEX
8
0
6
CONTINUOUS
62
252
70
128
10
0.000000
20
0.000000
30
0.000000
71
6
72
91
73
92
0
VERTEX
8
0
6
CONTINUOUS
62
252
70
128
10
0.000000
20
0.000000
30
0.000000
71
90
72
7
73
89
0
VERTEX
8
0
6
CONTINUOUS
62
252
70
128
10
0.000000
20
0.000000
30
0.000000
71
89
72
7
73
8
0
VERTEX
8
0
6
CONTINUOUS
62
252
70
128
10
0.000000
20
0.000000
30
0.000000
71
89
72
8
73
88
0
VERTEX
8
0
6
CONTINUOUS
62
252
70
128
10
0.000000
20
0.000000
30
0.000000
71
88
72
8
73
9
0
VERTEX
8
0
6
CONTINUOUS
62
252
70
128
10
0.000000
20
0.000000
30
0.000000
71
88
72
9
73
10
0
VERTEX
8
0
6
CONTINUOUS
62
252
70
128
10
0.000000
20
0.000000
30
0.000000
71
11
72
86
73
10
0
VERTEX
8
0
6
CONTINUOUS
62
252
70
128
10
0.000000
20
0.000000
30
0.000000
71
10
72
86
73
87
0
VERTEX
8
0
6
CONTINUOUS
62
252
70
128
10
0.000000
20
0.000000
30
0.000000
71
10
72
87
73
88
0
VERTEX
8
0
6
CONTINUOUS
62
252
70
128
10
0.000000
20
0.000000
30
0.000000
71
11
72
12
73
86
0
VERTEX
8
0
6
CONTINUOUS
62
252
70
128
10
0.000000
20
0.000000
30
0.000000
71
86
72
12
73
85
0
VERTEX
8
0
6
CONTINUOUS
62
252
70
128
10
0.000000
20
0.000000
30
0.000000
71
85
72
12
73
84
0
VERTEX
8
0
6
CONTINUOUS
62
252
70
128
10
0.000000
20
0.000000
30
0.000000
71
84
72
12
73
13
0
VERTEX
8
0
6
CONTINUOUS
62
252
70
128
10
0.000000
20
0.000000
30
0.000000
71
84
72
13
73
14
0
VERTEX
8
0
6
CONTINUOUS
62
252
70
128
10
0.000000
20
0.000000
30
0.000000
71
84
72
14
73
83
0
VERTEX
8
0
6
CONTINUOUS
62
252
70
128
10
0.000000
20
0.000000
30
0.000000
71
83
72
14
73
15
0
VERTEX
8
0
6
CONTINUOUS
62
252
70
128
10
0.000000
20
0.000000
30
0.000000
71
83
72
15
73
82
0
VERTEX
8
0
6
CONTINUOUS
62
252
70
128
10
0.000000
20
0.000000
30
0.000000
71
82
72
15
73
16
0
VERTEX
8
0
6
CONTINUOUS
62
252
70
128
10
0.000000
20
0.000000
30
0.000000
71
82
72
16
73
81
0
VERTEX
8
0
6
CONTINUOUS
62
252
70
128
10
0.000000
20
0.000000
30
0.000000
71
81
72
16
73
17
0
VERTEX
8
0
6
CONTINUOUS
62
252
70
128
10
0.000000
20
0.000000
30
0.000000
71
81
72
17
73
80
0
VERTEX
8
0
6
CONTINUOUS
62
252
70
128
10
0.000000
20
0.000000
30
0.000000
71
80
72
17
73
18
0
VERTEX
8
0
6
CONTINUOUS
62
252
70
128
10
0.000000
20
0.000000
30
0.000000
71
80
72
18
73
79
0
VERTEX
8
0
6
CONTINUOUS
62
252
70
128
10
0.000000
20
0.000000
30
0.000000
71
79
72
18
73
19
0
VERTEX
8
0
6
CONTINUOUS
62
252
70
128
10
0.000000
20
0.000000
30
0.000000
71
79
72
19
73
78
0
VERTEX
8
0
6
CONTINUOUS
62
252
70
128
10
0.000000
20
0.000000
30
0.000000
71
78
72
19
73
20
0
VERTEX
8
0
6
CONTINUOUS
62
252
70
128
10
0.000000
20
0.000000
30
0.000000
71
78
72
20
73
77
0
VERTEX
8
0
6
CONTINUOUS
62
252
70
128
10
0.000000
20
0.000000
30
0.000000
71
77
72
20
73
21
0
VERTEX
8
0
6
CONTINUOUS
62
252
70
128
10
0.000000
20
0.000000
30
0.000000
71
77
72
21
73
76
0
VERTEX
8
0
6
CONTINUOUS
62
252
70
128
10
0.000000
20
0.000000
30
0.000000
71
76
72
21
73
22
0
VERTEX
8
0
6
CONTINUOUS
62
252
70
128
10
0.000000
20
0.000000
30
0.000000
71
76
72
22
73
75
0
VERTEX
8
0
6
CONTINUOUS
62
252
70
128
10
0.000000
20
0.000000
30
0.000000
71
75
72
22
73
23
0
VERTEX
8
0
6
CONTINUOUS
62
252
70
128
10
0.000000
20
0.000000
30
0.000000
71
75
72
23
73
74
0
VERTEX
8
0
6
CONTINUOUS
62
252
70
128
10
0.000000
20
0.000000
30
0.000000
71
74
72
23
73
24
0
VERTEX
8
0
6
CONTINUOUS
62
252
70
128
10
0.000000
20
0.000000
30
0.000000
71
74
72
24
73
73
0
VERTEX
8
0
6
CONTINUOUS
62
252
70
128
10
0.000000
20
0.000000
30
0.000000
71
73
72
24
73
25
0
VERTEX
8
0
6
CONTINUOUS
62
252
70
128
10
0.000000
20
0.000000
30
0.000000
71
73
72
25
73
72
0
VERTEX
8
0
6
CONTINUOUS
62
252
70
128
10
0.000000
20
0.000000
30
0.000000
71
72
72
25
73
71
0
VERTEX
8
0
6
CONTINUOUS
62
252
70
128
10
0.000000
20
0.000000
30
0.000000
71
71
72
25
73
26
0
VERTEX
8
0
6
CONTINUOUS
62
252
70
128
10
0.000000
20
0.000000
30
0.000000
71
71
72
26
73
27
0
VERTEX
8
0
6
CONTINUOUS
62
252
70
128
10
0.000000
20
0.000000
30
0.000000
71
71
72
27
73
70
0
VERTEX
8
0
6
CONTINUOUS
62
252
70
128
10
0.000000
20
0.000000
30
0.000000
71
70
72
27
73
28
0
VERTEX
8
0
6
CONTINUOUS
62
252
70
128
10
0.000000
20
0.000000
30
0.000000
71
70
72
28
73
69
0
VERTEX
8
0
6
CONTINUOUS
62
252
70
128
10
0.000000
20
0.000000
30
0.000000
71
69
72
28
73
29
0
VERTEX
8
0
6
CONTINUOUS
62
252
70
128
10
0.000000
20
0.000000
30
0.000000
71
69
72
29
73
68
0
VERTEX
8
0
6
CONTINUOUS
62
252
70
128
10
0.000000
20
0.000000
30
0.000000
71
68
72
29
73
30
0
VERTEX
8
0
6
CONTINUOUS
62
252
70
128
10
0.000000
20
0.000000
30
0.000000
71
68
72
30
73
67
0
VERTEX
8
0
6
CONTINUOUS
62
252
70
128
10
0.000000
20
0.000000
30
0.000000
71
67
72
30
73
31
0
VERTEX
8
0
6
CONTINUOUS
62
252
70
128
10
0.000000
20
0.000000
30
0.000000
71
67
72
31
73
66
0
VERTEX
8
0
6
CONTINUOUS
62
252
70
128
10
0.000000
20
0.000000
30
0.000000
71
66
72
31
73
32
0
VERTEX
8
0
6
CONTINUOUS
62
252
70
128
10
0.000000
20
0.000000
30
0.000000
71
66
72
32
73
65
0
VERTEX
8
0
6
CONTINUOUS
62
252
70
128
10
0.000000
20
0.000000
30
0.000000
71
65
72
32
73
33
0
VERTEX
8
0
6
CONTINUOUS
62
252
70
128
10
0.000000
20
0.000000
30
0.000000
71
65
72
33
73
64
0
VERTEX
8
0
6
CONTINUOUS
62
252
70
128
10
0.000000
20
0.000000
30
0.000000
71
64
72
33
73
34
0
VERTEX
8
0
6
CONTINUOUS
62
252
70
128
10
0.000000
20
0.000000
30
0.000000
71
64
72
34
73
63
0
VERTEX
8
0
6
CONTINUOUS
62
252
70
128
10
0.000000
20
0.000000
30
0.000000
71
63
72
34
73
35
0
VERTEX
8
0
6
CONTINUOUS
62
252
70
128
10
0.000000
20
0.000000
30
0.000000
71
63
72
35
73
62
0
VERTEX
8
0
6
CONTINUOUS
62
252
70
128
10
0.000000
20
0.000000
30
0.000000
71
62
72
35
73
61
0
VERTEX
8
0
6
CONTINUOUS
62
252
70
128
10
0.000000
20
0.000000
30
0.000000
71
61
72
35
73
36
0
VERTEX
8
0
6
CONTINUOUS
62
252
70
128
10
0.000000
20
0.000000
30
0.000000
71
61
72
36
73
37
0
VERTEX
8
0
6
CONTINUOUS
62
252
70
128
10
0.000000
20
0.000000
30
0.000000
71
61
72
37
73
120
0
VERTEX
8
0
6
CONTINUOUS
62
252
70
128
10
0.000000
20
0.000000
30
0.000000
71
120
72
37
73
38
0
VERTEX
8
0
6
CONTINUOUS
62
252
70
128
10
0.000000
20
0.000000
30
0.000000
71
120
72
38
73
119
0
VERTEX
8
0
6
CONTINUOUS
62
252
70
128
10
0.000000
20
0.000000
30
0.000000
71
119
72
38
73
39
0
VERTEX
8
0
6
CONTINUOUS
62
252
70
128
10
0.000000
20
0.000000
30
0.000000
71
119
72
39
73
118
0
VERTEX
8
0
6
CONTINUOUS
62
252
70
128
10
0.000000
20
0.000000
30
0.000000
71
118
72
39
73
40
0
VERTEX
8
0
6
CONTINUOUS
62
252
70
128
10
0.000000
20
0.000000
30
0.000000
71
118
72
40
73
117
0
VERTEX
8
0
6
CONTINUOUS
62
252
70
128
10
0.000000
20
0.000000
30
0.000000
71
117
72
40
73
41
0
VERTEX
8
0
6
CONTINUOUS
62
252
70
128
10
0.000000
20
0.000000
30
0.000000
71
117
72
41
73
116
0
VERTEX
8
0
6
CONTINUOUS
62
252
70
128
10
0.000000
20
0.000000
30
0.000000
71
116
72
41
73
42
0
VERTEX
8
0
6
CONTINUOUS
62
252
70
128
10
0.000000
20
0.000000
30
0.000000
71
116
72
42
73
115
0
VERTEX
8
0
6
CONTINUOUS
62
252
70
128
10
0.000000
20
0.000000
30
0.000000
71
115
72
42
73
43
0
VERTEX
8
0
6
CONTINUOUS
62
252
70
128
10
0.000000
20
0.000000
30
0.000000
71
115
72
43
73
114
0
VERTEX
8
0
6
CONTINUOUS
62
252
70
128
10
0.000000
20
0.000000
30
0.000000
71
114
72
43
73
44
0
VERTEX
8
0
6
CONTINUOUS
62
252
70
128
10
0.000000
20
0.000000
30
0.000000
71
114
72
44
73
113
0
VERTEX
8
0
6
CONTINUOUS
62
252
70
128
10
0.000000
20
0.000000
30
0.000000
71
113
72
44
73
45
0
VERTEX
8
0
6
CONTINUOUS
62
252
70
128
10
0.000000
20
0.000000
30
0.000000
71
113
72
45
73
112
0
VERTEX
8
0
6
CONTINUOUS
62
252
70
128
10
0.000000
20
0.000000
30
0.000000
71
112
72
45
73
111
0
VERTEX
8
0
6
CONTINUOUS
62
252
70
128
10
0.000000
20
0.000000
30
0.000000
71
111
72
45
73
46
0
VERTEX
8
0
6
CONTINUOUS
62
252
70
128
10
0.000000
20
0.000000
30
0.000000
71
111
72
46
73
47
0
VERTEX
8
0
6
CONTINUOUS
62
252
70
128
10
0.000000
20
0.000000
30
0.000000
71
111
72
47
73
110
0
VERTEX
8
0
6
CONTINUOUS
62
252
70
128
10
0.000000
20
0.000000
30
0.000000
71
110
72
47
73
48
0
VERTEX
8
0
6
CONTINUOUS
62
252
70
128
10
0.000000
20
0.000000
30
0.000000
71
110
72
48
73
109
0
VERTEX
8
0
6
CONTINUOUS
62
252
70
128
10
0.000000
20
0.000000
30
0.000000
71
109
72
48
73
49
0
VERTEX
8
0
6
CONTINUOUS
62
252
70
128
10
0.000000
20
0.000000
30
0.000000
71
109
72
49
73
108
0
VERTEX
8
0
6
CONTINUOUS
62
252
70
128
10
0.000000
20
0.000000
30
0.000000
71
108
72
49
73
107
0
VERTEX
8
0
6
CONTINUOUS
62
252
70
128
10
0.000000
20
0.000000
30
0.000000
71
107
72
49
73
50
0
VERTEX
8
0
6
CONTINUOUS
62
252
70
128
10
0.000000
20
0.000000
30
0.000000
71
107
72
50
73
51
0
VERTEX
8
0
6
CONTINUOUS
62
252
70
128
10
0.000000
20
0.000000
30
0.000000
71
107
72
51
73
106
0
VERTEX
8
0
6
CONTINUOUS
62
252
70
128
10
0.000000
20
0.000000
30
0.000000
71
106
72
51
73
52
0
VERTEX
8
0
6
CONTINUOUS
62
252
70
128
10
0.000000
20
0.000000
30
0.000000
71
106
72
52
73
105
0
VERTEX
8
0
6
CONTINUOUS
62
252
70
128
10
0.000000
20
0.000000
30
0.000000
71
105
72
52
73
53
0
VERTEX
8
0
6
CONTINUOUS
62
252
70
128
10
0.000000
20
0.000000
30
0.000000
71
105
72
53
73
104
0
VERTEX
8
0
6
CONTINUOUS
62
252
70
128
10
0.000000
20
0.000000
30
0.000000
71
104
72
53
73
54
0
VERTEX
8
0
6
CONTINUOUS
62
252
70
128
10
0.000000
20
0.000000
30
0.000000
71
104
72
54
73
103
0
VERTEX
8
0
6
CONTINUOUS
62
252
70
128
10
0.000000
20
0.000000
30
0.000000
71
103
72
54
73
55
0
VERTEX
8
0
6
CONTINUOUS
62
252
70
128
10
0.000000
20
0.000000
30
0.000000
71
103
72
55
73
102
0
VERTEX
8
0
6
CONTINUOUS
62
252
70
128
10
0.000000
20
0.000000
30
0.000000
71
102
72
55
73
101
0
VERTEX
8
0
6
CONTINUOUS
62
252
70
128
10
0.000000
20
0.000000
30
0.000000
71
101
72
55
73
56
0
VERTEX
8
0
6
CONTINUOUS
62
252
70
128
10
0.000000
20
0.000000
30
0.000000
71
101
72
56
73
57
0
VERTEX
8
0
6
CONTINUOUS
62
252
70
128
10
0.000000
20
0.000000
30
0.000000
71
101
72
57
73
100
0
VERTEX
8
0
6
CONTINUOUS
62
252
70
128
10
0.000000
20
0.000000
30
0.000000
71
100
72
57
73
58
0
VERTEX
8
0
6
CONTINUOUS
62
252
70
128
10
0.000000
20
0.000000
30
0.000000
71
100
72
58
73
99
0
VERTEX
8
0
6
CONTINUOUS
62
252
70
128
10
0.000000
20
0.000000
30
0.000000
71
99
72
58
73
59
0
VERTEX
8
0
6
CONTINUOUS
62
252
70
128
10
0.000000
20
0.000000
30
0.000000
71
99
72
59
73
98
0
VERTEX
8
0
6
CONTINUOUS
62
252
70
128
10
0.000000
20
0.000000
30
0.000000
71
98
72
59
73
60
0
VERTEX
8
0
6
CONTINUOUS
62
252
70
128
10
0.000000
20
0.000000
30
0.000000
71
98
72
60
73
97
0
VERTEX
8
0
6
CONTINUOUS
62
252
70
128
10
0.000000
20
0.000000
30
0.000000
71
97
72
60
73
1
0
SEQEND
0
ENDSEC
0
EOF
