0
SECTION
2
HEADER
9
$ACADVER
1
AC1009
9
$INSBASE
10
0.0
20
0.0
30
0.0
9
$EXTMIN
10
0.000000
20
0.000000
30
0.000000
9
$EXTMAX
10
0.000000
20
0.000000
30
0.000000
9
$UCSORG
10
0.0
20
0.0
30
0.0
9
$UCSXDIR
10
1.0
20
0.0
30
0.0
9
$UCSYDIR
10
0.0
20
1.0
30
0.0
9
$CLAYER
8
0
9
$SHADEDGE
70
3
0
ENDSEC
0
SECTION
2
TABLES
0
TABLE
2
LTYPE
70
2
0
LTYPE
2
CONTINUOUS
70
0
3
Solid line
72
65
73
0
40
0.0
0
ENDTAB
0
TABLE
2
LAYER
70
5
0
LAYER
2
0
70
0
62
7
6
CONTINUOUS
0
ENDTAB
0
TABLE
2
APPID
70
1
0
APPID
2
ACAD
70
64
0
ENDTAB
0
ENDSEC
0
SECTION
2
BLOCKS
0
ENDSEC
0
SECTION
2
ENTITIES
0
POLYLINE
66
1
8
0
6
CONTINUOUS
62
252
70
64
75
0
10
0.000000
20
0.000000
30
0.000000
0
VERTEX
8
0
6
CONTINUOUS
62
252
70
192
10
0.028212
20
0.000000
30
0.195162
0
VERTEX
8
0
6
CONTINUOUS
62
252
70
192
10
0.028212
20
0.020400
30
0.194093
0
VERTEX
8
0
6
CONTINUOUS
62
252
70
192
10
0.028212
20
0.040576
30
0.190897
0
VERTEX
8
0
6
CONTINUOUS
62
252
70
192
10
0.028212
20
0.060308
30
0.185610
0
VERTEX
8
0
6
CONTINUOUS
62
252
70
192
10
0.028212
20
0.079379
30
0.178289
0
VERTEX
8
0
6
CONTINUOUS
62
252
70
192
10
0.028212
20
0.097581
30
0.169015
0
VERTEX
8
0
6
CONTINUOUS
62
252
70
192
10
0.028212
20
0.114713
30
0.157889
0
VERTEX
8
0
6
CONTINUOUS
62
252
70
192
10
0.028212
20
0.130589
30
0.145034
0
VERTEX
8
0
6
CONTINUOUS
62
252
70
192
10
0.028212
20
0.145034
30
0.130589
0
VERTEX
8
0
6
CONTINUOUS
62
252
70
192
10
0.028212
20
0.157889
30
0.114713
0
VERTEX
8
0
6
CONTINUOUS
62
252
70
192
10
0.028212
20
0.169015
30
0.097581
0
VERTEX
8
0
6
CONTINUOUS
62
252
70
192
10
0.028212
20
0.178289
30
0.079379
0
VERTEX
8
0
6
CONTINUOUS
62
252
70
192
10
0.028212
20
0.185610
30
0.060308
0
VERTEX
8
0
6
CONTINUOUS
62
252
70
192
10
0.028212
20
0.190897
30
0.040576
0
VERTEX
8
0
6
CONTINUOUS
62
252
70
192
10
0.028212
20
0.194093
30
0.020400
0
VERTEX
8
0
6
CONTINUOUS
62
252
70
192
10
0.028212
20
0.195162
30
0.000000
0
VERTEX
8
0
6
CONTINUOUS
62
252
70
192
10
0.028212
20
0.194093
30
-0.020400
0
VERTEX
8
0
6
CONTINUOUS
62
252
70
192
10
0.028212
20
0.190897
30
-0.040576
0
VERTEX
8
0
6
CONTINUOUS
62
252
70
192
10
0.028212
20
0.185610
30
-0.060308
0
VERTEX
8
0
6
CONTINUOUS
62
252
70
192
10
0.028212
20
0.178289
30
-0.079379
0
VERTEX
8
0
6
CONTINUOUS
62
252
70
192
10
0.028212
20
0.169015
30
-0.097581
0
VERTEX
8
0
6
CONTINUOUS
62
252
70
192
10
0.028212
20
0.157889
30
-0.114713
0
VERTEX
8
0
6
CONTINUOUS
62
252
70
192
10
0.028212
20
0.145034
30
-0.130589
0
VERTEX
8
0
6
CONTINUOUS
62
252
70
192
10
0.028212
20
0.130589
30
-0.145034
0
VERTEX
8
0
6
CONTINUOUS
62
252
70
192
10
0.028212
20
0.114713
30
-0.157889
0
VERTEX
8
0
6
CONTINUOUS
62
252
70
192
10
0.028212
20
0.097581
30
-0.169015
0
VERTEX
8
0
6
CONTINUOUS
62
252
70
192
10
0.028212
20
0.079379
30
-0.178289
0
VERTEX
8
0
6
CONTINUOUS
62
252
70
192
10
0.028212
20
0.060308
30
-0.185610
0
VERTEX
8
0
6
CONTINUOUS
62
252
70
192
10
0.028212
20
0.040576
30
-0.190897
0
VERTEX
8
0
6
CONTINUOUS
62
252
70
192
10
0.028212
20
0.020400
30
-0.194093
0
VERTEX
8
0
6
CONTINUOUS
62
252
70
192
10
0.028212
20
0.000000
30
-0.195162
0
VERTEX
8
0
6
CONTINUOUS
62
252
70
192
10
0.028212
20
-0.020400
30
-0.194093
0
VERTEX
8
0
6
CONTINUOUS
62
252
70
192
10
0.028212
20
-0.040576
30
-0.190897
0
VERTEX
8
0
6
CONTINUOUS
62
252
70
192
10
0.028212
20
-0.060308
30
-0.185610
0
VERTEX
8
0
6
CONTINUOUS
62
252
70
192
10
0.028212
20
-0.079379
30
-0.178289
0
VERTEX
8
0
6
CONTINUOUS
62
252
70
192
10
0.028212
20
-0.097581
30
-0.169015
0
VERTEX
8
0
6
CONTINUOUS
62
252
70
192
10
0.028212
20
-0.114713
30
-0.157889
0
VERTEX
8
0
6
CONTINUOUS
62
252
70
192
10
0.028212
20
-0.130589
30
-0.145034
0
VERTEX
8
0
6
CONTINUOUS
62
252
70
192
10
0.028212
20
-0.145034
30
-0.130589
0
VERTEX
8
0
6
CONTINUOUS
62
252
70
192
10
0.028212
20
-0.157889
30
-0.114713
0
VERTEX
8
0
6
CONTINUOUS
62
252
70
192
10
0.028212
20
-0.169015
30
-0.097581
0
VERTEX
8
0
6
CONTINUOUS
62
252
70
192
10
0.028212
20
-0.178289
30
-0.079379
0
VERTEX
8
0
6
CONTINUOUS
62
252
70
192
10
0.028212
20
-0.185610
30
-0.060308
0
VERTEX
8
0
6
CONTINUOUS
62
252
70
192
10
0.028212
20
-0.190897
30
-0.040576
0
VERTEX
8
0
6
CONTINUOUS
62
252
70
192
10
0.028212
20
-0.194093
30
-0.020400
0
VERTEX
8
0
6
CONTINUOUS
62
252
70
192
10
0.028212
20
-0.195162
30
0.000000
0
VERTEX
8
0
6
CONTINUOUS
62
252
70
192
10
0.028212
20
-0.194093
30
0.020400
0
VERTEX
8
0
6
CONTINUOUS
62
252
70
192
10
0.028212
20
-0.190897
30
0.040576
0
VERTEX
8
0
6
CONTINUOUS
62
252
70
192
10
0.028212
20
-0.185610
30
0.060308
0
VERTEX
8
0
6
CONTINUOUS
62
252
70
192
10
0.028212
20
-0.178289
30
0.079379
0
VERTEX
8
0
6
CONTINUOUS
62
252
70
192
10
0.028212
20
-0.169015
30
0.097581
0
VERTEX
8
0
6
CONTINUOUS
62
252
70
192
10
0.028212
20
-0.157889
30
0.114713
0
VERTEX
8
0
6
CONTINUOUS
62
252
70
192
10
0.028212
20
-0.145034
30
0.130589
0
VERTEX
8
0
6
CONTINUOUS
62
252
70
192
10
0.028212
20
-0.130589
30
0.145034
0
VERTEX
8
0
6
CONTINUOUS
62
252
70
192
10
0.028212
20
-0.114713
30
0.157889
0
VERTEX
8
0
6
CONTINUOUS
62
252
70
192
10
0.028212
20
-0.097581
30
0.169015
0
VERTEX
8
0
6
CONTINUOUS
62
252
70
192
10
0.028212
20
-0.079379
30
0.178289
0
VERTEX
8
0
6
CONTINUOUS
62
252
70
192
10
0.028212
20
-0.060308
30
0.185610
0
VERTEX
8
0
6
CONTINUOUS
62
252
70
192
10
0.028212
20
-0.040576
30
0.190897
0
VERTEX
8
0
6
CONTINUOUS
62
252
70
192
10
0.028212
20
-0.020400
30
0.194093
0
VERTEX
8
0
6
CONTINUOUS
62
252
70
192
10
0.000000
20
0.000000
30
-0.166950
0
VERTEX
8
0
6
CONTINUOUS
62
252
70
192
10
-0.000000
20
0.017451
30
-0.166035
0
VERTEX
8
0
6
CONTINUOUS
62
252
70
192
10
0.000000
20
0.034711
30
-0.163302
0
VERTEX
8
0
6
CONTINUOUS
62
252
70
192
10
0.000000
20
0.051590
30
-0.158779
0
VERTEX
8
0
6
CONTINUOUS
62
252
70
192
10
0.000000
20
0.067905
30
-0.152516
0
VERTEX
8
0
6
CONTINUOUS
62
252
70
192
10
0.000000
20
0.083475
30
-0.144583
0
VERTEX
8
0
6
CONTINUOUS
62
252
70
192
10
0.000000
20
0.098131
30
-0.135065
0
VERTEX
8
0
6
CONTINUOUS
62
252
70
192
10
0.000000
20
0.111711
30
-0.124068
0
VERTEX
8
0
6
CONTINUOUS
62
252
70
192
10
0.000000
20
0.124068
30
-0.111711
0
VERTEX
8
0
6
CONTINUOUS
62
252
70
192
10
0.000000
20
0.135065
30
-0.098131
0
VERTEX
8
0
6
CONTINUOUS
62
252
70
192
10
0.000000
20
0.144583
30
-0.083475
0
VERTEX
8
0
6
CONTINUOUS
62
252
70
192
10
0.000000
20
0.152516
30
-0.067905
0
VERTEX
8
0
6
CONTINUOUS
62
252
70
192
10
0.000000
20
0.158779
30
-0.051590
0
VERTEX
8
0
6
CONTINUOUS
62
252
70
192
10
0.000000
20
0.163302
30
-0.034711
0
VERTEX
8
0
6
CONTINUOUS
62
252
70
192
10
0.000000
20
0.166035
30
-0.017451
0
VERTEX
8
0
6
CONTINUOUS
62
252
70
192
10
0.000000
20
0.166950
30
0.000000
0
VERTEX
8
0
6
CONTINUOUS
62
252
70
192
10
0.000000
20
0.166035
30
0.017451
0
VERTEX
8
0
6
CONTINUOUS
62
252
70
192
10
0.000000
20
0.163302
30
0.034711
0
VERTEX
8
0
6
CONTINUOUS
62
252
70
192
10
0.000000
20
0.158779
30
0.051590
0
VERTEX
8
0
6
CONTINUOUS
62
252
70
192
10
0.000000
20
0.152516
30
0.067905
0
VERTEX
8
0
6
CONTINUOUS
62
252
70
192
10
0.000000
20
0.144583
30
0.083475
0
VERTEX
8
0
6
CONTINUOUS
62
252
70
192
10
0.000000
20
0.135065
30
0.098131
0
VERTEX
8
0
6
CONTINUOUS
62
252
70
192
10
0.000000
20
0.124068
30
0.111711
0
VERTEX
8
0
6
CONTINUOUS
62
252
70
192
10
0.000000
20
0.111711
30
0.124068
0
VERTEX
8
0
6
CONTINUOUS
62
252
70
192
10
0.000000
20
0.098131
30
0.135065
0
VERTEX
8
0
6
CONTINUOUS
62
252
70
192
10
0.000000
20
0.083475
30
0.144583
0
VERTEX
8
0
6
CONTINUOUS
62
252
70
192
10
0.000000
20
0.067905
30
0.152516
0
VERTEX
8
0
6
CONTINUOUS
62
252
70
192
10
0.000000
20
0.051590
30
0.158779
0
VERTEX
8
0
6
CONTINUOUS
62
252
70
192
10
0.000000
20
0.034711
30
0.163302
0
VERTEX
8
0
6
CONTINUOUS
62
252
70
192
10
0.000000
20
0.017451
30
0.166035
0
VERTEX
8
0
6
CONTINUOUS
62
252
70
192
10
0.000000
20
0.000000
30
0.166950
0
VERTEX
8
0
6
CONTINUOUS
62
252
70
192
10
0.000000
20
-0.017451
30
0.166035
0
VERTEX
8
0
6
CONTINUOUS
62
252
70
192
10
0.000000
20
-0.034711
30
0.163302
0
VERTEX
8
0
6
CONTINUOUS
62
252
70
192
10
0.000000
20
-0.051590
30
0.158779
0
VERTEX
8
0
6
CONTINUOUS
62
252
70
192
10
0.000000
20
-0.067905
30
0.152516
0
VERTEX
8
0
6
CONTINUOUS
62
252
70
192
10
0.000000
20
-0.083475
30
0.144583
0
VERTEX
8
0
6
CONTINUOUS
62
252
70
192
10
0.000000
20
-0.098131
30
0.135065
0
VERTEX
8
0
6
CONTINUOUS
62
252
70
192
10
0.000000
20
-0.111711
30
0.124068
0
VERTEX
8
0
6
CONTINUOUS
62
252
70
192
10
-0.000000
20
-0.124068
30
0.111711
0
VERTEX
8
0
6
CONTINUOUS
62
252
70
192
10
-0.000000
20
-0.135065
30
0.098131
0
VERTEX
8
0
6
CONTINUOUS
62
252
70
192
10
-0.000000
20
-0.144583
30
0.083475
0
VERTEX
8
0
6
CONTINUOUS
62
252
70
192
10
-0.000000
20
-0.152516
30
0.067905
0
VERTEX
8
0
6
CONTINUOUS
62
252
70
192
10
-0.000000
20
-0.158779
30
0.051590
0
VERTEX
8
0
6
CONTINUOUS
62
252
70
192
10
-0.000000
20
-0.163302
30
0.034711
0
VERTEX
8
0
6
CONTINUOUS
62
252
70
192
10
-0.000000
20
-0.166035
30
0.017451
0
VERTEX
8
0
6
CONTINUOUS
62
252
70
192
10
-0.000000
20
-0.166950
30
0.000000
0
VERTEX
8
0
6
CONTINUOUS
62
252
70
192
10
-0.000000
20
-0.166035
30
-0.017451
0
VERTEX
8
0
6
CONTINUOUS
62
252
70
192
10
-0.000000
20
-0.163302
30
-0.034711
0
VERTEX
8
0
6
CONTINUOUS
62
252
70
192
10
-0.000000
20
-0.158779
30
-0.051590
0
VERTEX
8
0
6
CONTINUOUS
62
252
70
192
10
-0.000000
20
-0.152516
30
-0.067905
0
VERTEX
8
0
6
CONTINUOUS
62
252
70
192
10
-0.000000
20
-0.144583
30
-0.083475
0
VERTEX
8
0
6
CONTINUOUS
62
252
70
192
10
-0.000000
20
-0.135065
30
-0.098131
0
VERTEX
8
0
6
CONTINUOUS
62
252
70
192
10
-0.000000
20
-0.124068
30
-0.111711
0
VERTEX
8
0
6
CONTINUOUS
62
252
70
192
10
-0.000000
20
-0.111711
30
-0.124068
0
VERTEX
8
0
6
CONTINUOUS
62
252
70
192
10
-0.000000
20
-0.098131
30
-0.135065
0
VERTEX
8
0
6
CONTINUOUS
62
252
70
192
10
-0.000000
20
-0.083475
30
-0.144583
0
VERTEX
8
0
6
CONTINUOUS
62
252
70
192
10
-0.000000
20
-0.067905
30
-0.152516
0
VERTEX
8
0
6
CONTINUOUS
62
252
70
192
10
-0.000000
20
-0.051590
30
-0.158779
0
VERTEX
8
0
6
CONTINUOUS
62
252
70
192
10
-0.000000
20
-0.034711
30
-0.163302
0
VERTEX
8
0
6
CONTINUOUS
62
252
70
192
10
-0.000000
20
-0.017451
30
-0.166035
0
VERTEX
8
0
6
CONTINUOUS
62
252
70
128
10
0.000000
20
0.000000
30
0.000000
71
2
72
90
73
1
0
VERTEX
8
0
6
CONTINUOUS
62
252
70
128
10
0.000000
20
0.000000
30
0.000000
71
1
72
90
73
91
0
VERTEX
8
0
6
CONTINUOUS
62
252
70
128
10
0.000000
20
0.000000
30
0.000000
71
1
72
91
73
60
0
VERTEX
8
0
6
CONTINUOUS
62
252
70
128
10
0.000000
20
0.000000
30
0.000000
71
60
72
91
73
92
0
VERTEX
8
0
6
CONTINUOUS
62
252
70
128
10
0.000000
20
0.000000
30
0.000000
71
60
72
92
73
59
0
VERTEX
8
0
6
CONTINUOUS
62
252
70
128
10
0.000000
20
0.000000
30
0.000000
71
59
72
92
73
93
0
VERTEX
8
0
6
CONTINUOUS
62
252
70
128
10
0.000000
20
0.000000
30
0.000000
71
59
72
93
73
58
0
VERTEX
8
0
6
CONTINUOUS
62
252
70
128
10
0.000000
20
0.000000
30
0.000000
71
58
72
93
73
94
0
VERTEX
8
0
6
CONTINUOUS
62
252
70
128
10
0.000000
20
0.000000
30
0.000000
71
58
72
94
73
57
0
VERTEX
8
0
6
CONTINUOUS
62
252
70
128
10
0.000000
20
0.000000
30
0.000000
71
57
72
94
73
95
0
VERTEX
8
0
6
CONTINUOUS
62
252
70
128
10
0.000000
20
0.000000
30
0.000000
71
57
72
95
73
56
0
VERTEX
8
0
6
CONTINUOUS
62
252
70
128
10
0.000000
20
0.000000
30
0.000000
71
56
72
95
73
96
0
VERTEX
8
0
6
CONTINUOUS
62
252
70
128
10
0.000000
20
0.000000
30
0.000000
71
56
72
96
73
55
0
VERTEX
8
0
6
CONTINUOUS
62
252
70
128
10
0.000000
20
0.000000
30
0.000000
71
55
72
96
73
97
0
VERTEX
8
0
6
CONTINUOUS
62
252
70
128
10
0.000000
20
0.000000
30
0.000000
71
55
72
97
73
54
0
VERTEX
8
0
6
CONTINUOUS
62
252
70
128
10
0.000000
20
0.000000
30
0.000000
71
54
72
97
73
98
0
VERTEX
8
0
6
CONTINUOUS
62
252
70
128
10
0.000000
20
0.000000
30
0.000000
71
54
72
98
73
53
0
VERTEX
8
0
6
CONTINUOUS
62
252
70
128
10
0.000000
20
0.000000
30
0.000000
71
53
72
98
73
99
0
VERTEX
8
0
6
CONTINUOUS
62
252
70
128
10
0.000000
20
0.000000
30
0.000000
71
53
72
99
73
52
0
VERTEX
8
0
6
CONTINUOUS
62
252
70
128
10
0.000000
20
0.000000
30
0.000000
71
52
72
99
73
100
0
VERTEX
8
0
6
CONTINUOUS
62
252
70
128
10
0.000000
20
0.000000
30
0.000000
71
52
72
100
73
51
0
VERTEX
8
0
6
CONTINUOUS
62
252
70
128
10
0.000000
20
0.000000
30
0.000000
71
51
72
100
73
101
0
VERTEX
8
0
6
CONTINUOUS
62
252
70
128
10
0.000000
20
0.000000
30
0.000000
71
51
72
101
73
50
0
VERTEX
8
0
6
CONTINUOUS
62
252
70
128
10
0.000000
20
0.000000
30
0.000000
71
50
72
101
73
102
0
VERTEX
8
0
6
CONTINUOUS
62
252
70
128
10
0.000000
20
0.000000
30
0.000000
71
50
72
102
73
103
0
VERTEX
8
0
6
CONTINUOUS
62
252
70
128
10
0.000000
20
0.000000
30
0.000000
71
90
72
2
73
89
0
VERTEX
8
0
6
CONTINUOUS
62
252
70
128
10
0.000000
20
0.000000
30
0.000000
71
89
72
2
73
3
0
VERTEX
8
0
6
CONTINUOUS
62
252
70
128
10
0.000000
20
0.000000
30
0.000000
71
89
72
3
73
88
0
VERTEX
8
0
6
CONTINUOUS
62
252
70
128
10
0.000000
20
0.000000
30
0.000000
71
88
72
3
73
4
0
VERTEX
8
0
6
CONTINUOUS
62
252
70
128
10
0.000000
20
0.000000
30
0.000000
71
88
72
4
73
87
0
VERTEX
8
0
6
CONTINUOUS
62
252
70
128
10
0.000000
20
0.000000
30
0.000000
71
87
72
4
73
5
0
VERTEX
8
0
6
CONTINUOUS
62
252
70
128
10
0.000000
20
0.000000
30
0.000000
71
87
72
5
73
86
0
VERTEX
8
0
6
CONTINUOUS
62
252
70
128
10
0.000000
20
0.000000
30
0.000000
71
86
72
5
73
6
0
VERTEX
8
0
6
CONTINUOUS
62
252
70
128
10
0.000000
20
0.000000
30
0.000000
71
86
72
6
73
85
0
VERTEX
8
0
6
CONTINUOUS
62
252
70
128
10
0.000000
20
0.000000
30
0.000000
71
85
72
6
73
7
0
VERTEX
8
0
6
CONTINUOUS
62
252
70
128
10
0.000000
20
0.000000
30
0.000000
71
85
72
7
73
84
0
VERTEX
8
0
6
CONTINUOUS
62
252
70
128
10
0.000000
20
0.000000
30
0.000000
71
84
72
7
73
8
0
VERTEX
8
0
6
CONTINUOUS
62
252
70
128
10
0.000000
20
0.000000
30
0.000000
71
84
72
8
73
83
0
VERTEX
8
0
6
CONTINUOUS
62
252
70
128
10
0.000000
20
0.000000
30
0.000000
71
83
72
8
73
9
0
VERTEX
8
0
6
CONTINUOUS
62
252
70
128
10
0.000000
20
0.000000
30
0.000000
71
83
72
9
73
82
0
VERTEX
8
0
6
CONTINUOUS
62
252
70
128
10
0.000000
20
0.000000
30
0.000000
71
82
72
9
73
10
0
VERTEX
8
0
6
CONTINUOUS
62
252
70
128
10
0.000000
20
0.000000
30
0.000000
71
82
72
10
73
81
0
VERTEX
8
0
6
CONTINUOUS
62
252
70
128
10
0.000000
20
0.000000
30
0.000000
71
81
72
10
73
11
0
VERTEX
8
0
6
CONTINUOUS
62
252
70
128
10
0.000000
20
0.000000
30
0.000000
71
81
72
11
73
80
0
VERTEX
8
0
6
CONTINUOUS
62
252
70
128
10
0.000000
20
0.000000
30
0.000000
71
80
72
11
73
12
0
VERTEX
8
0
6
CONTINUOUS
62
252
70
128
10
0.000000
20
0.000000
30
0.000000
71
80
72
12
73
79
0
VERTEX
8
0
6
CONTINUOUS
62
252
70
128
10
0.000000
20
0.000000
30
0.000000
71
79
72
12
73
13
0
VERTEX
8
0
6
CONTINUOUS
62
252
70
128
10
0.000000
20
0.000000
30
0.000000
71
79
72
13
73
78
0
VERTEX
8
0
6
CONTINUOUS
62
252
70
128
10
0.000000
20
0.000000
30
0.000000
71
78
72
13
73
14
0
VERTEX
8
0
6
CONTINUOUS
62
252
70
128
10
0.000000
20
0.000000
30
0.000000
71
78
72
14
73
77
0
VERTEX
8
0
6
CONTINUOUS
62
252
70
128
10
0.000000
20
0.000000
30
0.000000
71
77
72
14
73
15
0
VERTEX
8
0
6
CONTINUOUS
62
252
70
128
10
0.000000
20
0.000000
30
0.000000
71
77
72
15
73
76
0
VERTEX
8
0
6
CONTINUOUS
62
252
70
128
10
0.000000
20
0.000000
30
0.000000
71
76
72
15
73
16
0
VERTEX
8
0
6
CONTINUOUS
62
252
70
128
10
0.000000
20
0.000000
30
0.000000
71
76
72
16
73
75
0
VERTEX
8
0
6
CONTINUOUS
62
252
70
128
10
0.000000
20
0.000000
30
0.000000
71
75
72
16
73
17
0
VERTEX
8
0
6
CONTINUOUS
62
252
70
128
10
0.000000
20
0.000000
30
0.000000
71
75
72
17
73
74
0
VERTEX
8
0
6
CONTINUOUS
62
252
70
128
10
0.000000
20
0.000000
30
0.000000
71
74
72
17
73
18
0
VERTEX
8
0
6
CONTINUOUS
62
252
70
128
10
0.000000
20
0.000000
30
0.000000
71
74
72
18
73
73
0
VERTEX
8
0
6
CONTINUOUS
62
252
70
128
10
0.000000
20
0.000000
30
0.000000
71
73
72
18
73
19
0
VERTEX
8
0
6
CONTINUOUS
62
252
70
128
10
0.000000
20
0.000000
30
0.000000
71
73
72
19
73
72
0
VERTEX
8
0
6
CONTINUOUS
62
252
70
128
10
0.000000
20
0.000000
30
0.000000
71
72
72
19
73
20
0
VERTEX
8
0
6
CONTINUOUS
62
252
70
128
10
0.000000
20
0.000000
30
0.000000
71
72
72
20
73
71
0
VERTEX
8
0
6
CONTINUOUS
62
252
70
128
10
0.000000
20
0.000000
30
0.000000
71
71
72
20
73
21
0
VERTEX
8
0
6
CONTINUOUS
62
252
70
128
10
0.000000
20
0.000000
30
0.000000
71
71
72
21
73
70
0
VERTEX
8
0
6
CONTINUOUS
62
252
70
128
10
0.000000
20
0.000000
30
0.000000
71
70
72
21
73
22
0
VERTEX
8
0
6
CONTINUOUS
62
252
70
128
10
0.000000
20
0.000000
30
0.000000
71
70
72
22
73
69
0
VERTEX
8
0
6
CONTINUOUS
62
252
70
128
10
0.000000
20
0.000000
30
0.000000
71
69
72
22
73
23
0
VERTEX
8
0
6
CONTINUOUS
62
252
70
128
10
0.000000
20
0.000000
30
0.000000
71
69
72
23
73
68
0
VERTEX
8
0
6
CONTINUOUS
62
252
70
128
10
0.000000
20
0.000000
30
0.000000
71
68
72
23
73
24
0
VERTEX
8
0
6
CONTINUOUS
62
252
70
128
10
0.000000
20
0.000000
30
0.000000
71
68
72
24
73
67
0
VERTEX
8
0
6
CONTINUOUS
62
252
70
128
10
0.000000
20
0.000000
30
0.000000
71
67
72
24
73
25
0
VERTEX
8
0
6
CONTINUOUS
62
252
70
128
10
0.000000
20
0.000000
30
0.000000
71
67
72
25
73
66
0
VERTEX
8
0
6
CONTINUOUS
62
252
70
128
10
0.000000
20
0.000000
30
0.000000
71
66
72
25
73
26
0
VERTEX
8
0
6
CONTINUOUS
62
252
70
128
10
0.000000
20
0.000000
30
0.000000
71
66
72
26
73
65
0
VERTEX
8
0
6
CONTINUOUS
62
252
70
128
10
0.000000
20
0.000000
30
0.000000
71
65
72
26
73
27
0
VERTEX
8
0
6
CONTINUOUS
62
252
70
128
10
0.000000
20
0.000000
30
0.000000
71
65
72
27
73
64
0
VERTEX
8
0
6
CONTINUOUS
62
252
70
128
10
0.000000
20
0.000000
30
0.000000
71
64
72
27
73
28
0
VERTEX
8
0
6
CONTINUOUS
62
252
70
128
10
0.000000
20
0.000000
30
0.000000
71
64
72
28
73
63
0
VERTEX
8
0
6
CONTINUOUS
62
252
70
128
10
0.000000
20
0.000000
30
0.000000
71
63
72
28
73
29
0
VERTEX
8
0
6
CONTINUOUS
62
252
70
128
10
0.000000
20
0.000000
30
0.000000
71
63
72
29
73
62
0
VERTEX
8
0
6
CONTINUOUS
62
252
70
128
10
0.000000
20
0.000000
30
0.000000
71
62
72
29
73
30
0
VERTEX
8
0
6
CONTINUOUS
62
252
70
128
10
0.000000
20
0.000000
30
0.000000
71
62
72
30
73
61
0
VERTEX
8
0
6
CONTINUOUS
62
252
70
128
10
0.000000
20
0.000000
30
0.000000
71
61
72
30
73
31
0
VERTEX
8
0
6
CONTINUOUS
62
252
70
128
10
0.000000
20
0.000000
30
0.000000
71
61
72
31
73
32
0
VERTEX
8
0
6
CONTINUOUS
62
252
70
128
10
0.000000
20
0.000000
30
0.000000
71
33
72
119
73
32
0
VERTEX
8
0
6
CONTINUOUS
62
252
70
128
10
0.000000
20
0.000000
30
0.000000
71
32
72
119
73
120
0
VERTEX
8
0
6
CONTINUOUS
62
252
70
128
10
0.000000
20
0.000000
30
0.000000
71
32
72
120
73
61
0
VERTEX
8
0
6
CONTINUOUS
62
252
70
128
10
0.000000
20
0.000000
30
0.000000
71
33
72
34
73
119
0
VERTEX
8
0
6
CONTINUOUS
62
252
70
128
10
0.000000
20
0.000000
30
0.000000
71
119
72
34
73
118
0
VERTEX
8
0
6
CONTINUOUS
62
252
70
128
10
0.000000
20
0.000000
30
0.000000
71
118
72
34
73
35
0
VERTEX
8
0
6
CONTINUOUS
62
252
70
128
10
0.000000
20
0.000000
30
0.000000
71
118
72
35
73
117
0
VERTEX
8
0
6
CONTINUOUS
62
252
70
128
10
0.000000
20
0.000000
30
0.000000
71
117
72
35
73
116
0
VERTEX
8
0
6
CONTINUOUS
62
252
70
128
10
0.000000
20
0.000000
30
0.000000
71
116
72
35
73
36
0
VERTEX
8
0
6
CONTINUOUS
62
252
70
128
10
0.000000
20
0.000000
30
0.000000
71
116
72
36
73
37
0
VERTEX
8
0
6
CONTINUOUS
62
252
70
128
10
0.000000
20
0.000000
30
0.000000
71
116
72
37
73
115
0
VERTEX
8
0
6
CONTINUOUS
62
252
70
128
10
0.000000
20
0.000000
30
0.000000
71
115
72
37
73
38
0
VERTEX
8
0
6
CONTINUOUS
62
252
70
128
10
0.000000
20
0.000000
30
0.000000
71
115
72
38
73
114
0
VERTEX
8
0
6
CONTINUOUS
62
252
70
128
10
0.000000
20
0.000000
30
0.000000
71
114
72
38
73
39
0
VERTEX
8
0
6
CONTINUOUS
62
252
70
128
10
0.000000
20
0.000000
30
0.000000
71
114
72
39
73
113
0
VERTEX
8
0
6
CONTINUOUS
62
252
70
128
10
0.000000
20
0.000000
30
0.000000
71
113
72
39
73
40
0
VERTEX
8
0
6
CONTINUOUS
62
252
70
128
10
0.000000
20
0.000000
30
0.000000
71
113
72
40
73
112
0
VERTEX
8
0
6
CONTINUOUS
62
252
70
128
10
0.000000
20
0.000000
30
0.000000
71
112
72
40
73
41
0
VERTEX
8
0
6
CONTINUOUS
62
252
70
128
10
0.000000
20
0.000000
30
0.000000
71
112
72
41
73
111
0
VERTEX
8
0
6
CONTINUOUS
62
252
70
128
10
0.000000
20
0.000000
30
0.000000
71
111
72
41
73
42
0
VERTEX
8
0
6
CONTINUOUS
62
252
70
128
10
0.000000
20
0.000000
30
0.000000
71
111
72
42
73
110
0
VERTEX
8
0
6
CONTINUOUS
62
252
70
128
10
0.000000
20
0.000000
30
0.000000
71
110
72
42
73
43
0
VERTEX
8
0
6
CONTINUOUS
62
252
70
128
10
0.000000
20
0.000000
30
0.000000
71
110
72
43
73
109
0
VERTEX
8
0
6
CONTINUOUS
62
252
70
128
10
0.000000
20
0.000000
30
0.000000
71
109
72
43
73
44
0
VERTEX
8
0
6
CONTINUOUS
62
252
70
128
10
0.000000
20
0.000000
30
0.000000
71
109
72
44
73
108
0
VERTEX
8
0
6
CONTINUOUS
62
252
70
128
10
0.000000
20
0.000000
30
0.000000
71
108
72
44
73
107
0
VERTEX
8
0
6
CONTINUOUS
62
252
70
128
10
0.000000
20
0.000000
30
0.000000
71
107
72
44
73
45
0
VERTEX
8
0
6
CONTINUOUS
62
252
70
128
10
0.000000
20
0.000000
30
0.000000
71
107
72
45
73
46
0
VERTEX
8
0
6
CONTINUOUS
62
252
70
128
10
0.000000
20
0.000000
30
0.000000
71
107
72
46
73
106
0
VERTEX
8
0
6
CONTINUOUS
62
252
70
128
10
0.000000
20
0.000000
30
0.000000
71
106
72
46
73
47
0
VERTEX
8
0
6
CONTINUOUS
62
252
70
128
10
0.000000
20
0.000000
30
0.000000
71
106
72
47
73
105
0
VERTEX
8
0
6
CONTINUOUS
62
252
70
128
10
0.000000
20
0.000000
30
0.000000
71
105
72
47
73
104
0
VERTEX
8
0
6
CONTINUOUS
62
252
70
128
10
0.000000
20
0.000000
30
0.000000
71
104
72
47
73
48
0
VERTEX
8
0
6
CONTINUOUS
62
252
70
128
10
0.000000
20
0.000000
30
0.000000
71
104
72
48
73
49
0
VERTEX
8
0
6
CONTINUOUS
62
252
70
128
10
0.000000
20
0.000000
30
0.000000
71
104
72
49
73
103
0
VERTEX
8
0
6
CONTINUOUS
62
252
70
128
10
0.000000
20
0.000000
30
0.000000
71
103
72
49
73
50
0
SEQEND
0
POLYLINE
66
1
8
0
6
CONTINUOUS
62
252
70
64
75
0
10
0.000000
20
0.000000
30
0.000000
0
VERTEX
8
0
6
CONTINUOUS
62
252
70
192
10
0.392400
20
0.000000
30
-0.202500
0
VERTEX
8
0
6
CONTINUOUS
62
252
70
192
10
0.392400
20
-0.021167
30
-0.201391
0
VERTEX
8
0
6
CONTINUOUS
62
252
70
192
10
0.392400
20
-0.042102
30
-0.198075
0
VERTEX
8
0
6
CONTINUOUS
62
252
70
192
10
0.392400
20
-0.062576
30
-0.192589
0
VERTEX
8
0
6
CONTINUOUS
62
252
70
192
10
0.392400
20
-0.082364
30
-0.184993
0
VERTEX
8
0
6
CONTINUOUS
62
252
70
192
10
0.392400
20
-0.101250
30
-0.175370
0
VERTEX
8
0
6
CONTINUOUS
62
252
70
192
10
0.392400
20
-0.119027
30
-0.163826
0
VERTEX
8
0
6
CONTINUOUS
62
252
70
192
10
0.392400
20
-0.135499
30
-0.150487
0
VERTEX
8
0
6
CONTINUOUS
62
252
70
192
10
0.392400
20
-0.150487
30
-0.135499
0
VERTEX
8
0
6
CONTINUOUS
62
252
70
192
10
0.392400
20
-0.163826
30
-0.119027
0
VERTEX
8
0
6
CONTINUOUS
62
252
70
192
10
0.392400
20
-0.175370
30
-0.101250
0
VERTEX
8
0
6
CONTINUOUS
62
252
70
192
10
0.392400
20
-0.184993
30
-0.082364
0
VERTEX
8
0
6
CONTINUOUS
62
252
70
192
10
0.392400
20
-0.192589
30
-0.062576
0
VERTEX
8
0
6
CONTINUOUS
62
252
70
192
10
0.392400
20
-0.198075
30
-0.042102
0
VERTEX
8
0
6
CONTINUOUS
62
252
70
192
10
0.392400
20
-0.201391
30
-0.021167
0
VERTEX
8
0
6
CONTINUOUS
62
252
70
192
10
0.392400
20
-0.202500
30
0.000000
0
VERTEX
8
0
6
CONTINUOUS
62
252
70
192
10
0.392400
20
-0.201391
30
0.021167
0
VERTEX
8
0
6
CONTINUOUS
62
252
70
192
10
0.392400
20
-0.198075
30
0.042102
0
VERTEX
8
0
6
CONTINUOUS
62
252
70
192
10
0.392400
20
-0.192589
30
0.062576
0
VERTEX
8
0
6
CONTINUOUS
62
252
70
192
10
0.392400
20
-0.184993
30
0.082364
0
VERTEX
8
0
6
CONTINUOUS
62
252
70
192
10
0.392400
20
-0.175370
30
0.101250
0
VERTEX
8
0
6
CONTINUOUS
62
252
70
192
10
0.392400
20
-0.163826
30
0.119027
0
VERTEX
8
0
6
CONTINUOUS
62
252
70
192
10
0.392400
20
-0.150487
30
0.135499
0
VERTEX
8
0
6
CONTINUOUS
62
252
70
192
10
0.392400
20
-0.135499
30
0.150487
0
VERTEX
8
0
6
CONTINUOUS
62
252
70
192
10
0.392400
20
-0.119027
30
0.163826
0
VERTEX
8
0
6
CONTINUOUS
62
252
70
192
10
0.392400
20
-0.101250
30
0.175370
0
VERTEX
8
0
6
CONTINUOUS
62
252
70
192
10
0.392400
20
-0.082364
30
0.184993
0
VERTEX
8
0
6
CONTINUOUS
62
252
70
192
10
0.392400
20
-0.062576
30
0.192589
0
VERTEX
8
0
6
CONTINUOUS
62
252
70
192
10
0.392400
20
-0.042102
30
0.198075
0
VERTEX
8
0
6
CONTINUOUS
62
252
70
192
10
0.392400
20
-0.021167
30
0.201391
0
VERTEX
8
0
6
CONTINUOUS
62
252
70
192
10
0.392400
20
0.000000
30
0.202500
0
VERTEX
8
0
6
CONTINUOUS
62
252
70
192
10
0.392400
20
0.021167
30
0.201391
0
VERTEX
8
0
6
CONTINUOUS
62
252
70
192
10
0.392400
20
0.042102
30
0.198075
0
VERTEX
8
0
6
CONTINUOUS
62
252
70
192
10
0.392400
20
0.062576
30
0.192589
0
VERTEX
8
0
6
CONTINUOUS
62
252
70
192
10
0.392400
20
0.082364
30
0.184993
0
VERTEX
8
0
6
CONTINUOUS
62
252
70
192
10
0.392400
20
0.101250
30
0.175370
0
VERTEX
8
0
6
CONTINUOUS
62
252
70
192
10
0.392400
20
0.119027
30
0.163826
0
VERTEX
8
0
6
CONTINUOUS
62
252
70
192
10
0.392400
20
0.135499
30
0.150487
0
VERTEX
8
0
6
CONTINUOUS
62
252
70
192
10
0.392400
20
0.150487
30
0.135499
0
VERTEX
8
0
6
CONTINUOUS
62
252
70
192
10
0.392400
20
0.163826
30
0.119027
0
VERTEX
8
0
6
CONTINUOUS
62
252
70
192
10
0.392400
20
0.175370
30
0.101250
0
VERTEX
8
0
6
CONTINUOUS
62
252
70
192
10
0.392400
20
0.184993
30
0.082364
0
VERTEX
8
0
6
CONTINUOUS
62
252
70
192
10
0.392400
20
0.192589
30
0.062576
0
VERTEX
8
0
6
CONTINUOUS
62
252
70
192
10
0.392400
20
0.198075
30
0.042102
0
VERTEX
8
0
6
CONTINUOUS
62
252
70
192
10
0.392400
20
0.201391
30
0.021167
0
VERTEX
8
0
6
CONTINUOUS
62
252
70
192
10
0.392400
20
0.202500
30
-0.000000
0
VERTEX
8
0
6
CONTINUOUS
62
252
70
192
10
0.392400
20
0.201391
30
-0.021167
0
VERTEX
8
0
6
CONTINUOUS
62
252
70
192
10
0.392400
20
0.198075
30
-0.042102
0
VERTEX
8
0
6
CONTINUOUS
62
252
70
192
10
0.392400
20
0.192589
30
-0.062576
0
VERTEX
8
0
6
CONTINUOUS
62
252
70
192
10
0.392400
20
0.184993
30
-0.082364
0
VERTEX
8
0
6
CONTINUOUS
62
252
70
192
10
0.392400
20
0.175370
30
-0.101250
0
VERTEX
8
0
6
CONTINUOUS
62
252
70
192
10
0.392400
20
0.163826
30
-0.119027
0
VERTEX
8
0
6
CONTINUOUS
62
252
70
192
10
0.392400
20
0.150487
30
-0.135499
0
VERTEX
8
0
6
CONTINUOUS
62
252
70
192
10
0.392400
20
0.135499
30
-0.150487
0
VERTEX
8
0
6
CONTINUOUS
62
252
70
192
10
0.392400
20
0.119027
30
-0.163826
0
VERTEX
8
0
6
CONTINUOUS
62
252
70
192
10
0.392400
20
0.101250
30
-0.175370
0
VERTEX
8
0
6
CONTINUOUS
62
252
70
192
10
0.392400
20
0.082364
30
-0.184993
0
VERTEX
8
0
6
CONTINUOUS
62
252
70
192
10
0.392400
20
0.062576
30
-0.192589
0
VERTEX
8
0
6
CONTINUOUS
62
252
70
192
10
0.392400
20
0.042102
30
-0.198075
0
VERTEX
8
0
6
CONTINUOUS
62
252
70
192
10
0.392400
20
0.021167
30
-0.201391
0
VERTEX
8
0
6
CONTINUOUS
62
252
70
192
10
0.263900
20
0.000000
30
-0.202500
0
VERTEX
8
0
6
CONTINUOUS
62
252
70
192
10
0.263900
20
0.021167
30
-0.201391
0
VERTEX
8
0
6
CONTINUOUS
62
252
70
192
10
0.263900
20
0.042102
30
-0.198075
0
VERTEX
8
0
6
CONTINUOUS
62
252
70
192
10
0.263900
20
0.062576
30
-0.192589
0
VERTEX
8
0
6
CONTINUOUS
62
252
70
192
10
0.263900
20
0.082364
30
-0.184993
0
VERTEX
8
0
6
CONTINUOUS
62
252
70
192
10
0.263900
20
0.101250
30
-0.175370
0
VERTEX
8
0
6
CONTINUOUS
62
252
70
192
10
0.263900
20
0.119027
30
-0.163826
0
VERTEX
8
0
6
CONTINUOUS
62
252
70
192
10
0.263900
20
0.135499
30
-0.150487
0
VERTEX
8
0
6
CONTINUOUS
62
252
70
192
10
0.263900
20
0.150487
30
-0.135499
0
VERTEX
8
0
6
CONTINUOUS
62
252
70
192
10
0.263900
20
0.163826
30
-0.119027
0
VERTEX
8
0
6
CONTINUOUS
62
252
70
192
10
0.263900
20
0.175370
30
-0.101250
0
VERTEX
8
0
6
CONTINUOUS
62
252
70
192
10
0.263900
20
0.184993
30
-0.082364
0
VERTEX
8
0
6
CONTINUOUS
62
252
70
192
10
0.263900
20
0.192589
30
-0.062576
0
VERTEX
8
0
6
CONTINUOUS
62
252
70
192
10
0.263900
20
0.198075
30
-0.042102
0
VERTEX
8
0
6
CONTINUOUS
62
252
70
192
10
0.263900
20
0.201391
30
-0.021167
0
VERTEX
8
0
6
CONTINUOUS
62
252
70
192
10
0.263900
20
0.202500
30
-0.000000
0
VERTEX
8
0
6
CONTINUOUS
62
252
70
192
10
0.263900
20
0.201391
30
0.021167
0
VERTEX
8
0
6
CONTINUOUS
62
252
70
192
10
0.263900
20
0.198075
30
0.042102
0
VERTEX
8
0
6
CONTINUOUS
62
252
70
192
10
0.263900
20
0.192589
30
0.062576
0
VERTEX
8
0
6
CONTINUOUS
62
252
70
192
10
0.263900
20
0.184993
30
0.082364
0
VERTEX
8
0
6
CONTINUOUS
62
252
70
192
10
0.263900
20
0.175370
30
0.101250
0
VERTEX
8
0
6
CONTINUOUS
62
252
70
192
10
0.263900
20
0.163826
30
0.119027
0
VERTEX
8
0
6
CONTINUOUS
62
252
70
192
10
0.263900
20
0.150487
30
0.135499
0
VERTEX
8
0
6
CONTINUOUS
62
252
70
192
10
0.263900
20
0.135499
30
0.150487
0
VERTEX
8
0
6
CONTINUOUS
62
252
70
192
10
0.263900
20
0.119027
30
0.163826
0
VERTEX
8
0
6
CONTINUOUS
62
252
70
192
10
0.263900
20
0.101250
30
0.175370
0
VERTEX
8
0
6
CONTINUOUS
62
252
70
192
10
0.263900
20
0.082364
30
0.184993
0
VERTEX
8
0
6
CONTINUOUS
62
252
70
192
10
0.263900
20
0.062576
30
0.192589
0
VERTEX
8
0
6
CONTINUOUS
62
252
70
192
10
0.263900
20
0.042102
30
0.198075
0
VERTEX
8
0
6
CONTINUOUS
62
252
70
192
10
0.263900
20
0.021167
30
0.201391
0
VERTEX
8
0
6
CONTINUOUS
62
252
70
192
10
0.263900
20
0.000000
30
0.202500
0
VERTEX
8
0
6
CONTINUOUS
62
252
70
192
10
0.263900
20
-0.021167
30
0.201391
0
VERTEX
8
0
6
CONTINUOUS
62
252
70
192
10
0.263900
20
-0.042102
30
0.198075
0
VERTEX
8
0
6
CONTINUOUS
62
252
70
192
10
0.263900
20
-0.062576
30
0.192589
0
VERTEX
8
0
6
CONTINUOUS
62
252
70
192
10
0.263900
20
-0.082364
30
0.184993
0
VERTEX
8
0
6
CONTINUOUS
62
252
70
192
10
0.263900
20
-0.101250
30
0.175370
0
VERTEX
8
0
6
CONTINUOUS
62
252
70
192
10
0.263900
20
-0.119027
30
0.163826
0
VERTEX
8
0
6
CONTINUOUS
62
252
70
192
10
0.263900
20
-0.135499
30
0.150487
0
VERTEX
8
0
6
CONTINUOUS
62
252
70
192
10
0.263900
20
-0.150487
30
0.135499
0
VERTEX
8
0
6
CONTINUOUS
62
252
70
192
10
0.263900
20
-0.163826
30
0.119027
0
VERTEX
8
0
6
CONTINUOUS
62
252
70
192
10
0.263900
20
-0.175370
30
0.101250
0
VERTEX
8
0
6
CONTINUOUS
62
252
70
192
10
0.263900
20
-0.184993
30
0.082364
0
VERTEX
8
0
6
CONTINUOUS
62
252
70
192
10
0.263900
20
-0.192589
30
0.062576
0
VERTEX
8
0
6
CONTINUOUS
62
252
70
192
10
0.263900
20
-0.198075
30
0.042102
0
VERTEX
8
0
6
CONTINUOUS
62
252
70
192
10
0.263900
20
-0.201391
30
0.021167
0
VERTEX
8
0
6
CONTINUOUS
62
252
70
192
10
0.263900
20
-0.202500
30
0.000000
0
VERTEX
8
0
6
CONTINUOUS
62
252
70
192
10
0.263900
20
-0.201391
30
-0.021167
0
VERTEX
8
0
6
CONTINUOUS
62
252
70
192
10
0.263900
20
-0.198075
30
-0.042102
0
VERTEX
8
0
6
CONTINUOUS
62
252
70
192
10
0.263900
20
-0.192589
30
-0.062576
0
VERTEX
8
0
6
CONTINUOUS
62
252
70
192
10
0.263900
20
-0.184993
30
-0.082364
0
VERTEX
8
0
6
CONTINUOUS
62
252
70
192
10
0.263900
20
-0.175370
30
-0.101250
0
VERTEX
8
0
6
CONTINUOUS
62
252
70
192
10
0.263900
20
-0.163826
30
-0.119027
0
VERTEX
8
0
6
CONTINUOUS
62
252
70
192
10
0.263900
20
-0.150487
30
-0.135499
0
VERTEX
8
0
6
CONTINUOUS
62
252
70
192
10
0.263900
20
-0.135499
30
-0.150487
0
VERTEX
8
0
6
CONTINUOUS
62
252
70
192
10
0.263900
20
-0.119027
30
-0.163826
0
VERTEX
8
0
6
CONTINUOUS
62
252
70
192
10
0.263900
20
-0.101250
30
-0.175370
0
VERTEX
8
0
6
CONTINUOUS
62
252
70
192
10
0.263900
20
-0.082364
30
-0.184993
0
VERTEX
8
0
6
CONTINUOUS
62
252
70
192
10
0.263900
20
-0.062576
30
-0.192589
0
VERTEX
8
0
6
CONTINUOUS
62
252
70
192
10
0.263900
20
-0.042102
30
-0.198075
0
VERTEX
8
0
6
CONTINUOUS
62
252
70
192
10
0.263900
20
-0.021167
30
-0.201391
0
VERTEX
8
0
6
CONTINUOUS
62
252
70
128
10
0.000000
20
0.000000
30
0.000000
71
2
72
120
73
1
0
VERTEX
8
0
6
CONTINUOUS
62
252
70
128
10
0.000000
20
0.000000
30
0.000000
71
1
72
120
73
61
0
VERTEX
8
0
6
CONTINUOUS
62
252
70
128
10
0.000000
20
0.000000
30
0.000000
71
1
72
61
73
60
0
VERTEX
8
0
6
CONTINUOUS
62
252
70
128
10
0.000000
20
0.000000
30
0.000000
71
60
72
61
73
62
0
VERTEX
8
0
6
CONTINUOUS
62
252
70
128
10
0.000000
20
0.000000
30
0.000000
71
60
72
62
73
59
0
VERTEX
8
0
6
CONTINUOUS
62
252
70
128
10
0.000000
20
0.000000
30
0.000000
71
59
72
62
73
63
0
VERTEX
8
0
6
CONTINUOUS
62
252
70
128
10
0.000000
20
0.000000
30
0.000000
71
59
72
63
73
58
0
VERTEX
8
0
6
CONTINUOUS
62
252
70
128
10
0.000000
20
0.000000
30
0.000000
71
58
72
63
73
64
0
VERTEX
8
0
6
CONTINUOUS
62
252
70
128
10
0.000000
20
0.000000
30
0.000000
71
58
72
64
73
65
0
VERTEX
8
0
6
CONTINUOUS
62
252
70
128
10
0.000000
20
0.000000
30
0.000000
71
120
72
2
73
119
0
VERTEX
8
0
6
CONTINUOUS
62
252
70
128
10
0.000000
20
0.000000
30
0.000000
71
119
72
2
73
3
0
VERTEX
8
0
6
CONTINUOUS
62
252
70
128
10
0.000000
20
0.000000
30
0.000000
71
119
72
3
73
118
0
VERTEX
8
0
6
CONTINUOUS
62
252
70
128
10
0.000000
20
0.000000
30
0.000000
71
118
72
3
73
4
0
VERTEX
8
0
6
CONTINUOUS
62
252
70
128
10
0.000000
20
0.000000
30
0.000000
71
118
72
4
73
5
0
VERTEX
8
0
6
CONTINUOUS
62
252
70
128
10
0.000000
20
0.000000
30
0.000000
71
118
72
5
73
117
0
VERTEX
8
0
6
CONTINUOUS
62
252
70
128
10
0.000000
20
0.000000
30
0.000000
71
117
72
5
73
6
0
VERTEX
8
0
6
CONTINUOUS
62
252
70
128
10
0.000000
20
0.000000
30
0.000000
71
117
72
6
73
116
0
VERTEX
8
0
6
CONTINUOUS
62
252
70
128
10
0.000000
20
0.000000
30
0.000000
71
116
72
6
73
7
0
VERTEX
8
0
6
CONTINUOUS
62
252
70
128
10
0.000000
20
0.000000
30
0.000000
71
116
72
7
73
115
0
VERTEX
8
0
6
CONTINUOUS
62
252
70
128
10
0.000000
20
0.000000
30
0.000000
71
115
72
7
73
114
0
VERTEX
8
0
6
CONTINUOUS
62
252
70
128
10
0.000000
20
0.000000
30
0.000000
71
114
72
7
73
8
0
VERTEX
8
0
6
CONTINUOUS
62
252
70
128
10
0.000000
20
0.000000
30
0.000000
71
114
72
8
73
113
0
VERTEX
8
0
6
CONTINUOUS
62
252
70
128
10
0.000000
20
0.000000
30
0.000000
71
113
72
8
73
9
0
VERTEX
8
0
6
CONTINUOUS
62
252
70
128
10
0.000000
20
0.000000
30
0.000000
71
113
72
9
73
112
0
VERTEX
8
0
6
CONTINUOUS
62
252
70
128
10
0.000000
20
0.000000
30
0.000000
71
112
72
9
73
10
0
VERTEX
8
0
6
CONTINUOUS
62
252
70
128
10
0.000000
20
0.000000
30
0.000000
71
112
72
10
73
111
0
VERTEX
8
0
6
CONTINUOUS
62
252
70
128
10
0.000000
20
0.000000
30
0.000000
71
111
72
10
73
11
0
VERTEX
8
0
6
CONTINUOUS
62
252
70
128
10
0.000000
20
0.000000
30
0.000000
71
111
72
11
73
110
0
VERTEX
8
0
6
CONTINUOUS
62
252
70
128
10
0.000000
20
0.000000
30
0.000000
71
110
72
11
73
12
0
VERTEX
8
0
6
CONTINUOUS
62
252
70
128
10
0.000000
20
0.000000
30
0.000000
71
110
72
12
73
109
0
VERTEX
8
0
6
CONTINUOUS
62
252
70
128
10
0.000000
20
0.000000
30
0.000000
71
109
72
12
73
13
0
VERTEX
8
0
6
CONTINUOUS
62
252
70
128
10
0.000000
20
0.000000
30
0.000000
71
109
72
13
73
108
0
VERTEX
8
0
6
CONTINUOUS
62
252
70
128
10
0.000000
20
0.000000
30
0.000000
71
108
72
13
73
14
0
VERTEX
8
0
6
CONTINUOUS
62
252
70
128
10
0.000000
20
0.000000
30
0.000000
71
108
72
14
73
107
0
VERTEX
8
0
6
CONTINUOUS
62
252
70
128
10
0.000000
20
0.000000
30
0.000000
71
107
72
14
73
15
0
VERTEX
8
0
6
CONTINUOUS
62
252
70
128
10
0.000000
20
0.000000
30
0.000000
71
107
72
15
73
106
0
VERTEX
8
0
6
CONTINUOUS
62
252
70
128
10
0.000000
20
0.000000
30
0.000000
71
106
72
15
73
16
0
VERTEX
8
0
6
CONTINUOUS
62
252
70
128
10
0.000000
20
0.000000
30
0.000000
71
106
72
16
73
105
0
VERTEX
8
0
6
CONTINUOUS
62
252
70
128
10
0.000000
20
0.000000
30
0.000000
71
105
72
16
73
17
0
VERTEX
8
0
6
CONTINUOUS
62
252
70
128
10
0.000000
20
0.000000
30
0.000000
71
105
72
17
73
104
0
VERTEX
8
0
6
CONTINUOUS
62
252
70
128
10
0.000000
20
0.000000
30
0.000000
71
104
72
17
73
18
0
VERTEX
8
0
6
CONTINUOUS
62
252
70
128
10
0.000000
20
0.000000
30
0.000000
71
104
72
18
73
103
0
VERTEX
8
0
6
CONTINUOUS
62
252
70
128
10
0.000000
20
0.000000
30
0.000000
71
103
72
18
73
19
0
VERTEX
8
0
6
CONTINUOUS
62
252
70
128
10
0.000000
20
0.000000
30
0.000000
71
103
72
19
73
102
0
VERTEX
8
0
6
CONTINUOUS
62
252
70
128
10
0.000000
20
0.000000
30
0.000000
71
102
72
19
73
20
0
VERTEX
8
0
6
CONTINUOUS
62
252
70
128
10
0.000000
20
0.000000
30
0.000000
71
102
72
20
73
101
0
VERTEX
8
0
6
CONTINUOUS
62
252
70
128
10
0.000000
20
0.000000
30
0.000000
71
101
72
20
73
21
0
VERTEX
8
0
6
CONTINUOUS
62
252
70
128
10
0.000000
20
0.000000
30
0.000000
71
101
72
21
73
22
0
VERTEX
8
0
6
CONTINUOUS
62
252
70
128
10
0.000000
20
0.000000
30
0.000000
71
101
72
22
73
100
0
VERTEX
8
0
6
CONTINUOUS
62
252
70
128
10
0.000000
20
0.000000
30
0.000000
71
100
72
22
73
23
0
VERTEX
8
0
6
CONTINUOUS
62
252
70
128
10
0.000000
20
0.000000
30
0.000000
71
100
72
23
73
99
0
VERTEX
8
0
6
CONTINUOUS
62
252
70
128
10
0.000000
20
0.000000
30
0.000000
71
99
72
23
73
98
0
VERTEX
8
0
6
CONTINUOUS
62
252
70
128
10
0.000000
20
0.000000
30
0.000000
71
98
72
23
73
24
0
VERTEX
8
0
6
CONTINUOUS
62
252
70
128
10
0.000000
20
0.000000
30
0.000000
71
98
72
24
73
97
0
VERTEX
8
0
6
CONTINUOUS
62
252
70
128
10
0.000000
20
0.000000
30
0.000000
71
97
72
24
73
25
0
VERTEX
8
0
6
CONTINUOUS
62
252
70
128
10
0.000000
20
0.000000
30
0.000000
71
97
72
25
73
96
0
VERTEX
8
0
6
CONTINUOUS
62
252
70
128
10
0.000000
20
0.000000
30
0.000000
71
96
72
25
73
26
0
VERTEX
8
0
6
CONTINUOUS
62
252
70
128
10
0.000000
20
0.000000
30
0.000000
71
96
72
26
73
95
0
VERTEX
8
0
6
CONTINUOUS
62
252
70
128
10
0.000000
20
0.000000
30
0.000000
71
95
72
26
73
27
0
VERTEX
8
0
6
CONTINUOUS
62
252
70
128
10
0.000000
20
0.000000
30
0.000000
71
95
72
27
73
94
0
VERTEX
8
0
6
CONTINUOUS
62
252
70
128
10
0.000000
20
0.000000
30
0.000000
71
94
72
27
73
28
0
VERTEX
8
0
6
CONTINUOUS
62
252
70
128
10
0.000000
20
0.000000
30
0.000000
71
94
72
28
73
93
0
VERTEX
8
0
6
CONTINUOUS
62
252
70
128
10
0.000000
20
0.000000
30
0.000000
71
93
72
28
73
29
0
VERTEX
8
0
6
CONTINUOUS
62
252
70
128
10
0.000000
20
0.000000
30
0.000000
71
93
72
29
73
92
0
VERTEX
8
0
6
CONTINUOUS
62
252
70
128
10
0.000000
20
0.000000
30
0.000000
71
92
72
29
73
30
0
VERTEX
8
0
6
CONTINUOUS
62
252
70
128
10
0.000000
20
0.000000
30
0.000000
71
92
72
30
73
91
0
VERTEX
8
0
6
CONTINUOUS
62
252
70
128
10
0.000000
20
0.000000
30
0.000000
71
91
72
30
73
31
0
VERTEX
8
0
6
CONTINUOUS
62
252
70
128
10
0.000000
20
0.000000
30
0.000000
71
91
72
31
73
90
0
VERTEX
8
0
6
CONTINUOUS
62
252
70
128
10
0.000000
20
0.000000
30
0.000000
71
90
72
31
73
32
0
VERTEX
8
0
6
CONTINUOUS
62
252
70
128
10
0.000000
20
0.000000
30
0.000000
71
90
72
32
73
89
0
VERTEX
8
0
6
CONTINUOUS
62
252
70
128
10
0.000000
20
0.000000
30
0.000000
71
89
72
32
73
33
0
VERTEX
8
0
6
CONTINUOUS
62
252
70
128
10
0.000000
20
0.000000
30
0.000000
71
89
72
33
73
88
0
VERTEX
8
0
6
CONTINUOUS
62
252
70
128
10
0.000000
20
0.000000
30
0.000000
71
88
72
33
73
34
0
VERTEX
8
0
6
CONTINUOUS
62
252
70
128
10
0.000000
20
0.000000
30
0.000000
71
88
72
34
73
87
0
VERTEX
8
0
6
CONTINUOUS
62
252
70
128
10
0.000000
20
0.000000
30
0.000000
71
87
72
34
73
35
0
VERTEX
8
0
6
CONTINUOUS
62
252
70
128
10
0.000000
20
0.000000
30
0.000000
71
87
72
35
73
36
0
VERTEX
8
0
6
CONTINUOUS
62
252
70
128
10
0.000000
20
0.000000
30
0.000000
71
37
72
85
73
36
0
VERTEX
8
0
6
CONTINUOUS
62
252
70
128
10
0.000000
20
0.000000
30
0.000000
71
36
72
85
73
86
0
VERTEX
8
0
6
CONTINUOUS
62
252
70
128
10
0.000000
20
0.000000
30
0.000000
71
36
72
86
73
87
0
VERTEX
8
0
6
CONTINUOUS
62
252
70
128
10
0.000000
20
0.000000
30
0.000000
71
85
72
37
73
84
0
VERTEX
8
0
6
CONTINUOUS
62
252
70
128
10
0.000000
20
0.000000
30
0.000000
71
84
72
37
73
38
0
VERTEX
8
0
6
CONTINUOUS
62
252
70
128
10
0.000000
20
0.000000
30
0.000000
71
84
72
38
73
83
0
VERTEX
8
0
6
CONTINUOUS
62
252
70
128
10
0.000000
20
0.000000
30
0.000000
71
83
72
38
73
39
0
VERTEX
8
0
6
CONTINUOUS
62
252
70
128
10
0.000000
20
0.000000
30
0.000000
71
83
72
39
73
82
0
VERTEX
8
0
6
CONTINUOUS
62
252
70
128
10
0.000000
20
0.000000
30
0.000000
71
82
72
39
73
40
0
VERTEX
8
0
6
CONTINUOUS
62
252
70
128
10
0.000000
20
0.000000
30
0.000000
71
82
72
40
73
81
0
VERTEX
8
0
6
CONTINUOUS
62
252
70
128
10
0.000000
20
0.000000
30
0.000000
71
81
72
40
73
41
0
VERTEX
8
0
6
CONTINUOUS
62
252
70
128
10
0.000000
20
0.000000
30
0.000000
71
81
72
41
73
80
0
VERTEX
8
0
6
CONTINUOUS
62
252
70
128
10
0.000000
20
0.000000
30
0.000000
71
80
72
41
73
42
0
VERTEX
8
0
6
CONTINUOUS
62
252
70
128
10
0.000000
20
0.000000
30
0.000000
71
80
72
42
73
79
0
VERTEX
8
0
6
CONTINUOUS
62
252
70
128
10
0.000000
20
0.000000
30
0.000000
71
79
72
42
73
43
0
VERTEX
8
0
6
CONTINUOUS
62
252
70
128
10
0.000000
20
0.000000
30
0.000000
71
79
72
43
73
78
0
VERTEX
8
0
6
CONTINUOUS
62
252
70
128
10
0.000000
20
0.000000
30
0.000000
71
78
72
43
73
44
0
VERTEX
8
0
6
CONTINUOUS
62
252
70
128
10
0.000000
20
0.000000
30
0.000000
71
78
72
44
73
77
0
VERTEX
8
0
6
CONTINUOUS
62
252
70
128
10
0.000000
20
0.000000
30
0.000000
71
77
72
44
73
45
0
VERTEX
8
0
6
CONTINUOUS
62
252
70
128
10
0.000000
20
0.000000
30
0.000000
71
77
72
45
73
76
0
VERTEX
8
0
6
CONTINUOUS
62
252
70
128
10
0.000000
20
0.000000
30
0.000000
71
76
72
45
73
46
0
VERTEX
8
0
6
CONTINUOUS
62
252
70
128
10
0.000000
20
0.000000
30
0.000000
71
76
72
46
73
75
0
VERTEX
8
0
6
CONTINUOUS
62
252
70
128
10
0.000000
20
0.000000
30
0.000000
71
75
72
46
73
47
0
VERTEX
8
0
6
CONTINUOUS
62
252
70
128
10
0.000000
20
0.000000
30
0.000000
71
75
72
47
73
74
0
VERTEX
8
0
6
CONTINUOUS
62
252
70
128
10
0.000000
20
0.000000
30
0.000000
71
74
72
47
73
48
0
VERTEX
8
0
6
CONTINUOUS
62
252
70
128
10
0.000000
20
0.000000
30
0.000000
71
74
72
48
73
73
0
VERTEX
8
0
6
CONTINUOUS
62
252
70
128
10
0.000000
20
0.000000
30
0.000000
71
73
72
48
73
49
0
VERTEX
8
0
6
CONTINUOUS
62
252
70
128
10
0.000000
20
0.000000
30
0.000000
71
73
72
49
73
72
0
VERTEX
8
0
6
CONTINUOUS
62
252
70
128
10
0.000000
20
0.000000
30
0.000000
71
72
72
49
73
50
0
VERTEX
8
0
6
CONTINUOUS
62
252
70
128
10
0.000000
20
0.000000
30
0.000000
71
72
72
50
73
71
0
VERTEX
8
0
6
CONTINUOUS
62
252
70
128
10
0.000000
20
0.000000
30
0.000000
71
71
72
50
73
51
0
VERTEX
8
0
6
CONTINUOUS
62
252
70
128
10
0.000000
20
0.000000
30
0.000000
71
71
72
51
73
70
0
VERTEX
8
0
6
CONTINUOUS
62
252
70
128
10
0.000000
20
0.000000
30
0.000000
71
70
72
51
73
52
0
VERTEX
8
0
6
CONTINUOUS
62
252
70
128
10
0.000000
20
0.000000
30
0.000000
71
70
72
52
73
69
0
VERTEX
8
0
6
CONTINUOUS
62
252
70
128
10
0.000000
20
0.000000
30
0.000000
71
69
72
52
73
53
0
VERTEX
8
0
6
CONTINUOUS
62
252
70
128
10
0.000000
20
0.000000
30
0.000000
71
69
72
53
73
68
0
VERTEX
8
0
6
CONTINUOUS
62
252
70
128
10
0.000000
20
0.000000
30
0.000000
71
68
72
53
73
54
0
VERTEX
8
0
6
CONTINUOUS
62
252
70
128
10
0.000000
20
0.000000
30
0.000000
71
68
72
54
73
67
0
VERTEX
8
0
6
CONTINUOUS
62
252
70
128
10
0.000000
20
0.000000
30
0.000000
71
67
72
54
73
55
0
VERTEX
8
0
6
CONTINUOUS
62
252
70
128
10
0.000000
20
0.000000
30
0.000000
71
67
72
55
73
56
0
VERTEX
8
0
6
CONTINUOUS
62
252
70
128
10
0.000000
20
0.000000
30
0.000000
71
67
72
56
73
66
0
VERTEX
8
0
6
CONTINUOUS
62
252
70
128
10
0.000000
20
0.000000
30
0.000000
71
66
72
56
73
57
0
VERTEX
8
0
6
CONTINUOUS
62
252
70
128
10
0.000000
20
0.000000
30
0.000000
71
66
72
57
73
65
0
VERTEX
8
0
6
CONTINUOUS
62
252
70
128
10
0.000000
20
0.000000
30
0.000000
71
65
72
57
73
58
0
SEQEND
0
POLYLINE
66
1
8
0
6
CONTINUOUS
62
252
70
64
75
0
10
0.000000
20
0.000000
30
0.000000
0
VERTEX
8
0
6
CONTINUOUS
62
252
70
192
10
0.000000
20
0.000000
30
-0.140000
0
VERTEX
8
0
6
CONTINUOUS
62
252
70
192
10
-0.000000
20
0.014634
30
-0.139233
0
VERTEX
8
0
6
CONTINUOUS
62
252
70
192
10
-0.000000
20
0.029108
30
-0.136941
0
VERTEX
8
0
6
CONTINUOUS
62
252
70
192
10
-0.000000
20
0.043262
30
-0.133148
0
VERTEX
8
0
6
CONTINUOUS
62
252
70
192
10
-0.000000
20
0.056943
30
-0.127896
0
VERTEX
8
0
6
CONTINUOUS
62
252
70
192
10
0.000000
20
0.070000
30
-0.121244
0
VERTEX
8
0
6
CONTINUOUS
62
252
70
192
10
0.000000
20
0.082290
30
-0.113262
0
VERTEX
8
0
6
CONTINUOUS
62
252
70
192
10
0.000000
20
0.093678
30
-0.104040
0
VERTEX
8
0
6
CONTINUOUS
62
252
70
192
10
0.000000
20
0.104040
30
-0.093678
0
VERTEX
8
0
6
CONTINUOUS
62
252
70
192
10
0.000000
20
0.113262
30
-0.082290
0
VERTEX
8
0
6
CONTINUOUS
62
252
70
192
10
0.000000
20
0.121244
30
-0.070000
0
VERTEX
8
0
6
CONTINUOUS
62
252
70
192
10
0.000000
20
0.127896
30
-0.056943
0
VERTEX
8
0
6
CONTINUOUS
62
252
70
192
10
0.000000
20
0.133148
30
-0.043262
0
VERTEX
8
0
6
CONTINUOUS
62
252
70
192
10
0.000000
20
0.136941
30
-0.029108
0
VERTEX
8
0
6
CONTINUOUS
62
252
70
192
10
0.000000
20
0.139233
30
-0.014634
0
VERTEX
8
0
6
CONTINUOUS
62
252
70
192
10
0.000000
20
0.140000
30
0.000000
0
VERTEX
8
0
6
CONTINUOUS
62
252
70
192
10
0.000000
20
0.139233
30
0.014634
0
VERTEX
8
0
6
CONTINUOUS
62
252
70
192
10
0.000000
20
0.136941
30
0.029108
0
VERTEX
8
0
6
CONTINUOUS
62
252
70
192
10
0.000000
20
0.133148
30
0.043262
0
VERTEX
8
0
6
CONTINUOUS
62
252
70
192
10
0.000000
20
0.127896
30
0.056943
0
VERTEX
8
0
6
CONTINUOUS
62
252
70
192
10
0.000000
20
0.121244
30
0.070000
0
VERTEX
8
0
6
CONTINUOUS
62
252
70
192
10
0.000000
20
0.113262
30
0.082290
0
VERTEX
8
0
6
CONTINUOUS
62
252
70
192
10
0.000000
20
0.104040
30
0.093678
0
VERTEX
8
0
6
CONTINUOUS
62
252
70
192
10
0.000000
20
0.093678
30
0.104040
0
VERTEX
8
0
6
CONTINUOUS
62
252
70
192
10
0.000000
20
0.082290
30
0.113262
0
VERTEX
8
0
6
CONTINUOUS
62
252
70
192
10
0.000000
20
0.070000
30
0.121244
0
VERTEX
8
0
6
CONTINUOUS
62
252
70
192
10
0.000000
20
0.056943
30
0.127896
0
VERTEX
8
0
6
CONTINUOUS
62
252
70
192
10
0.000000
20
0.043262
30
0.133148
0
VERTEX
8
0
6
CONTINUOUS
62
252
70
192
10
0.000000
20
0.029108
30
0.136941
0
VERTEX
8
0
6
CONTINUOUS
62
252
70
192
10
0.000000
20
0.014634
30
0.139233
0
VERTEX
8
0
6
CONTINUOUS
62
252
70
192
10
0.000000
20
0.000000
30
0.140000
0
VERTEX
8
0
6
CONTINUOUS
62
252
70
192
10
0.000000
20
-0.014634
30
0.139233
0
VERTEX
8
0
6
CONTINUOUS
62
252
70
192
10
0.000000
20
-0.029108
30
0.136941
0
VERTEX
8
0
6
CONTINUOUS
62
252
70
192
10
0.000000
20
-0.043262
30
0.133148
0
VERTEX
8
0
6
CONTINUOUS
62
252
70
192
10
0.000000
20
-0.056943
30
0.127896
0
VERTEX
8
0
6
CONTINUOUS
62
252
70
192
10
-0.000000
20
-0.070000
30
0.121244
0
VERTEX
8
0
6
CONTINUOUS
62
252
70
192
10
-0.000000
20
-0.082290
30
0.113262
0
VERTEX
8
0
6
CONTINUOUS
62
252
70
192
10
-0.000000
20
-0.093678
30
0.104040
0
VERTEX
8
0
6
CONTINUOUS
62
252
70
192
10
-0.000000
20
-0.104040
30
0.093678
0
VERTEX
8
0
6
CONTINUOUS
62
252
70
192
10
-0.000000
20
-0.113262
30
0.082290
0
VERTEX
8
0
6
CONTINUOUS
62
252
70
192
10
-0.000000
20
-0.121244
30
0.070000
0
VERTEX
8
0
6
CONTINUOUS
62
252
70
192
10
-0.000000
20
-0.127896
30
0.056943
0
VERTEX
8
0
6
CONTINUOUS
62
252
70
192
10
-0.000000
20
-0.133148
30
0.043262
0
VERTEX
8
0
6
CONTINUOUS
62
252
70
192
10
-0.000000
20
-0.136941
30
0.029108
0
VERTEX
8
0
6
CONTINUOUS
62
252
70
192
10
-0.000000
20
-0.139233
30
0.014634
0
VERTEX
8
0
6
CONTINUOUS
62
252
70
192
10
-0.000000
20
-0.140000
30
0.000000
0
VERTEX
8
0
6
CONTINUOUS
62
252
70
192
10
-0.000000
20
-0.139233
30
-0.014634
0
VERTEX
8
0
6
CONTINUOUS
62
252
70
192
10
-0.000000
20
-0.136941
30
-0.029108
0
VERTEX
8
0
6
CONTINUOUS
62
252
70
192
10
-0.000000
20
-0.133148
30
-0.043262
0
VERTEX
8
0
6
CONTINUOUS
62
252
70
192
10
-0.000000
20
-0.127896
30
-0.056943
0
VERTEX
8
0
6
CONTINUOUS
62
252
70
192
10
-0.000000
20
-0.121244
30
-0.070000
0
VERTEX
8
0
6
CONTINUOUS
62
252
70
192
10
-0.000000
20
-0.113262
30
-0.082290
0
VERTEX
8
0
6
CONTINUOUS
62
252
70
192
10
-0.000000
20
-0.104040
30
-0.093678
0
VERTEX
8
0
6
CONTINUOUS
62
252
70
192
10
-0.000000
20
-0.093678
30
-0.104040
0
VERTEX
8
0
6
CONTINUOUS
62
252
70
192
10
-0.000000
20
-0.082290
30
-0.113262
0
VERTEX
8
0
6
CONTINUOUS
62
252
70
192
10
-0.000000
20
-0.070000
30
-0.121244
0
VERTEX
8
0
6
CONTINUOUS
62
252
70
192
10
-0.000000
20
-0.056943
30
-0.127896
0
VERTEX
8
0
6
CONTINUOUS
62
252
70
192
10
-0.000000
20
-0.043262
30
-0.133148
0
VERTEX
8
0
6
CONTINUOUS
62
252
70
192
10
-0.000000
20
-0.029108
30
-0.136941
0
VERTEX
8
0
6
CONTINUOUS
62
252
70
192
10
-0.000000
20
-0.014634
30
-0.139233
0
VERTEX
8
0
6
CONTINUOUS
62
252
70
192
10
0.000000
20
0.000000
30
-0.166950
0
VERTEX
8
0
6
CONTINUOUS
62
252
70
192
10
-0.000000
20
-0.017451
30
-0.166035
0
VERTEX
8
0
6
CONTINUOUS
62
252
70
192
10
-0.000000
20
-0.034711
30
-0.163302
0
VERTEX
8
0
6
CONTINUOUS
62
252
70
192
10
-0.000000
20
-0.051590
30
-0.158779
0
VERTEX
8
0
6
CONTINUOUS
62
252
70
192
10
-0.000000
20
-0.067905
30
-0.152516
0
VERTEX
8
0
6
CONTINUOUS
62
252
70
192
10
-0.000000
20
-0.083475
30
-0.144583
0
VERTEX
8
0
6
CONTINUOUS
62
252
70
192
10
-0.000000
20
-0.098131
30
-0.135065
0
VERTEX
8
0
6
CONTINUOUS
62
252
70
192
10
-0.000000
20
-0.111711
30
-0.124068
0
VERTEX
8
0
6
CONTINUOUS
62
252
70
192
10
-0.000000
20
-0.124068
30
-0.111711
0
VERTEX
8
0
6
CONTINUOUS
62
252
70
192
10
-0.000000
20
-0.135065
30
-0.098131
0
VERTEX
8
0
6
CONTINUOUS
62
252
70
192
10
-0.000000
20
-0.144583
30
-0.083475
0
VERTEX
8
0
6
CONTINUOUS
62
252
70
192
10
-0.000000
20
-0.152516
30
-0.067905
0
VERTEX
8
0
6
CONTINUOUS
62
252
70
192
10
-0.000000
20
-0.158779
30
-0.051590
0
VERTEX
8
0
6
CONTINUOUS
62
252
70
192
10
-0.000000
20
-0.163302
30
-0.034711
0
VERTEX
8
0
6
CONTINUOUS
62
252
70
192
10
-0.000000
20
-0.166035
30
-0.017451
0
VERTEX
8
0
6
CONTINUOUS
62
252
70
192
10
-0.000000
20
-0.166950
30
0.000000
0
VERTEX
8
0
6
CONTINUOUS
62
252
70
192
10
-0.000000
20
-0.166035
30
0.017451
0
VERTEX
8
0
6
CONTINUOUS
62
252
70
192
10
-0.000000
20
-0.163302
30
0.034711
0
VERTEX
8
0
6
CONTINUOUS
62
252
70
192
10
-0.000000
20
-0.158779
30
0.051590
0
VERTEX
8
0
6
CONTINUOUS
62
252
70
192
10
-0.000000
20
-0.152516
30
0.067905
0
VERTEX
8
0
6
CONTINUOUS
62
252
70
192
10
-0.000000
20
-0.144583
30
0.083475
0
VERTEX
8
0
6
CONTINUOUS
62
252
70
192
10
-0.000000
20
-0.135065
30
0.098131
0
VERTEX
8
0
6
CONTINUOUS
62
252
70
192
10
-0.000000
20
-0.124068
30
0.111711
0
VERTEX
8
0
6
CONTINUOUS
62
252
70
192
10
0.000000
20
-0.111711
30
0.124068
0
VERTEX
8
0
6
CONTINUOUS
62
252
70
192
10
0.000000
20
-0.098131
30
0.135065
0
VERTEX
8
0
6
CONTINUOUS
62
252
70
192
10
0.000000
20
-0.083475
30
0.144583
0
VERTEX
8
0
6
CONTINUOUS
62
252
70
192
10
0.000000
20
-0.067905
30
0.152516
0
VERTEX
8
0
6
CONTINUOUS
62
252
70
192
10
0.000000
20
-0.051590
30
0.158779
0
VERTEX
8
0
6
CONTINUOUS
62
252
70
192
10
0.000000
20
-0.034711
30
0.163302
0
VERTEX
8
0
6
CONTINUOUS
62
252
70
192
10
0.000000
20
-0.017451
30
0.166035
0
VERTEX
8
0
6
CONTINUOUS
62
252
70
192
10
0.000000
20
0.000000
30
0.166950
0
VERTEX
8
0
6
CONTINUOUS
62
252
70
192
10
0.000000
20
0.017451
30
0.166035
0
VERTEX
8
0
6
CONTINUOUS
62
252
70
192
10
0.000000
20
0.034711
30
0.163302
0
VERTEX
8
0
6
CONTINUOUS
62
252
70
192
10
0.000000
20
0.051590
30
0.158779
0
VERTEX
8
0
6
CONTINUOUS
62
252
70
192
10
0.000000
20
0.067905
30
0.152516
0
VERTEX
8
0
6
CONTINUOUS
62
252
70
192
10
0.000000
20
0.083475
30
0.144583
0
VERTEX
8
0
6
CONTINUOUS
62
252
70
192
10
0.000000
20
0.098131
30
0.135065
0
VERTEX
8
0
6
CONTINUOUS
62
252
70
192
10
0.000000
20
0.111711
30
0.124068
0
VERTEX
8
0
6
CONTINUOUS
62
252
70
192
10
0.000000
20
0.124068
30
0.111711
0
VERTEX
8
0
6
CONTINUOUS
62
252
70
192
10
0.000000
20
0.135065
30
0.098131
0
VERTEX
8
0
6
CONTINUOUS
62
252
70
192
10
0.000000
20
0.144583
30
0.083475
0
VERTEX
8
0
6
CONTINUOUS
62
252
70
192
10
0.000000
20
0.152516
30
0.067905
0
VERTEX
8
0
6
CONTINUOUS
62
252
70
192
10
0.000000
20
0.158779
30
0.051590
0
VERTEX
8
0
6
CONTINUOUS
62
252
70
192
10
0.000000
20
0.163302
30
0.034711
0
VERTEX
8
0
6
CONTINUOUS
62
252
70
192
10
0.000000
20
0.166035
30
0.017451
0
VERTEX
8
0
6
CONTINUOUS
62
252
70
192
10
0.000000
20
0.166950
30
0.000000
0
VERTEX
8
0
6
CONTINUOUS
62
252
70
192
10
0.000000
20
0.166035
30
-0.017451
0
VERTEX
8
0
6
CONTINUOUS
62
252
70
192
10
0.000000
20
0.163302
30
-0.034711
0
VERTEX
8
0
6
CONTINUOUS
62
252
70
192
10
0.000000
20
0.158779
30
-0.051590
0
VERTEX
8
0
6
CONTINUOUS
62
252
70
192
10
0.000000
20
0.152516
30
-0.067905
0
VERTEX
8
0
6
CONTINUOUS
62
252
70
192
10
0.000000
20
0.144583
30
-0.083475
0
VERTEX
8
0
6
CONTINUOUS
62
252
70
192
10
0.000000
20
0.135065
30
-0.098131
0
VERTEX
8
0
6
CONTINUOUS
62
252
70
192
10
0.000000
20
0.124068
30
-0.111711
0
VERTEX
8
0
6
CONTINUOUS
62
252
70
192
10
0.000000
20
0.111711
30
-0.124068
0
VERTEX
8
0
6
CONTINUOUS
62
252
70
192
10
0.000000
20
0.098131
30
-0.135065
0
VERTEX
8
0
6
CONTINUOUS
62
252
70
192
10
0.000000
20
0.083475
30
-0.144583
0
VERTEX
8
0
6
CONTINUOUS
62
252
70
192
10
0.000000
20
0.067905
30
-0.152516
0
VERTEX
8
0
6
CONTINUOUS
62
252
70
192
10
0.000000
20
0.051590
30
-0.158779
0
VERTEX
8
0
6
CONTINUOUS
62
252
70
192
10
0.000000
20
0.034711
30
-0.163302
0
VERTEX
8
0
6
CONTINUOUS
62
252
70
192
10
-0.000000
20
0.017451
30
-0.166035
0
VERTEX
8
0
6
CONTINUOUS
62
252
70
128
10
0.000000
20
0.000000
30
0.000000
71
60
72
1
73
61
0
VERTEX
8
0
6
CONTINUOUS
62
252
70
128
10
0.000000
20
0.000000
30
0.000000
71
61
72
1
73
2
0
VERTEX
8
0
6
CONTINUOUS
62
252
70
128
10
0.000000
20
0.000000
30
0.000000
71
61
72
2
73
120
0
VERTEX
8
0
6
CONTINUOUS
62
252
70
128
10
0.000000
20
0.000000
30
0.000000
71
120
72
2
73
3
0
VERTEX
8
0
6
CONTINUOUS
62
252
70
128
10
0.000000
20
0.000000
30
0.000000
71
120
72
3
73
119
0
VERTEX
8
0
6
CONTINUOUS
62
252
70
128
10
0.000000
20
0.000000
30
0.000000
71
119
72
3
73
4
0
VERTEX
8
0
6
CONTINUOUS
62
252
70
128
10
0.000000
20
0.000000
30
0.000000
71
119
72
4
73
118
0
VERTEX
8
0
6
CONTINUOUS
62
252
70
128
10
0.000000
20
0.000000
30
0.000000
71
118
72
4
73
5
0
VERTEX
8
0
6
CONTINUOUS
62
252
70
128
10
0.000000
20
0.000000
30
0.000000
71
118
72
5
73
117
0
VERTEX
8
0
6
CONTINUOUS
62
252
70
128
10
0.000000
20
0.000000
30
0.000000
71
117
72
5
73
6
0
VERTEX
8
0
6
CONTINUOUS
62
252
70
128
10
0.000000
20
0.000000
30
0.000000
71
117
72
6
73
116
0
VERTEX
8
0
6
CONTINUOUS
62
252
70
128
10
0.000000
20
0.000000
30
0.000000
71
116
72
6
73
7
0
VERTEX
8
0
6
CONTINUOUS
62
252
70
128
10
0.000000
20
0.000000
30
0.000000
71
116
72
7
73
115
0
VERTEX
8
0
6
CONTINUOUS
62
252
70
128
10
0.000000
20
0.000000
30
0.000000
71
115
72
7
73
8
0
VERTEX
8
0
6
CONTINUOUS
62
252
70
128
10
0.000000
20
0.000000
30
0.000000
71
115
72
8
73
114
0
VERTEX
8
0
6
CONTINUOUS
62
252
70
128
10
0.000000
20
0.000000
30
0.000000
71
114
72
8
73
9
0
VERTEX
8
0
6
CONTINUOUS
62
252
70
128
10
0.000000
20
0.000000
30
0.000000
71
114
72
9
73
113
0
VERTEX
8
0
6
CONTINUOUS
62
252
70
128
10
0.000000
20
0.000000
30
0.000000
71
113
72
9
73
10
0
VERTEX
8
0
6
CONTINUOUS
62
252
70
128
10
0.000000
20
0.000000
30
0.000000
71
113
72
10
73
112
0
VERTEX
8
0
6
CONTINUOUS
62
252
70
128
10
0.000000
20
0.000000
30
0.000000
71
112
72
10
73
11
0
VERTEX
8
0
6
CONTINUOUS
62
252
70
128
10
0.000000
20
0.000000
30
0.000000
71
112
72
11
73
111
0
VERTEX
8
0
6
CONTINUOUS
62
252
70
128
10
0.000000
20
0.000000
30
0.000000
71
111
72
11
73
12
0
VERTEX
8
0
6
CONTINUOUS
62
252
70
128
10
0.000000
20
0.000000
30
0.000000
71
111
72
12
73
110
0
VERTEX
8
0
6
CONTINUOUS
62
252
70
128
10
0.000000
20
0.000000
30
0.000000
71
110
72
12
73
13
0
VERTEX
8
0
6
CONTINUOUS
62
252
70
128
10
0.000000
20
0.000000
30
0.000000
71
110
72
13
73
109
0
VERTEX
8
0
6
CONTINUOUS
62
252
70
128
10
0.000000
20
0.000000
30
0.000000
71
109
72
13
73
14
0
VERTEX
8
0
6
CONTINUOUS
62
252
70
128
10
0.000000
20
0.000000
30
0.000000
71
109
72
14
73
108
0
VERTEX
8
0
6
CONTINUOUS
62
252
70
128
10
0.000000
20
0.000000
30
0.000000
71
108
72
14
73
15
0
VERTEX
8
0
6
CONTINUOUS
62
252
70
128
10
0.000000
20
0.000000
30
0.000000
71
108
72
15
73
107
0
VERTEX
8
0
6
CONTINUOUS
62
252
70
128
10
0.000000
20
0.000000
30
0.000000
71
107
72
15
73
16
0
VERTEX
8
0
6
CONTINUOUS
62
252
70
128
10
0.000000
20
0.000000
30
0.000000
71
107
72
16
73
106
0
VERTEX
8
0
6
CONTINUOUS
62
252
70
128
10
0.000000
20
0.000000
30
0.000000
71
106
72
16
73
105
0
VERTEX
8
0
6
CONTINUOUS
62
252
70
128
10
0.000000
20
0.000000
30
0.000000
71
105
72
16
73
17
0
VERTEX
8
0
6
CONTINUOUS
62
252
70
128
10
0.000000
20
0.000000
30
0.000000
71
105
72
17
73
104
0
VERTEX
8
0
6
CONTINUOUS
62
252
70
128
10
0.000000
20
0.000000
30
0.000000
71
104
72
17
73
18
0
VERTEX
8
0
6
CONTINUOUS
62
252
70
128
10
0.000000
20
0.000000
30
0.000000
71
104
72
18
73
103
0
VERTEX
8
0
6
CONTINUOUS
62
252
70
128
10
0.000000
20
0.000000
30
0.000000
71
103
72
18
73
19
0
VERTEX
8
0
6
CONTINUOUS
62
252
70
128
10
0.000000
20
0.000000
30
0.000000
71
103
72
19
73
102
0
VERTEX
8
0
6
CONTINUOUS
62
252
70
128
10
0.000000
20
0.000000
30
0.000000
71
102
72
19
73
20
0
VERTEX
8
0
6
CONTINUOUS
62
252
70
128
10
0.000000
20
0.000000
30
0.000000
71
102
72
20
73
101
0
VERTEX
8
0
6
CONTINUOUS
62
252
70
128
10
0.000000
20
0.000000
30
0.000000
71
101
72
20
73
21
0
VERTEX
8
0
6
CONTINUOUS
62
252
70
128
10
0.000000
20
0.000000
30
0.000000
71
101
72
21
73
100
0
VERTEX
8
0
6
CONTINUOUS
62
252
70
128
10
0.000000
20
0.000000
30
0.000000
71
100
72
21
73
22
0
VERTEX
8
0
6
CONTINUOUS
62
252
70
128
10
0.000000
20
0.000000
30
0.000000
71
100
72
22
73
99
0
VERTEX
8
0
6
CONTINUOUS
62
252
70
128
10
0.000000
20
0.000000
30
0.000000
71
99
72
22
73
23
0
VERTEX
8
0
6
CONTINUOUS
62
252
70
128
10
0.000000
20
0.000000
30
0.000000
71
99
72
23
73
98
0
VERTEX
8
0
6
CONTINUOUS
62
252
70
128
10
0.000000
20
0.000000
30
0.000000
71
98
72
23
73
24
0
VERTEX
8
0
6
CONTINUOUS
62
252
70
128
10
0.000000
20
0.000000
30
0.000000
71
98
72
24
73
97
0
VERTEX
8
0
6
CONTINUOUS
62
252
70
128
10
0.000000
20
0.000000
30
0.000000
71
97
72
24
73
25
0
VERTEX
8
0
6
CONTINUOUS
62
252
70
128
10
0.000000
20
0.000000
30
0.000000
71
97
72
25
73
96
0
VERTEX
8
0
6
CONTINUOUS
62
252
70
128
10
0.000000
20
0.000000
30
0.000000
71
96
72
25
73
26
0
VERTEX
8
0
6
CONTINUOUS
62
252
70
128
10
0.000000
20
0.000000
30
0.000000
71
96
72
26
73
95
0
VERTEX
8
0
6
CONTINUOUS
62
252
70
128
10
0.000000
20
0.000000
30
0.000000
71
95
72
26
73
27
0
VERTEX
8
0
6
CONTINUOUS
62
252
70
128
10
0.000000
20
0.000000
30
0.000000
71
95
72
27
73
94
0
VERTEX
8
0
6
CONTINUOUS
62
252
70
128
10
0.000000
20
0.000000
30
0.000000
71
94
72
27
73
28
0
VERTEX
8
0
6
CONTINUOUS
62
252
70
128
10
0.000000
20
0.000000
30
0.000000
71
94
72
28
73
93
0
VERTEX
8
0
6
CONTINUOUS
62
252
70
128
10
0.000000
20
0.000000
30
0.000000
71
93
72
28
73
29
0
VERTEX
8
0
6
CONTINUOUS
62
252
70
128
10
0.000000
20
0.000000
30
0.000000
71
93
72
29
73
92
0
VERTEX
8
0
6
CONTINUOUS
62
252
70
128
10
0.000000
20
0.000000
30
0.000000
71
92
72
29
73
30
0
VERTEX
8
0
6
CONTINUOUS
62
252
70
128
10
0.000000
20
0.000000
30
0.000000
71
92
72
30
73
91
0
VERTEX
8
0
6
CONTINUOUS
62
252
70
128
10
0.000000
20
0.000000
30
0.000000
71
91
72
30
73
31
0
VERTEX
8
0
6
CONTINUOUS
62
252
70
128
10
0.000000
20
0.000000
30
0.000000
71
91
72
31
73
32
0
VERTEX
8
0
6
CONTINUOUS
62
252
70
128
10
0.000000
20
0.000000
30
0.000000
71
91
72
32
73
90
0
VERTEX
8
0
6
CONTINUOUS
62
252
70
128
10
0.000000
20
0.000000
30
0.000000
71
90
72
32
73
33
0
VERTEX
8
0
6
CONTINUOUS
62
252
70
128
10
0.000000
20
0.000000
30
0.000000
71
90
72
33
73
89
0
VERTEX
8
0
6
CONTINUOUS
62
252
70
128
10
0.000000
20
0.000000
30
0.000000
71
89
72
33
73
34
0
VERTEX
8
0
6
CONTINUOUS
62
252
70
128
10
0.000000
20
0.000000
30
0.000000
71
89
72
34
73
88
0
VERTEX
8
0
6
CONTINUOUS
62
252
70
128
10
0.000000
20
0.000000
30
0.000000
71
88
72
34
73
35
0
VERTEX
8
0
6
CONTINUOUS
62
252
70
128
10
0.000000
20
0.000000
30
0.000000
71
88
72
35
73
87
0
VERTEX
8
0
6
CONTINUOUS
62
252
70
128
10
0.000000
20
0.000000
30
0.000000
71
87
72
35
73
36
0
VERTEX
8
0
6
CONTINUOUS
62
252
70
128
10
0.000000
20
0.000000
30
0.000000
71
87
72
36
73
86
0
VERTEX
8
0
6
CONTINUOUS
62
252
70
128
10
0.000000
20
0.000000
30
0.000000
71
86
72
36
73
37
0
VERTEX
8
0
6
CONTINUOUS
62
252
70
128
10
0.000000
20
0.000000
30
0.000000
71
86
72
37
73
85
0
VERTEX
8
0
6
CONTINUOUS
62
252
70
128
10
0.000000
20
0.000000
30
0.000000
71
85
72
37
73
38
0
VERTEX
8
0
6
CONTINUOUS
62
252
70
128
10
0.000000
20
0.000000
30
0.000000
71
85
72
38
73
84
0
VERTEX
8
0
6
CONTINUOUS
62
252
70
128
10
0.000000
20
0.000000
30
0.000000
71
84
72
38
73
39
0
VERTEX
8
0
6
CONTINUOUS
62
252
70
128
10
0.000000
20
0.000000
30
0.000000
71
84
72
39
73
83
0
VERTEX
8
0
6
CONTINUOUS
62
252
70
128
10
0.000000
20
0.000000
30
0.000000
71
83
72
39
73
40
0
VERTEX
8
0
6
CONTINUOUS
62
252
70
128
10
0.000000
20
0.000000
30
0.000000
71
83
72
40
73
82
0
VERTEX
8
0
6
CONTINUOUS
62
252
70
128
10
0.000000
20
0.000000
30
0.000000
71
82
72
40
73
41
0
VERTEX
8
0
6
CONTINUOUS
62
252
70
128
10
0.000000
20
0.000000
30
0.000000
71
82
72
41
73
81
0
VERTEX
8
0
6
CONTINUOUS
62
252
70
128
10
0.000000
20
0.000000
30
0.000000
71
81
72
41
73
42
0
VERTEX
8
0
6
CONTINUOUS
62
252
70
128
10
0.000000
20
0.000000
30
0.000000
71
81
72
42
73
80
0
VERTEX
8
0
6
CONTINUOUS
62
252
70
128
10
0.000000
20
0.000000
30
0.000000
71
80
72
42
73
43
0
VERTEX
8
0
6
CONTINUOUS
62
252
70
128
10
0.000000
20
0.000000
30
0.000000
71
80
72
43
73
79
0
VERTEX
8
0
6
CONTINUOUS
62
252
70
128
10
0.000000
20
0.000000
30
0.000000
71
79
72
43
73
44
0
VERTEX
8
0
6
CONTINUOUS
62
252
70
128
10
0.000000
20
0.000000
30
0.000000
71
79
72
44
73
78
0
VERTEX
8
0
6
CONTINUOUS
62
252
70
128
10
0.000000
20
0.000000
30
0.000000
71
78
72
44
73
45
0
VERTEX
8
0
6
CONTINUOUS
62
252
70
128
10
0.000000
20
0.000000
30
0.000000
71
78
72
45
73
77
0
VERTEX
8
0
6
CONTINUOUS
62
252
70
128
10
0.000000
20
0.000000
30
0.000000
71
77
72
45
73
46
0
VERTEX
8
0
6
CONTINUOUS
62
252
70
128
10
0.000000
20
0.000000
30
0.000000
71
77
72
46
73
76
0
VERTEX
8
0
6
CONTINUOUS
62
252
70
128
10
0.000000
20
0.000000
30
0.000000
71
76
72
46
73
75
0
VERTEX
8
0
6
CONTINUOUS
62
252
70
128
10
0.000000
20
0.000000
30
0.000000
71
75
72
46
73
47
0
VERTEX
8
0
6
CONTINUOUS
62
252
70
128
10
0.000000
20
0.000000
30
0.000000
71
75
72
47
73
74
0
VERTEX
8
0
6
CONTINUOUS
62
252
70
128
10
0.000000
20
0.000000
30
0.000000
71
74
72
47
73
48
0
VERTEX
8
0
6
CONTINUOUS
62
252
70
128
10
0.000000
20
0.000000
30
0.000000
71
74
72
48
73
73
0
VERTEX
8
0
6
CONTINUOUS
62
252
70
128
10
0.000000
20
0.000000
30
0.000000
71
73
72
48
73
49
0
VERTEX
8
0
6
CONTINUOUS
62
252
70
128
10
0.000000
20
0.000000
30
0.000000
71
73
72
49
73
72
0
VERTEX
8
0
6
CONTINUOUS
62
252
70
128
10
0.000000
20
0.000000
30
0.000000
71
72
72
49
73
50
0
VERTEX
8
0
6
CONTINUOUS
62
252
70
128
10
0.000000
20
0.000000
30
0.000000
71
72
72
50
73
71
0
VERTEX
8
0
6
CONTINUOUS
62
252
70
128
10
0.000000
20
0.000000
30
0.000000
71
71
72
50
73
51
0
VERTEX
8
0
6
CONTINUOUS
62
252
70
128
10
0.000000
20
0.000000
30
0.000000
71
71
72
51
73
70
0
VERTEX
8
0
6
CONTINUOUS
62
252
70
128
10
0.000000
20
0.000000
30
0.000000
71
70
72
51
73
52
0
VERTEX
8
0
6
CONTINUOUS
62
252
70
128
10
0.000000
20
0.000000
30
0.000000
71
70
72
52
73
69
0
VERTEX
8
0
6
CONTINUOUS
62
252
70
128
10
0.000000
20
0.000000
30
0.000000
71
69
72
52
73
53
0
VERTEX
8
0
6
CONTINUOUS
62
252
70
128
10
0.000000
20
0.000000
30
0.000000
71
69
72
53
73
68
0
VERTEX
8
0
6
CONTINUOUS
62
252
70
128
10
0.000000
20
0.000000
30
0.000000
71
68
72
53
73
54
0
VERTEX
8
0
6
CONTINUOUS
62
252
70
128
10
0.000000
20
0.000000
30
0.000000
71
68
72
54
73
67
0
VERTEX
8
0
6
CONTINUOUS
62
252
70
128
10
0.000000
20
0.000000
30
0.000000
71
67
72
54
73
55
0
VERTEX
8
0
6
CONTINUOUS
62
252
70
128
10
0.000000
20
0.000000
30
0.000000
71
67
72
55
73
66
0
VERTEX
8
0
6
CONTINUOUS
62
252
70
128
10
0.000000
20
0.000000
30
0.000000
71
66
72
55
73
56
0
VERTEX
8
0
6
CONTINUOUS
62
252
70
128
10
0.000000
20
0.000000
30
0.000000
71
66
72
56
73
65
0
VERTEX
8
0
6
CONTINUOUS
62
252
70
128
10
0.000000
20
0.000000
30
0.000000
71
65
72
56
73
57
0
VERTEX
8
0
6
CONTINUOUS
62
252
70
128
10
0.000000
20
0.000000
30
0.000000
71
65
72
57
73
64
0
VERTEX
8
0
6
CONTINUOUS
62
252
70
128
10
0.000000
20
0.000000
30
0.000000
71
64
72
57
73
58
0
VERTEX
8
0
6
CONTINUOUS
62
252
70
128
10
0.000000
20
0.000000
30
0.000000
71
64
72
58
73
63
0
VERTEX
8
0
6
CONTINUOUS
62
252
70
128
10
0.000000
20
0.000000
30
0.000000
71
63
72
58
73
59
0
VERTEX
8
0
6
CONTINUOUS
62
252
70
128
10
0.000000
20
0.000000
30
0.000000
71
63
72
59
73
62
0
VERTEX
8
0
6
CONTINUOUS
62
252
70
128
10
0.000000
20
0.000000
30
0.000000
71
62
72
59
73
60
0
VERTEX
8
0
6
CONTINUOUS
62
252
70
128
10
0.000000
20
0.000000
30
0.000000
71
62
72
60
73
61
0
SEQEND
0
POLYLINE
66
1
8
0
6
CONTINUOUS
62
252
70
64
75
0
10
0.000000
20
0.000000
30
0.000000
0
VERTEX
8
0
6
CONTINUOUS
62
252
70
192
10
0.028212
20
0.000000
30
0.195162
0
VERTEX
8
0
6
CONTINUOUS
62
252
70
192
10
0.028212
20
-0.020400
30
0.194093
0
VERTEX
8
0
6
CONTINUOUS
62
252
70
192
10
0.028212
20
-0.040576
30
0.190897
0
VERTEX
8
0
6
CONTINUOUS
62
252
70
192
10
0.028212
20
-0.060308
30
0.185610
0
VERTEX
8
0
6
CONTINUOUS
62
252
70
192
10
0.028212
20
-0.079379
30
0.178289
0
VERTEX
8
0
6
CONTINUOUS
62
252
70
192
10
0.028212
20
-0.097581
30
0.169015
0
VERTEX
8
0
6
CONTINUOUS
62
252
70
192
10
0.028212
20
-0.114713
30
0.157889
0
VERTEX
8
0
6
CONTINUOUS
62
252
70
192
10
0.028212
20
-0.130589
30
0.145034
0
VERTEX
8
0
6
CONTINUOUS
62
252
70
192
10
0.028212
20
-0.145034
30
0.130589
0
VERTEX
8
0
6
CONTINUOUS
62
252
70
192
10
0.028212
20
-0.157889
30
0.114713
0
VERTEX
8
0
6
CONTINUOUS
62
252
70
192
10
0.028212
20
-0.169015
30
0.097581
0
VERTEX
8
0
6
CONTINUOUS
62
252
70
192
10
0.028212
20
-0.178289
30
0.079379
0
VERTEX
8
0
6
CONTINUOUS
62
252
70
192
10
0.028212
20
-0.185610
30
0.060308
0
VERTEX
8
0
6
CONTINUOUS
62
252
70
192
10
0.028212
20
-0.190897
30
0.040576
0
VERTEX
8
0
6
CONTINUOUS
62
252
70
192
10
0.028212
20
-0.194093
30
0.020400
0
VERTEX
8
0
6
CONTINUOUS
62
252
70
192
10
0.028212
20
-0.195162
30
0.000000
0
VERTEX
8
0
6
CONTINUOUS
62
252
70
192
10
0.028212
20
-0.194093
30
-0.020400
0
VERTEX
8
0
6
CONTINUOUS
62
252
70
192
10
0.028212
20
-0.190897
30
-0.040576
0
VERTEX
8
0
6
CONTINUOUS
62
252
70
192
10
0.028212
20
-0.185610
30
-0.060308
0
VERTEX
8
0
6
CONTINUOUS
62
252
70
192
10
0.028212
20
-0.178289
30
-0.079379
0
VERTEX
8
0
6
CONTINUOUS
62
252
70
192
10
0.028212
20
-0.169015
30
-0.097581
0
VERTEX
8
0
6
CONTINUOUS
62
252
70
192
10
0.028212
20
-0.157889
30
-0.114713
0
VERTEX
8
0
6
CONTINUOUS
62
252
70
192
10
0.028212
20
-0.145034
30
-0.130589
0
VERTEX
8
0
6
CONTINUOUS
62
252
70
192
10
0.028212
20
-0.130589
30
-0.145034
0
VERTEX
8
0
6
CONTINUOUS
62
252
70
192
10
0.028212
20
-0.114713
30
-0.157889
0
VERTEX
8
0
6
CONTINUOUS
62
252
70
192
10
0.028212
20
-0.097581
30
-0.169015
0
VERTEX
8
0
6
CONTINUOUS
62
252
70
192
10
0.028212
20
-0.079379
30
-0.178289
0
VERTEX
8
0
6
CONTINUOUS
62
252
70
192
10
0.028212
20
-0.060308
30
-0.185610
0
VERTEX
8
0
6
CONTINUOUS
62
252
70
192
10
0.028212
20
-0.040576
30
-0.190897
0
VERTEX
8
0
6
CONTINUOUS
62
252
70
192
10
0.028212
20
-0.020400
30
-0.194093
0
VERTEX
8
0
6
CONTINUOUS
62
252
70
192
10
0.028212
20
0.000000
30
-0.195162
0
VERTEX
8
0
6
CONTINUOUS
62
252
70
192
10
0.028212
20
0.020400
30
-0.194093
0
VERTEX
8
0
6
CONTINUOUS
62
252
70
192
10
0.028212
20
0.040576
30
-0.190897
0
VERTEX
8
0
6
CONTINUOUS
62
252
70
192
10
0.028212
20
0.060308
30
-0.185610
0
VERTEX
8
0
6
CONTINUOUS
62
252
70
192
10
0.028212
20
0.079379
30
-0.178289
0
VERTEX
8
0
6
CONTINUOUS
62
252
70
192
10
0.028212
20
0.097581
30
-0.169015
0
VERTEX
8
0
6
CONTINUOUS
62
252
70
192
10
0.028212
20
0.114713
30
-0.157889
0
VERTEX
8
0
6
CONTINUOUS
62
252
70
192
10
0.028212
20
0.130589
30
-0.145034
0
VERTEX
8
0
6
CONTINUOUS
62
252
70
192
10
0.028212
20
0.145034
30
-0.130589
0
VERTEX
8
0
6
CONTINUOUS
62
252
70
192
10
0.028212
20
0.157889
30
-0.114713
0
VERTEX
8
0
6
CONTINUOUS
62
252
70
192
10
0.028212
20
0.169015
30
-0.097581
0
VERTEX
8
0
6
CONTINUOUS
62
252
70
192
10
0.028212
20
0.178289
30
-0.079379
0
VERTEX
8
0
6
CONTINUOUS
62
252
70
192
10
0.028212
20
0.185610
30
-0.060308
0
VERTEX
8
0
6
CONTINUOUS
62
252
70
192
10
0.028212
20
0.190897
30
-0.040576
0
VERTEX
8
0
6
CONTINUOUS
62
252
70
192
10
0.028212
20
0.194093
30
-0.020400
0
VERTEX
8
0
6
CONTINUOUS
62
252
70
192
10
0.028212
20
0.195162
30
0.000000
0
VERTEX
8
0
6
CONTINUOUS
62
252
70
192
10
0.028212
20
0.194093
30
0.020400
0
VERTEX
8
0
6
CONTINUOUS
62
252
70
192
10
0.028212
20
0.190897
30
0.040576
0
VERTEX
8
0
6
CONTINUOUS
62
252
70
192
10
0.028212
20
0.185610
30
0.060308
0
VERTEX
8
0
6
CONTINUOUS
62
252
70
192
10
0.028212
20
0.178289
30
0.079379
0
VERTEX
8
0
6
CONTINUOUS
62
252
70
192
10
0.028212
20
0.169015
30
0.097581
0
VERTEX
8
0
6
CONTINUOUS
62
252
70
192
10
0.028212
20
0.157889
30
0.114713
0
VERTEX
8
0
6
CONTINUOUS
62
252
70
192
10
0.028212
20
0.145034
30
0.130589
0
VERTEX
8
0
6
CONTINUOUS
62
252
70
192
10
0.028212
20
0.130589
30
0.145034
0
VERTEX
8
0
6
CONTINUOUS
62
252
70
192
10
0.028212
20
0.114713
30
0.157889
0
VERTEX
8
0
6
CONTINUOUS
62
252
70
192
10
0.028212
20
0.097581
30
0.169015
0
VERTEX
8
0
6
CONTINUOUS
62
252
70
192
10
0.028212
20
0.079379
30
0.178289
0
VERTEX
8
0
6
CONTINUOUS
62
252
70
192
10
0.028212
20
0.060308
30
0.185610
0
VERTEX
8
0
6
CONTINUOUS
62
252
70
192
10
0.028212
20
0.040576
30
0.190897
0
VERTEX
8
0
6
CONTINUOUS
62
252
70
192
10
0.028212
20
0.020400
30
0.194093
0
VERTEX
8
0
6
CONTINUOUS
62
252
70
192
10
0.263900
20
0.000000
30
-0.202500
0
VERTEX
8
0
6
CONTINUOUS
62
252
70
192
10
0.263900
20
-0.021167
30
-0.201391
0
VERTEX
8
0
6
CONTINUOUS
62
252
70
192
10
0.263900
20
-0.042102
30
-0.198075
0
VERTEX
8
0
6
CONTINUOUS
62
252
70
192
10
0.263900
20
-0.062576
30
-0.192589
0
VERTEX
8
0
6
CONTINUOUS
62
252
70
192
10
0.263900
20
-0.082364
30
-0.184993
0
VERTEX
8
0
6
CONTINUOUS
62
252
70
192
10
0.263900
20
-0.101250
30
-0.175370
0
VERTEX
8
0
6
CONTINUOUS
62
252
70
192
10
0.263900
20
-0.119027
30
-0.163826
0
VERTEX
8
0
6
CONTINUOUS
62
252
70
192
10
0.263900
20
-0.135499
30
-0.150487
0
VERTEX
8
0
6
CONTINUOUS
62
252
70
192
10
0.263900
20
-0.150487
30
-0.135499
0
VERTEX
8
0
6
CONTINUOUS
62
252
70
192
10
0.263900
20
-0.163826
30
-0.119027
0
VERTEX
8
0
6
CONTINUOUS
62
252
70
192
10
0.263900
20
-0.175370
30
-0.101250
0
VERTEX
8
0
6
CONTINUOUS
62
252
70
192
10
0.263900
20
-0.184993
30
-0.082364
0
VERTEX
8
0
6
CONTINUOUS
62
252
70
192
10
0.263900
20
-0.192589
30
-0.062576
0
VERTEX
8
0
6
CONTINUOUS
62
252
70
192
10
0.263900
20
-0.198075
30
-0.042102
0
VERTEX
8
0
6
CONTINUOUS
62
252
70
192
10
0.263900
20
-0.201391
30
-0.021167
0
VERTEX
8
0
6
CONTINUOUS
62
252
70
192
10
0.263900
20
-0.202500
30
0.000000
0
VERTEX
8
0
6
CONTINUOUS
62
252
70
192
10
0.263900
20
-0.201391
30
0.021167
0
VERTEX
8
0
6
CONTINUOUS
62
252
70
192
10
0.263900
20
-0.198075
30
0.042102
0
VERTEX
8
0
6
CONTINUOUS
62
252
70
192
10
0.263900
20
-0.192589
30
0.062576
0
VERTEX
8
0
6
CONTINUOUS
62
252
70
192
10
0.263900
20
-0.184993
30
0.082364
0
VERTEX
8
0
6
CONTINUOUS
62
252
70
192
10
0.263900
20
-0.175370
30
0.101250
0
VERTEX
8
0
6
CONTINUOUS
62
252
70
192
10
0.263900
20
-0.163826
30
0.119027
0
VERTEX
8
0
6
CONTINUOUS
62
252
70
192
10
0.263900
20
-0.150487
30
0.135499
0
VERTEX
8
0
6
CONTINUOUS
62
252
70
192
10
0.263900
20
-0.135499
30
0.150487
0
VERTEX
8
0
6
CONTINUOUS
62
252
70
192
10
0.263900
20
-0.119027
30
0.163826
0
VERTEX
8
0
6
CONTINUOUS
62
252
70
192
10
0.263900
20
-0.101250
30
0.175370
0
VERTEX
8
0
6
CONTINUOUS
62
252
70
192
10
0.263900
20
-0.082364
30
0.184993
0
VERTEX
8
0
6
CONTINUOUS
62
252
70
192
10
0.263900
20
-0.062576
30
0.192589
0
VERTEX
8
0
6
CONTINUOUS
62
252
70
192
10
0.263900
20
-0.042102
30
0.198075
0
VERTEX
8
0
6
CONTINUOUS
62
252
70
192
10
0.263900
20
-0.021167
30
0.201391
0
VERTEX
8
0
6
CONTINUOUS
62
252
70
192
10
0.263900
20
0.000000
30
0.202500
0
VERTEX
8
0
6
CONTINUOUS
62
252
70
192
10
0.263900
20
0.021167
30
0.201391
0
VERTEX
8
0
6
CONTINUOUS
62
252
70
192
10
0.263900
20
0.042102
30
0.198075
0
VERTEX
8
0
6
CONTINUOUS
62
252
70
192
10
0.263900
20
0.062576
30
0.192589
0
VERTEX
8
0
6
CONTINUOUS
62
252
70
192
10
0.263900
20
0.082364
30
0.184993
0
VERTEX
8
0
6
CONTINUOUS
62
252
70
192
10
0.263900
20
0.101250
30
0.175370
0
VERTEX
8
0
6
CONTINUOUS
62
252
70
192
10
0.263900
20
0.119027
30
0.163826
0
VERTEX
8
0
6
CONTINUOUS
62
252
70
192
10
0.263900
20
0.135499
30
0.150487
0
VERTEX
8
0
6
CONTINUOUS
62
252
70
192
10
0.263900
20
0.150487
30
0.135499
0
VERTEX
8
0
6
CONTINUOUS
62
252
70
192
10
0.263900
20
0.163826
30
0.119027
0
VERTEX
8
0
6
CONTINUOUS
62
252
70
192
10
0.263900
20
0.175370
30
0.101250
0
VERTEX
8
0
6
CONTINUOUS
62
252
70
192
10
0.263900
20
0.184993
30
0.082364
0
VERTEX
8
0
6
CONTINUOUS
62
252
70
192
10
0.263900
20
0.192589
30
0.062576
0
VERTEX
8
0
6
CONTINUOUS
62
252
70
192
10
0.263900
20
0.198075
30
0.042102
0
VERTEX
8
0
6
CONTINUOUS
62
252
70
192
10
0.263900
20
0.201391
30
0.021167
0
VERTEX
8
0
6
CONTINUOUS
62
252
70
192
10
0.263900
20
0.202500
30
-0.000000
0
VERTEX
8
0
6
CONTINUOUS
62
252
70
192
10
0.263900
20
0.201391
30
-0.021167
0
VERTEX
8
0
6
CONTINUOUS
62
252
70
192
10
0.263900
20
0.198075
30
-0.042102
0
VERTEX
8
0
6
CONTINUOUS
62
252
70
192
10
0.263900
20
0.192589
30
-0.062576
0
VERTEX
8
0
6
CONTINUOUS
62
252
70
192
10
0.263900
20
0.184993
30
-0.082364
0
VERTEX
8
0
6
CONTINUOUS
62
252
70
192
10
0.263900
20
0.175370
30
-0.101250
0
VERTEX
8
0
6
CONTINUOUS
62
252
70
192
10
0.263900
20
0.163826
30
-0.119027
0
VERTEX
8
0
6
CONTINUOUS
62
252
70
192
10
0.263900
20
0.150487
30
-0.135499
0
VERTEX
8
0
6
CONTINUOUS
62
252
70
192
10
0.263900
20
0.135499
30
-0.150487
0
VERTEX
8
0
6
CONTINUOUS
62
252
70
192
10
0.263900
20
0.119027
30
-0.163826
0
VERTEX
8
0
6
CONTINUOUS
62
252
70
192
10
0.263900
20
0.101250
30
-0.175370
0
VERTEX
8
0
6
CONTINUOUS
62
252
70
192
10
0.263900
20
0.082364
30
-0.184993
0
VERTEX
8
0
6
CONTINUOUS
62
252
70
192
10
0.263900
20
0.062576
30
-0.192589
0
VERTEX
8
0
6
CONTINUOUS
62
252
70
192
10
0.263900
20
0.042102
30
-0.198075
0
VERTEX
8
0
6
CONTINUOUS
62
252
70
192
10
0.263900
20
0.021167
30
-0.201391
0
VERTEX
8
0
6
CONTINUOUS
62
252
70
128
10
0.000000
20
0.000000
30
0.000000
71
2
72
90
73
1
0
VERTEX
8
0
6
CONTINUOUS
62
252
70
128
10
0.000000
20
0.000000
30
0.000000
71
1
72
90
73
91
0
VERTEX
8
0
6
CONTINUOUS
62
252
70
128
10
0.000000
20
0.000000
30
0.000000
71
1
72
91
73
92
0
VERTEX
8
0
6
CONTINUOUS
62
252
70
128
10
0.000000
20
0.000000
30
0.000000
71
90
72
2
73
89
0
VERTEX
8
0
6
CONTINUOUS
62
252
70
128
10
0.000000
20
0.000000
30
0.000000
71
89
72
2
73
3
0
VERTEX
8
0
6
CONTINUOUS
62
252
70
128
10
0.000000
20
0.000000
30
0.000000
71
89
72
3
73
88
0
VERTEX
8
0
6
CONTINUOUS
62
252
70
128
10
0.000000
20
0.000000
30
0.000000
71
88
72
3
73
4
0
VERTEX
8
0
6
CONTINUOUS
62
252
70
128
10
0.000000
20
0.000000
30
0.000000
71
88
72
4
73
87
0
VERTEX
8
0
6
CONTINUOUS
62
252
70
128
10
0.000000
20
0.000000
30
0.000000
71
87
72
4
73
5
0
VERTEX
8
0
6
CONTINUOUS
62
252
70
128
10
0.000000
20
0.000000
30
0.000000
71
87
72
5
73
86
0
VERTEX
8
0
6
CONTINUOUS
62
252
70
128
10
0.000000
20
0.000000
30
0.000000
71
86
72
5
73
6
0
VERTEX
8
0
6
CONTINUOUS
62
252
70
128
10
0.000000
20
0.000000
30
0.000000
71
86
72
6
73
85
0
VERTEX
8
0
6
CONTINUOUS
62
252
70
128
10
0.000000
20
0.000000
30
0.000000
71
85
72
6
73
7
0
VERTEX
8
0
6
CONTINUOUS
62
252
70
128
10
0.000000
20
0.000000
30
0.000000
71
85
72
7
73
84
0
VERTEX
8
0
6
CONTINUOUS
62
252
70
128
10
0.000000
20
0.000000
30
0.000000
71
84
72
7
73
8
0
VERTEX
8
0
6
CONTINUOUS
62
252
70
128
10
0.000000
20
0.000000
30
0.000000
71
84
72
8
73
83
0
VERTEX
8
0
6
CONTINUOUS
62
252
70
128
10
0.000000
20
0.000000
30
0.000000
71
83
72
8
73
9
0
VERTEX
8
0
6
CONTINUOUS
62
252
70
128
10
0.000000
20
0.000000
30
0.000000
71
83
72
9
73
82
0
VERTEX
8
0
6
CONTINUOUS
62
252
70
128
10
0.000000
20
0.000000
30
0.000000
71
82
72
9
73
10
0
VERTEX
8
0
6
CONTINUOUS
62
252
70
128
10
0.000000
20
0.000000
30
0.000000
71
82
72
10
73
81
0
VERTEX
8
0
6
CONTINUOUS
62
252
70
128
10
0.000000
20
0.000000
30
0.000000
71
81
72
10
73
11
0
VERTEX
8
0
6
CONTINUOUS
62
252
70
128
10
0.000000
20
0.000000
30
0.000000
71
81
72
11
73
80
0
VERTEX
8
0
6
CONTINUOUS
62
252
70
128
10
0.000000
20
0.000000
30
0.000000
71
80
72
11
73
12
0
VERTEX
8
0
6
CONTINUOUS
62
252
70
128
10
0.000000
20
0.000000
30
0.000000
71
80
72
12
73
79
0
VERTEX
8
0
6
CONTINUOUS
62
252
70
128
10
0.000000
20
0.000000
30
0.000000
71
79
72
12
73
13
0
VERTEX
8
0
6
CONTINUOUS
62
252
70
128
10
0.000000
20
0.000000
30
0.000000
71
79
72
13
73
78
0
VERTEX
8
0
6
CONTINUOUS
62
252
70
128
10
0.000000
20
0.000000
30
0.000000
71
78
72
13
73
14
0
VERTEX
8
0
6
CONTINUOUS
62
252
70
128
10
0.000000
20
0.000000
30
0.000000
71
78
72
14
73
77
0
VERTEX
8
0
6
CONTINUOUS
62
252
70
128
10
0.000000
20
0.000000
30
0.000000
71
77
72
14
73
15
0
VERTEX
8
0
6
CONTINUOUS
62
252
70
128
10
0.000000
20
0.000000
30
0.000000
71
77
72
15
73
76
0
VERTEX
8
0
6
CONTINUOUS
62
252
70
128
10
0.000000
20
0.000000
30
0.000000
71
76
72
15
73
16
0
VERTEX
8
0
6
CONTINUOUS
62
252
70
128
10
0.000000
20
0.000000
30
0.000000
71
76
72
16
73
75
0
VERTEX
8
0
6
CONTINUOUS
62
252
70
128
10
0.000000
20
0.000000
30
0.000000
71
75
72
16
73
17
0
VERTEX
8
0
6
CONTINUOUS
62
252
70
128
10
0.000000
20
0.000000
30
0.000000
71
75
72
17
73
74
0
VERTEX
8
0
6
CONTINUOUS
62
252
70
128
10
0.000000
20
0.000000
30
0.000000
71
74
72
17
73
18
0
VERTEX
8
0
6
CONTINUOUS
62
252
70
128
10
0.000000
20
0.000000
30
0.000000
71
74
72
18
73
73
0
VERTEX
8
0
6
CONTINUOUS
62
252
70
128
10
0.000000
20
0.000000
30
0.000000
71
73
72
18
73
19
0
VERTEX
8
0
6
CONTINUOUS
62
252
70
128
10
0.000000
20
0.000000
30
0.000000
71
73
72
19
73
72
0
VERTEX
8
0
6
CONTINUOUS
62
252
70
128
10
0.000000
20
0.000000
30
0.000000
71
72
72
19
73
20
0
VERTEX
8
0
6
CONTINUOUS
62
252
70
128
10
0.000000
20
0.000000
30
0.000000
71
72
72
20
73
71
0
VERTEX
8
0
6
CONTINUOUS
62
252
70
128
10
0.000000
20
0.000000
30
0.000000
71
71
72
20
73
21
0
VERTEX
8
0
6
CONTINUOUS
62
252
70
128
10
0.000000
20
0.000000
30
0.000000
71
71
72
21
73
70
0
VERTEX
8
0
6
CONTINUOUS
62
252
70
128
10
0.000000
20
0.000000
30
0.000000
71
70
72
21
73
22
0
VERTEX
8
0
6
CONTINUOUS
62
252
70
128
10
0.000000
20
0.000000
30
0.000000
71
70
72
22
73
69
0
VERTEX
8
0
6
CONTINUOUS
62
252
70
128
10
0.000000
20
0.000000
30
0.000000
71
69
72
22
73
23
0
VERTEX
8
0
6
CONTINUOUS
62
252
70
128
10
0.000000
20
0.000000
30
0.000000
71
69
72
23
73
68
0
VERTEX
8
0
6
CONTINUOUS
62
252
70
128
10
0.000000
20
0.000000
30
0.000000
71
68
72
23
73
24
0
VERTEX
8
0
6
CONTINUOUS
62
252
70
128
10
0.000000
20
0.000000
30
0.000000
71
68
72
24
73
67
0
VERTEX
8
0
6
CONTINUOUS
62
252
70
128
10
0.000000
20
0.000000
30
0.000000
71
67
72
24
73
25
0
VERTEX
8
0
6
CONTINUOUS
62
252
70
128
10
0.000000
20
0.000000
30
0.000000
71
67
72
25
73
66
0
VERTEX
8
0
6
CONTINUOUS
62
252
70
128
10
0.000000
20
0.000000
30
0.000000
71
66
72
25
73
26
0
VERTEX
8
0
6
CONTINUOUS
62
252
70
128
10
0.000000
20
0.000000
30
0.000000
71
66
72
26
73
65
0
VERTEX
8
0
6
CONTINUOUS
62
252
70
128
10
0.000000
20
0.000000
30
0.000000
71
65
72
26
73
27
0
VERTEX
8
0
6
CONTINUOUS
62
252
70
128
10
0.000000
20
0.000000
30
0.000000
71
65
72
27
73
64
0
VERTEX
8
0
6
CONTINUOUS
62
252
70
128
10
0.000000
20
0.000000
30
0.000000
71
64
72
27
73
28
0
VERTEX
8
0
6
CONTINUOUS
62
252
70
128
10
0.000000
20
0.000000
30
0.000000
71
64
72
28
73
63
0
VERTEX
8
0
6
CONTINUOUS
62
252
70
128
10
0.000000
20
0.000000
30
0.000000
71
63
72
28
73
29
0
VERTEX
8
0
6
CONTINUOUS
62
252
70
128
10
0.000000
20
0.000000
30
0.000000
71
63
72
29
73
62
0
VERTEX
8
0
6
CONTINUOUS
62
252
70
128
10
0.000000
20
0.000000
30
0.000000
71
62
72
29
73
30
0
VERTEX
8
0
6
CONTINUOUS
62
252
70
128
10
0.000000
20
0.000000
30
0.000000
71
62
72
30
73
61
0
VERTEX
8
0
6
CONTINUOUS
62
252
70
128
10
0.000000
20
0.000000
30
0.000000
71
61
72
30
73
31
0
VERTEX
8
0
6
CONTINUOUS
62
252
70
128
10
0.000000
20
0.000000
30
0.000000
71
61
72
31
73
32
0
VERTEX
8
0
6
CONTINUOUS
62
252
70
128
10
0.000000
20
0.000000
30
0.000000
71
61
72
32
73
120
0
VERTEX
8
0
6
CONTINUOUS
62
252
70
128
10
0.000000
20
0.000000
30
0.000000
71
120
72
32
73
33
0
VERTEX
8
0
6
CONTINUOUS
62
252
70
128
10
0.000000
20
0.000000
30
0.000000
71
120
72
33
73
119
0
VERTEX
8
0
6
CONTINUOUS
62
252
70
128
10
0.000000
20
0.000000
30
0.000000
71
119
72
33
73
34
0
VERTEX
8
0
6
CONTINUOUS
62
252
70
128
10
0.000000
20
0.000000
30
0.000000
71
119
72
34
73
118
0
VERTEX
8
0
6
CONTINUOUS
62
252
70
128
10
0.000000
20
0.000000
30
0.000000
71
118
72
34
73
35
0
VERTEX
8
0
6
CONTINUOUS
62
252
70
128
10
0.000000
20
0.000000
30
0.000000
71
118
72
35
73
117
0
VERTEX
8
0
6
CONTINUOUS
62
252
70
128
10
0.000000
20
0.000000
30
0.000000
71
117
72
35
73
36
0
VERTEX
8
0
6
CONTINUOUS
62
252
70
128
10
0.000000
20
0.000000
30
0.000000
71
117
72
36
73
116
0
VERTEX
8
0
6
CONTINUOUS
62
252
70
128
10
0.000000
20
0.000000
30
0.000000
71
116
72
36
73
115
0
VERTEX
8
0
6
CONTINUOUS
62
252
70
128
10
0.000000
20
0.000000
30
0.000000
71
115
72
36
73
37
0
VERTEX
8
0
6
CONTINUOUS
62
252
70
128
10
0.000000
20
0.000000
30
0.000000
71
115
72
37
73
38
0
VERTEX
8
0
6
CONTINUOUS
62
252
70
128
10
0.000000
20
0.000000
30
0.000000
71
115
72
38
73
114
0
VERTEX
8
0
6
CONTINUOUS
62
252
70
128
10
0.000000
20
0.000000
30
0.000000
71
114
72
38
73
39
0
VERTEX
8
0
6
CONTINUOUS
62
252
70
128
10
0.000000
20
0.000000
30
0.000000
71
114
72
39
73
113
0
VERTEX
8
0
6
CONTINUOUS
62
252
70
128
10
0.000000
20
0.000000
30
0.000000
71
113
72
39
73
40
0
VERTEX
8
0
6
CONTINUOUS
62
252
70
128
10
0.000000
20
0.000000
30
0.000000
71
113
72
40
73
112
0
VERTEX
8
0
6
CONTINUOUS
62
252
70
128
10
0.000000
20
0.000000
30
0.000000
71
112
72
40
73
41
0
VERTEX
8
0
6
CONTINUOUS
62
252
70
128
10
0.000000
20
0.000000
30
0.000000
71
112
72
41
73
111
0
VERTEX
8
0
6
CONTINUOUS
62
252
70
128
10
0.000000
20
0.000000
30
0.000000
71
111
72
41
73
42
0
VERTEX
8
0
6
CONTINUOUS
62
252
70
128
10
0.000000
20
0.000000
30
0.000000
71
111
72
42
73
110
0
VERTEX
8
0
6
CONTINUOUS
62
252
70
128
10
0.000000
20
0.000000
30
0.000000
71
110
72
42
73
43
0
VERTEX
8
0
6
CONTINUOUS
62
252
70
128
10
0.000000
20
0.000000
30
0.000000
71
110
72
43
73
109
0
VERTEX
8
0
6
CONTINUOUS
62
252
70
128
10
0.000000
20
0.000000
30
0.000000
71
109
72
43
73
44
0
VERTEX
8
0
6
CONTINUOUS
62
252
70
128
10
0.000000
20
0.000000
30
0.000000
71
109
72
44
73
108
0
VERTEX
8
0
6
CONTINUOUS
62
252
70
128
10
0.000000
20
0.000000
30
0.000000
71
108
72
44
73
45
0
VERTEX
8
0
6
CONTINUOUS
62
252
70
128
10
0.000000
20
0.000000
30
0.000000
71
108
72
45
73
107
0
VERTEX
8
0
6
CONTINUOUS
62
252
70
128
10
0.000000
20
0.000000
30
0.000000
71
107
72
45
73
46
0
VERTEX
8
0
6
CONTINUOUS
62
252
70
128
10
0.000000
20
0.000000
30
0.000000
71
107
72
46
73
106
0
VERTEX
8
0
6
CONTINUOUS
62
252
70
128
10
0.000000
20
0.000000
30
0.000000
71
106
72
46
73
105
0
VERTEX
8
0
6
CONTINUOUS
62
252
70
128
10
0.000000
20
0.000000
30
0.000000
71
105
72
46
73
47
0
VERTEX
8
0
6
CONTINUOUS
62
252
70
128
10
0.000000
20
0.000000
30
0.000000
71
105
72
47
73
48
0
VERTEX
8
0
6
CONTINUOUS
62
252
70
128
10
0.000000
20
0.000000
30
0.000000
71
105
72
48
73
104
0
VERTEX
8
0
6
CONTINUOUS
62
252
70
128
10
0.000000
20
0.000000
30
0.000000
71
104
72
48
73
49
0
VERTEX
8
0
6
CONTINUOUS
62
252
70
128
10
0.000000
20
0.000000
30
0.000000
71
104
72
49
73
103
0
VERTEX
8
0
6
CONTINUOUS
62
252
70
128
10
0.000000
20
0.000000
30
0.000000
71
103
72
49
73
50
0
VERTEX
8
0
6
CONTINUOUS
62
252
70
128
10
0.000000
20
0.000000
30
0.000000
71
103
72
50
73
102
0
VERTEX
8
0
6
CONTINUOUS
62
252
70
128
10
0.000000
20
0.000000
30
0.000000
71
102
72
50
73
51
0
VERTEX
8
0
6
CONTINUOUS
62
252
70
128
10
0.000000
20
0.000000
30
0.000000
71
102
72
51
73
101
0
VERTEX
8
0
6
CONTINUOUS
62
252
70
128
10
0.000000
20
0.000000
30
0.000000
71
101
72
51
73
52
0
VERTEX
8
0
6
CONTINUOUS
62
252
70
128
10
0.000000
20
0.000000
30
0.000000
71
101
72
52
73
100
0
VERTEX
8
0
6
CONTINUOUS
62
252
70
128
10
0.000000
20
0.000000
30
0.000000
71
100
72
52
73
99
0
VERTEX
8
0
6
CONTINUOUS
62
252
70
128
10
0.000000
20
0.000000
30
0.000000
71
99
72
52
73
53
0
VERTEX
8
0
6
CONTINUOUS
62
252
70
128
10
0.000000
20
0.000000
30
0.000000
71
99
72
53
73
54
0
VERTEX
8
0
6
CONTINUOUS
62
252
70
128
10
0.000000
20
0.000000
30
0.000000
71
99
72
54
73
98
0
VERTEX
8
0
6
CONTINUOUS
62
252
70
128
10
0.000000
20
0.000000
30
0.000000
71
98
72
54
73
55
0
VERTEX
8
0
6
CONTINUOUS
62
252
70
128
10
0.000000
20
0.000000
30
0.000000
71
98
72
55
73
97
0
VERTEX
8
0
6
CONTINUOUS
62
252
70
128
10
0.000000
20
0.000000
30
0.000000
71
97
72
55
73
96
0
VERTEX
8
0
6
CONTINUOUS
62
252
70
128
10
0.000000
20
0.000000
30
0.000000
71
96
72
55
73
56
0
VERTEX
8
0
6
CONTINUOUS
62
252
70
128
10
0.000000
20
0.000000
30
0.000000
71
96
72
56
73
57
0
VERTEX
8
0
6
CONTINUOUS
62
252
70
128
10
0.000000
20
0.000000
30
0.000000
71
96
72
57
73
95
0
VERTEX
8
0
6
CONTINUOUS
62
252
70
128
10
0.000000
20
0.000000
30
0.000000
71
95
72
57
73
58
0
VERTEX
8
0
6
CONTINUOUS
62
252
70
128
10
0.000000
20
0.000000
30
0.000000
71
95
72
58
73
94
0
VERTEX
8
0
6
CONTINUOUS
62
252
70
128
10
0.000000
20
0.000000
30
0.000000
71
94
72
58
73
93
0
VERTEX
8
0
6
CONTINUOUS
62
252
70
128
10
0.000000
20
0.000000
30
0.000000
71
93
72
58
73
59
0
VERTEX
8
0
6
CONTINUOUS
62
252
70
128
10
0.000000
20
0.000000
30
0.000000
71
93
72
59
73
60
0
VERTEX
8
0
6
CONTINUOUS
62
252
70
128
10
0.000000
20
0.000000
30
0.000000
71
93
72
60
73
92
0
VERTEX
8
0
6
CONTINUOUS
62
252
70
128
10
0.000000
20
0.000000
30
0.000000
71
92
72
60
73
1
0
SEQEND
0
POLYLINE
66
1
8
0
6
CONTINUOUS
62
252
70
64
75
0
10
0.000000
20
0.000000
30
0.000000
0
VERTEX
8
0
6
CONTINUOUS
62
252
70
192
10
0.600000
20
-0.218750
30
0.000000
0
VERTEX
8
0
6
CONTINUOUS
62
252
70
192
10
0.600000
20
-0.217552
30
-0.022866
0
VERTEX
8
0
6
CONTINUOUS
62
252
70
192
10
0.600000
20
-0.213970
30
-0.045481
0
VERTEX
8
0
6
CONTINUOUS
62
252
70
192
10
0.600000
20
-0.208044
30
-0.067597
0
VERTEX
8
0
6
CONTINUOUS
62
252
70
192
10
0.600000
20
-0.199838
30
-0.088974
0
VERTEX
8
0
6
CONTINUOUS
62
252
70
192
10
0.600000
20
-0.189443
30
-0.109375
0
VERTEX
8
0
6
CONTINUOUS
62
252
70
192
10
0.600000
20
-0.176972
30
-0.128578
0
VERTEX
8
0
6
CONTINUOUS
62
252
70
192
10
0.600000
20
-0.162563
30
-0.146372
0
VERTEX
8
0
6
CONTINUOUS
62
252
70
192
10
0.600000
20
-0.146372
30
-0.162563
0
VERTEX
8
0
6
CONTINUOUS
62
252
70
192
10
0.600000
20
-0.128578
30
-0.176972
0
VERTEX
8
0
6
CONTINUOUS
62
252
70
192
10
0.600000
20
-0.109375
30
-0.189443
0
VERTEX
8
0
6
CONTINUOUS
62
252
70
192
10
0.600000
20
-0.088974
30
-0.199838
0
VERTEX
8
0
6
CONTINUOUS
62
252
70
192
10
0.600000
20
-0.067597
30
-0.208044
0
VERTEX
8
0
6
CONTINUOUS
62
252
70
192
10
0.600000
20
-0.045481
30
-0.213970
0
VERTEX
8
0
6
CONTINUOUS
62
252
70
192
10
0.600000
20
-0.022866
30
-0.217552
0
VERTEX
8
0
6
CONTINUOUS
62
252
70
192
10
0.600000
20
-0.000000
30
-0.218750
0
VERTEX
8
0
6
CONTINUOUS
62
252
70
192
10
0.600000
20
0.022866
30
-0.217552
0
VERTEX
8
0
6
CONTINUOUS
62
252
70
192
10
0.600000
20
0.045481
30
-0.213970
0
VERTEX
8
0
6
CONTINUOUS
62
252
70
192
10
0.600000
20
0.067597
30
-0.208044
0
VERTEX
8
0
6
CONTINUOUS
62
252
70
192
10
0.600000
20
0.088974
30
-0.199838
0
VERTEX
8
0
6
CONTINUOUS
62
252
70
192
10
0.600000
20
0.109375
30
-0.189443
0
VERTEX
8
0
6
CONTINUOUS
62
252
70
192
10
0.600000
20
0.128578
30
-0.176972
0
VERTEX
8
0
6
CONTINUOUS
62
252
70
192
10
0.600000
20
0.146372
30
-0.162563
0
VERTEX
8
0
6
CONTINUOUS
62
252
70
192
10
0.600000
20
0.162563
30
-0.146372
0
VERTEX
8
0
6
CONTINUOUS
62
252
70
192
10
0.600000
20
0.176972
30
-0.128578
0
VERTEX
8
0
6
CONTINUOUS
62
252
70
192
10
0.600000
20
0.189443
30
-0.109375
0
VERTEX
8
0
6
CONTINUOUS
62
252
70
192
10
0.600000
20
0.199838
30
-0.088974
0
VERTEX
8
0
6
CONTINUOUS
62
252
70
192
10
0.600000
20
0.208044
30
-0.067597
0
VERTEX
8
0
6
CONTINUOUS
62
252
70
192
10
0.600000
20
0.213970
30
-0.045481
0
VERTEX
8
0
6
CONTINUOUS
62
252
70
192
10
0.600000
20
0.217552
30
-0.022866
0
VERTEX
8
0
6
CONTINUOUS
62
252
70
192
10
0.600000
20
0.218750
30
-0.000000
0
VERTEX
8
0
6
CONTINUOUS
62
252
70
192
10
0.600000
20
0.217552
30
0.022866
0
VERTEX
8
0
6
CONTINUOUS
62
252
70
192
10
0.600000
20
0.213970
30
0.045481
0
VERTEX
8
0
6
CONTINUOUS
62
252
70
192
10
0.600000
20
0.208044
30
0.067597
0
VERTEX
8
0
6
CONTINUOUS
62
252
70
192
10
0.600000
20
0.199838
30
0.088974
0
VERTEX
8
0
6
CONTINUOUS
62
252
70
192
10
0.600000
20
0.189443
30
0.109375
0
VERTEX
8
0
6
CONTINUOUS
62
252
70
192
10
0.600000
20
0.176972
30
0.128578
0
VERTEX
8
0
6
CONTINUOUS
62
252
70
192
10
0.600000
20
0.162563
30
0.146372
0
VERTEX
8
0
6
CONTINUOUS
62
252
70
192
10
0.600000
20
0.146372
30
0.162563
0
VERTEX
8
0
6
CONTINUOUS
62
252
70
192
10
0.600000
20
0.128578
30
0.176972
0
VERTEX
8
0
6
CONTINUOUS
62
252
70
192
10
0.600000
20
0.109375
30
0.189443
0
VERTEX
8
0
6
CONTINUOUS
62
252
70
192
10
0.600000
20
0.088974
30
0.199838
0
VERTEX
8
0
6
CONTINUOUS
62
252
70
192
10
0.600000
20
0.067597
30
0.208044
0
VERTEX
8
0
6
CONTINUOUS
62
252
70
192
10
0.600000
20
0.045481
30
0.213970
0
VERTEX
8
0
6
CONTINUOUS
62
252
70
192
10
0.600000
20
0.022866
30
0.217552
0
VERTEX
8
0
6
CONTINUOUS
62
252
70
192
10
0.600000
20
0.000000
30
0.218750
0
VERTEX
8
0
6
CONTINUOUS
62
252
70
192
10
0.600000
20
-0.022866
30
0.217552
0
VERTEX
8
0
6
CONTINUOUS
62
252
70
192
10
0.600000
20
-0.045481
30
0.213970
0
VERTEX
8
0
6
CONTINUOUS
62
252
70
192
10
0.600000
20
-0.067597
30
0.208044
0
VERTEX
8
0
6
CONTINUOUS
62
252
70
192
10
0.600000
20
-0.088974
30
0.199838
0
VERTEX
8
0
6
CONTINUOUS
62
252
70
192
10
0.600000
20
-0.109375
30
0.189443
0
VERTEX
8
0
6
CONTINUOUS
62
252
70
192
10
0.600000
20
-0.128578
30
0.176972
0
VERTEX
8
0
6
CONTINUOUS
62
252
70
192
10
0.600000
20
-0.146372
30
0.162563
0
VERTEX
8
0
6
CONTINUOUS
62
252
70
192
10
0.600000
20
-0.162563
30
0.146372
0
VERTEX
8
0
6
CONTINUOUS
62
252
70
192
10
0.600000
20
-0.176972
30
0.128578
0
VERTEX
8
0
6
CONTINUOUS
62
252
70
192
10
0.600000
20
-0.189443
30
0.109375
0
VERTEX
8
0
6
CONTINUOUS
62
252
70
192
10
0.600000
20
-0.199838
30
0.088974
0
VERTEX
8
0
6
CONTINUOUS
62
252
70
192
10
0.600000
20
-0.208044
30
0.067597
0
VERTEX
8
0
6
CONTINUOUS
62
252
70
192
10
0.600000
20
-0.213970
30
0.045481
0
VERTEX
8
0
6
CONTINUOUS
62
252
70
192
10
0.600000
20
-0.217552
30
0.022866
0
VERTEX
8
0
6
CONTINUOUS
62
252
70
192
10
0.600000
20
0.000000
30
0.187500
0
VERTEX
8
0
6
CONTINUOUS
62
252
70
192
10
0.600000
20
0.019599
30
0.186473
0
VERTEX
8
0
6
CONTINUOUS
62
252
70
192
10
0.600000
20
0.038983
30
0.183403
0
VERTEX
8
0
6
CONTINUOUS
62
252
70
192
10
0.600000
20
0.057941
30
0.178323
0
VERTEX
8
0
6
CONTINUOUS
62
252
70
192
10
0.600000
20
0.076263
30
0.171290
0
VERTEX
8
0
6
CONTINUOUS
62
252
70
192
10
0.600000
20
0.093750
30
0.162380
0
VERTEX
8
0
6
CONTINUOUS
62
252
70
192
10
0.600000
20
0.110210
30
0.151691
0
VERTEX
8
0
6
CONTINUOUS
62
252
70
192
10
0.600000
20
0.125462
30
0.139340
0
VERTEX
8
0
6
CONTINUOUS
62
252
70
192
10
0.600000
20
0.139340
30
0.125462
0
VERTEX
8
0
6
CONTINUOUS
62
252
70
192
10
0.600000
20
0.151691
30
0.110210
0
VERTEX
8
0
6
CONTINUOUS
62
252
70
192
10
0.600000
20
0.162380
30
0.093750
0
VERTEX
8
0
6
CONTINUOUS
62
252
70
192
10
0.600000
20
0.171290
30
0.076263
0
VERTEX
8
0
6
CONTINUOUS
62
252
70
192
10
0.600000
20
0.178323
30
0.057941
0
VERTEX
8
0
6
CONTINUOUS
62
252
70
192
10
0.600000
20
0.183403
30
0.038983
0
VERTEX
8
0
6
CONTINUOUS
62
252
70
192
10
0.600000
20
0.186473
30
0.019599
0
VERTEX
8
0
6
CONTINUOUS
62
252
70
192
10
0.600000
20
0.187500
30
0.000000
0
VERTEX
8
0
6
CONTINUOUS
62
252
70
192
10
0.600000
20
0.186473
30
-0.019599
0
VERTEX
8
0
6
CONTINUOUS
62
252
70
192
10
0.600000
20
0.183403
30
-0.038983
0
VERTEX
8
0
6
CONTINUOUS
62
252
70
192
10
0.600000
20
0.178323
30
-0.057941
0
VERTEX
8
0
6
CONTINUOUS
62
252
70
192
10
0.600000
20
0.171290
30
-0.076263
0
VERTEX
8
0
6
CONTINUOUS
62
252
70
192
10
0.600000
20
0.162380
30
-0.093750
0
VERTEX
8
0
6
CONTINUOUS
62
252
70
192
10
0.600000
20
0.151691
30
-0.110210
0
VERTEX
8
0
6
CONTINUOUS
62
252
70
192
10
0.600000
20
0.139340
30
-0.125462
0
VERTEX
8
0
6
CONTINUOUS
62
252
70
192
10
0.600000
20
0.125462
30
-0.139340
0
VERTEX
8
0
6
CONTINUOUS
62
252
70
192
10
0.600000
20
0.110210
30
-0.151691
0
VERTEX
8
0
6
CONTINUOUS
62
252
70
192
10
0.600000
20
0.093750
30
-0.162380
0
VERTEX
8
0
6
CONTINUOUS
62
252
70
192
10
0.600000
20
0.076263
30
-0.171290
0
VERTEX
8
0
6
CONTINUOUS
62
252
70
192
10
0.600000
20
0.057941
30
-0.178323
0
VERTEX
8
0
6
CONTINUOUS
62
252
70
192
10
0.600000
20
0.038983
30
-0.183403
0
VERTEX
8
0
6
CONTINUOUS
62
252
70
192
10
0.600000
20
0.019599
30
-0.186473
0
VERTEX
8
0
6
CONTINUOUS
62
252
70
192
10
0.600000
20
0.000000
30
-0.187500
0
VERTEX
8
0
6
CONTINUOUS
62
252
70
192
10
0.600000
20
-0.019599
30
-0.186473
0
VERTEX
8
0
6
CONTINUOUS
62
252
70
192
10
0.600000
20
-0.038983
30
-0.183403
0
VERTEX
8
0
6
CONTINUOUS
62
252
70
192
10
0.600000
20
-0.057941
30
-0.178323
0
VERTEX
8
0
6
CONTINUOUS
62
252
70
192
10
0.600000
20
-0.076263
30
-0.171290
0
VERTEX
8
0
6
CONTINUOUS
62
252
70
192
10
0.600000
20
-0.093750
30
-0.162380
0
VERTEX
8
0
6
CONTINUOUS
62
252
70
192
10
0.600000
20
-0.110210
30
-0.151691
0
VERTEX
8
0
6
CONTINUOUS
62
252
70
192
10
0.600000
20
-0.125462
30
-0.139340
0
VERTEX
8
0
6
CONTINUOUS
62
252
70
192
10
0.600000
20
-0.139340
30
-0.125462
0
VERTEX
8
0
6
CONTINUOUS
62
252
70
192
10
0.600000
20
-0.151691
30
-0.110210
0
VERTEX
8
0
6
CONTINUOUS
62
252
70
192
10
0.600000
20
-0.162380
30
-0.093750
0
VERTEX
8
0
6
CONTINUOUS
62
252
70
192
10
0.600000
20
-0.171290
30
-0.076263
0
VERTEX
8
0
6
CONTINUOUS
62
252
70
192
10
0.600000
20
-0.178323
30
-0.057941
0
VERTEX
8
0
6
CONTINUOUS
62
252
70
192
10
0.600000
20
-0.183403
30
-0.038983
0
VERTEX
8
0
6
CONTINUOUS
62
252
70
192
10
0.600000
20
-0.186473
30
-0.019599
0
VERTEX
8
0
6
CONTINUOUS
62
252
70
192
10
0.600000
20
-0.187500
30
-0.000000
0
VERTEX
8
0
6
CONTINUOUS
62
252
70
192
10
0.600000
20
-0.186473
30
0.019599
0
VERTEX
8
0
6
CONTINUOUS
62
252
70
192
10
0.600000
20
-0.183403
30
0.038983
0
VERTEX
8
0
6
CONTINUOUS
62
252
70
192
10
0.600000
20
-0.178323
30
0.057941
0
VERTEX
8
0
6
CONTINUOUS
62
252
70
192
10
0.600000
20
-0.171290
30
0.076263
0
VERTEX
8
0
6
CONTINUOUS
62
252
70
192
10
0.600000
20
-0.162380
30
0.093750
0
VERTEX
8
0
6
CONTINUOUS
62
252
70
192
10
0.600000
20
-0.151691
30
0.110210
0
VERTEX
8
0
6
CONTINUOUS
62
252
70
192
10
0.600000
20
-0.139340
30
0.125462
0
VERTEX
8
0
6
CONTINUOUS
62
252
70
192
10
0.600000
20
-0.125462
30
0.139340
0
VERTEX
8
0
6
CONTINUOUS
62
252
70
192
10
0.600000
20
-0.110210
30
0.151691
0
VERTEX
8
0
6
CONTINUOUS
62
252
70
192
10
0.600000
20
-0.093750
30
0.162380
0
VERTEX
8
0
6
CONTINUOUS
62
252
70
192
10
0.600000
20
-0.076263
30
0.171290
0
VERTEX
8
0
6
CONTINUOUS
62
252
70
192
10
0.600000
20
-0.057941
30
0.178323
0
VERTEX
8
0
6
CONTINUOUS
62
252
70
192
10
0.600000
20
-0.038983
30
0.183403
0
VERTEX
8
0
6
CONTINUOUS
62
252
70
192
10
0.600000
20
-0.019599
30
0.186473
0
VERTEX
8
0
6
CONTINUOUS
62
252
70
128
10
0.000000
20
0.000000
30
0.000000
71
2
72
106
73
1
0
VERTEX
8
0
6
CONTINUOUS
62
252
70
128
10
0.000000
20
0.000000
30
0.000000
71
1
72
106
73
107
0
VERTEX
8
0
6
CONTINUOUS
62
252
70
128
10
0.000000
20
0.000000
30
0.000000
71
1
72
107
73
60
0
VERTEX
8
0
6
CONTINUOUS
62
252
70
128
10
0.000000
20
0.000000
30
0.000000
71
60
72
107
73
108
0
VERTEX
8
0
6
CONTINUOUS
62
252
70
128
10
0.000000
20
0.000000
30
0.000000
71
60
72
108
73
59
0
VERTEX
8
0
6
CONTINUOUS
62
252
70
128
10
0.000000
20
0.000000
30
0.000000
71
59
72
108
73
109
0
VERTEX
8
0
6
CONTINUOUS
62
252
70
128
10
0.000000
20
0.000000
30
0.000000
71
59
72
109
73
58
0
VERTEX
8
0
6
CONTINUOUS
62
252
70
128
10
0.000000
20
0.000000
30
0.000000
71
58
72
109
73
110
0
VERTEX
8
0
6
CONTINUOUS
62
252
70
128
10
0.000000
20
0.000000
30
0.000000
71
58
72
110
73
57
0
VERTEX
8
0
6
CONTINUOUS
62
252
70
128
10
0.000000
20
0.000000
30
0.000000
71
57
72
110
73
111
0
VERTEX
8
0
6
CONTINUOUS
62
252
70
128
10
0.000000
20
0.000000
30
0.000000
71
57
72
111
73
56
0
VERTEX
8
0
6
CONTINUOUS
62
252
70
128
10
0.000000
20
0.000000
30
0.000000
71
56
72
111
73
112
0
VERTEX
8
0
6
CONTINUOUS
62
252
70
128
10
0.000000
20
0.000000
30
0.000000
71
56
72
112
73
55
0
VERTEX
8
0
6
CONTINUOUS
62
252
70
128
10
0.000000
20
0.000000
30
0.000000
71
55
72
112
73
113
0
VERTEX
8
0
6
CONTINUOUS
62
252
70
128
10
0.000000
20
0.000000
30
0.000000
71
55
72
113
73
54
0
VERTEX
8
0
6
CONTINUOUS
62
252
70
128
10
0.000000
20
0.000000
30
0.000000
71
54
72
113
73
114
0
VERTEX
8
0
6
CONTINUOUS
62
252
70
128
10
0.000000
20
0.000000
30
0.000000
71
54
72
114
73
53
0
VERTEX
8
0
6
CONTINUOUS
62
252
70
128
10
0.000000
20
0.000000
30
0.000000
71
53
72
114
73
115
0
VERTEX
8
0
6
CONTINUOUS
62
252
70
128
10
0.000000
20
0.000000
30
0.000000
71
53
72
115
73
52
0
VERTEX
8
0
6
CONTINUOUS
62
252
70
128
10
0.000000
20
0.000000
30
0.000000
71
52
72
115
73
51
0
VERTEX
8
0
6
CONTINUOUS
62
252
70
128
10
0.000000
20
0.000000
30
0.000000
71
51
72
115
73
116
0
VERTEX
8
0
6
CONTINUOUS
62
252
70
128
10
0.000000
20
0.000000
30
0.000000
71
51
72
116
73
117
0
VERTEX
8
0
6
CONTINUOUS
62
252
70
128
10
0.000000
20
0.000000
30
0.000000
71
106
72
2
73
105
0
VERTEX
8
0
6
CONTINUOUS
62
252
70
128
10
0.000000
20
0.000000
30
0.000000
71
105
72
2
73
3
0
VERTEX
8
0
6
CONTINUOUS
62
252
70
128
10
0.000000
20
0.000000
30
0.000000
71
105
72
3
73
104
0
VERTEX
8
0
6
CONTINUOUS
62
252
70
128
10
0.000000
20
0.000000
30
0.000000
71
104
72
3
73
4
0
VERTEX
8
0
6
CONTINUOUS
62
252
70
128
10
0.000000
20
0.000000
30
0.000000
71
104
72
4
73
103
0
VERTEX
8
0
6
CONTINUOUS
62
252
70
128
10
0.000000
20
0.000000
30
0.000000
71
103
72
4
73
5
0
VERTEX
8
0
6
CONTINUOUS
62
252
70
128
10
0.000000
20
0.000000
30
0.000000
71
103
72
5
73
102
0
VERTEX
8
0
6
CONTINUOUS
62
252
70
128
10
0.000000
20
0.000000
30
0.000000
71
102
72
5
73
6
0
VERTEX
8
0
6
CONTINUOUS
62
252
70
128
10
0.000000
20
0.000000
30
0.000000
71
102
72
6
73
101
0
VERTEX
8
0
6
CONTINUOUS
62
252
70
128
10
0.000000
20
0.000000
30
0.000000
71
101
72
6
73
7
0
VERTEX
8
0
6
CONTINUOUS
62
252
70
128
10
0.000000
20
0.000000
30
0.000000
71
101
72
7
73
100
0
VERTEX
8
0
6
CONTINUOUS
62
252
70
128
10
0.000000
20
0.000000
30
0.000000
71
100
72
7
73
8
0
VERTEX
8
0
6
CONTINUOUS
62
252
70
128
10
0.000000
20
0.000000
30
0.000000
71
100
72
8
73
99
0
VERTEX
8
0
6
CONTINUOUS
62
252
70
128
10
0.000000
20
0.000000
30
0.000000
71
99
72
8
73
9
0
VERTEX
8
0
6
CONTINUOUS
62
252
70
128
10
0.000000
20
0.000000
30
0.000000
71
99
72
9
73
98
0
VERTEX
8
0
6
CONTINUOUS
62
252
70
128
10
0.000000
20
0.000000
30
0.000000
71
98
72
9
73
10
0
VERTEX
8
0
6
CONTINUOUS
62
252
70
128
10
0.000000
20
0.000000
30
0.000000
71
98
72
10
73
97
0
VERTEX
8
0
6
CONTINUOUS
62
252
70
128
10
0.000000
20
0.000000
30
0.000000
71
97
72
10
73
11
0
VERTEX
8
0
6
CONTINUOUS
62
252
70
128
10
0.000000
20
0.000000
30
0.000000
71
97
72
11
73
96
0
VERTEX
8
0
6
CONTINUOUS
62
252
70
128
10
0.000000
20
0.000000
30
0.000000
71
96
72
11
73
12
0
VERTEX
8
0
6
CONTINUOUS
62
252
70
128
10
0.000000
20
0.000000
30
0.000000
71
96
72
12
73
95
0
VERTEX
8
0
6
CONTINUOUS
62
252
70
128
10
0.000000
20
0.000000
30
0.000000
71
95
72
12
73
13
0
VERTEX
8
0
6
CONTINUOUS
62
252
70
128
10
0.000000
20
0.000000
30
0.000000
71
95
72
13
73
94
0
VERTEX
8
0
6
CONTINUOUS
62
252
70
128
10
0.000000
20
0.000000
30
0.000000
71
94
72
13
73
14
0
VERTEX
8
0
6
CONTINUOUS
62
252
70
128
10
0.000000
20
0.000000
30
0.000000
71
94
72
14
73
93
0
VERTEX
8
0
6
CONTINUOUS
62
252
70
128
10
0.000000
20
0.000000
30
0.000000
71
93
72
14
73
15
0
VERTEX
8
0
6
CONTINUOUS
62
252
70
128
10
0.000000
20
0.000000
30
0.000000
71
93
72
15
73
92
0
VERTEX
8
0
6
CONTINUOUS
62
252
70
128
10
0.000000
20
0.000000
30
0.000000
71
92
72
15
73
16
0
VERTEX
8
0
6
CONTINUOUS
62
252
70
128
10
0.000000
20
0.000000
30
0.000000
71
92
72
16
73
91
0
VERTEX
8
0
6
CONTINUOUS
62
252
70
128
10
0.000000
20
0.000000
30
0.000000
71
91
72
16
73
17
0
VERTEX
8
0
6
CONTINUOUS
62
252
70
128
10
0.000000
20
0.000000
30
0.000000
71
91
72
17
73
90
0
VERTEX
8
0
6
CONTINUOUS
62
252
70
128
10
0.000000
20
0.000000
30
0.000000
71
90
72
17
73
18
0
VERTEX
8
0
6
CONTINUOUS
62
252
70
128
10
0.000000
20
0.000000
30
0.000000
71
90
72
18
73
89
0
VERTEX
8
0
6
CONTINUOUS
62
252
70
128
10
0.000000
20
0.000000
30
0.000000
71
89
72
18
73
19
0
VERTEX
8
0
6
CONTINUOUS
62
252
70
128
10
0.000000
20
0.000000
30
0.000000
71
89
72
19
73
88
0
VERTEX
8
0
6
CONTINUOUS
62
252
70
128
10
0.000000
20
0.000000
30
0.000000
71
88
72
19
73
20
0
VERTEX
8
0
6
CONTINUOUS
62
252
70
128
10
0.000000
20
0.000000
30
0.000000
71
88
72
20
73
87
0
VERTEX
8
0
6
CONTINUOUS
62
252
70
128
10
0.000000
20
0.000000
30
0.000000
71
87
72
20
73
21
0
VERTEX
8
0
6
CONTINUOUS
62
252
70
128
10
0.000000
20
0.000000
30
0.000000
71
87
72
21
73
86
0
VERTEX
8
0
6
CONTINUOUS
62
252
70
128
10
0.000000
20
0.000000
30
0.000000
71
86
72
21
73
22
0
VERTEX
8
0
6
CONTINUOUS
62
252
70
128
10
0.000000
20
0.000000
30
0.000000
71
86
72
22
73
85
0
VERTEX
8
0
6
CONTINUOUS
62
252
70
128
10
0.000000
20
0.000000
30
0.000000
71
85
72
22
73
23
0
VERTEX
8
0
6
CONTINUOUS
62
252
70
128
10
0.000000
20
0.000000
30
0.000000
71
85
72
23
73
84
0
VERTEX
8
0
6
CONTINUOUS
62
252
70
128
10
0.000000
20
0.000000
30
0.000000
71
84
72
23
73
24
0
VERTEX
8
0
6
CONTINUOUS
62
252
70
128
10
0.000000
20
0.000000
30
0.000000
71
84
72
24
73
83
0
VERTEX
8
0
6
CONTINUOUS
62
252
70
128
10
0.000000
20
0.000000
30
0.000000
71
83
72
24
73
25
0
VERTEX
8
0
6
CONTINUOUS
62
252
70
128
10
0.000000
20
0.000000
30
0.000000
71
83
72
25
73
82
0
VERTEX
8
0
6
CONTINUOUS
62
252
70
128
10
0.000000
20
0.000000
30
0.000000
71
82
72
25
73
26
0
VERTEX
8
0
6
CONTINUOUS
62
252
70
128
10
0.000000
20
0.000000
30
0.000000
71
82
72
26
73
81
0
VERTEX
8
0
6
CONTINUOUS
62
252
70
128
10
0.000000
20
0.000000
30
0.000000
71
81
72
26
73
27
0
VERTEX
8
0
6
CONTINUOUS
62
252
70
128
10
0.000000
20
0.000000
30
0.000000
71
81
72
27
73
80
0
VERTEX
8
0
6
CONTINUOUS
62
252
70
128
10
0.000000
20
0.000000
30
0.000000
71
80
72
27
73
28
0
VERTEX
8
0
6
CONTINUOUS
62
252
70
128
10
0.000000
20
0.000000
30
0.000000
71
80
72
28
73
79
0
VERTEX
8
0
6
CONTINUOUS
62
252
70
128
10
0.000000
20
0.000000
30
0.000000
71
79
72
28
73
29
0
VERTEX
8
0
6
CONTINUOUS
62
252
70
128
10
0.000000
20
0.000000
30
0.000000
71
79
72
29
73
78
0
VERTEX
8
0
6
CONTINUOUS
62
252
70
128
10
0.000000
20
0.000000
30
0.000000
71
78
72
29
73
30
0
VERTEX
8
0
6
CONTINUOUS
62
252
70
128
10
0.000000
20
0.000000
30
0.000000
71
78
72
30
73
77
0
VERTEX
8
0
6
CONTINUOUS
62
252
70
128
10
0.000000
20
0.000000
30
0.000000
71
77
72
30
73
31
0
VERTEX
8
0
6
CONTINUOUS
62
252
70
128
10
0.000000
20
0.000000
30
0.000000
71
77
72
31
73
76
0
VERTEX
8
0
6
CONTINUOUS
62
252
70
128
10
0.000000
20
0.000000
30
0.000000
71
76
72
31
73
32
0
VERTEX
8
0
6
CONTINUOUS
62
252
70
128
10
0.000000
20
0.000000
30
0.000000
71
76
72
32
73
75
0
VERTEX
8
0
6
CONTINUOUS
62
252
70
128
10
0.000000
20
0.000000
30
0.000000
71
75
72
32
73
33
0
VERTEX
8
0
6
CONTINUOUS
62
252
70
128
10
0.000000
20
0.000000
30
0.000000
71
75
72
33
73
74
0
VERTEX
8
0
6
CONTINUOUS
62
252
70
128
10
0.000000
20
0.000000
30
0.000000
71
74
72
33
73
34
0
VERTEX
8
0
6
CONTINUOUS
62
252
70
128
10
0.000000
20
0.000000
30
0.000000
71
74
72
34
73
73
0
VERTEX
8
0
6
CONTINUOUS
62
252
70
128
10
0.000000
20
0.000000
30
0.000000
71
73
72
34
73
72
0
VERTEX
8
0
6
CONTINUOUS
62
252
70
128
10
0.000000
20
0.000000
30
0.000000
71
72
72
34
73
35
0
VERTEX
8
0
6
CONTINUOUS
62
252
70
128
10
0.000000
20
0.000000
30
0.000000
71
72
72
35
73
71
0
VERTEX
8
0
6
CONTINUOUS
62
252
70
128
10
0.000000
20
0.000000
30
0.000000
71
71
72
35
73
36
0
VERTEX
8
0
6
CONTINUOUS
62
252
70
128
10
0.000000
20
0.000000
30
0.000000
71
71
72
36
73
70
0
VERTEX
8
0
6
CONTINUOUS
62
252
70
128
10
0.000000
20
0.000000
30
0.000000
71
70
72
36
73
37
0
VERTEX
8
0
6
CONTINUOUS
62
252
70
128
10
0.000000
20
0.000000
30
0.000000
71
70
72
37
73
69
0
VERTEX
8
0
6
CONTINUOUS
62
252
70
128
10
0.000000
20
0.000000
30
0.000000
71
69
72
37
73
38
0
VERTEX
8
0
6
CONTINUOUS
62
252
70
128
10
0.000000
20
0.000000
30
0.000000
71
69
72
38
73
68
0
VERTEX
8
0
6
CONTINUOUS
62
252
70
128
10
0.000000
20
0.000000
30
0.000000
71
68
72
38
73
39
0
VERTEX
8
0
6
CONTINUOUS
62
252
70
128
10
0.000000
20
0.000000
30
0.000000
71
68
72
39
73
67
0
VERTEX
8
0
6
CONTINUOUS
62
252
70
128
10
0.000000
20
0.000000
30
0.000000
71
67
72
39
73
40
0
VERTEX
8
0
6
CONTINUOUS
62
252
70
128
10
0.000000
20
0.000000
30
0.000000
71
67
72
40
73
66
0
VERTEX
8
0
6
CONTINUOUS
62
252
70
128
10
0.000000
20
0.000000
30
0.000000
71
66
72
40
73
41
0
VERTEX
8
0
6
CONTINUOUS
62
252
70
128
10
0.000000
20
0.000000
30
0.000000
71
66
72
41
73
65
0
VERTEX
8
0
6
CONTINUOUS
62
252
70
128
10
0.000000
20
0.000000
30
0.000000
71
65
72
41
73
42
0
VERTEX
8
0
6
CONTINUOUS
62
252
70
128
10
0.000000
20
0.000000
30
0.000000
71
65
72
42
73
64
0
VERTEX
8
0
6
CONTINUOUS
62
252
70
128
10
0.000000
20
0.000000
30
0.000000
71
64
72
42
73
43
0
VERTEX
8
0
6
CONTINUOUS
62
252
70
128
10
0.000000
20
0.000000
30
0.000000
71
64
72
43
73
63
0
VERTEX
8
0
6
CONTINUOUS
62
252
70
128
10
0.000000
20
0.000000
30
0.000000
71
63
72
43
73
44
0
VERTEX
8
0
6
CONTINUOUS
62
252
70
128
10
0.000000
20
0.000000
30
0.000000
71
63
72
44
73
62
0
VERTEX
8
0
6
CONTINUOUS
62
252
70
128
10
0.000000
20
0.000000
30
0.000000
71
62
72
44
73
45
0
VERTEX
8
0
6
CONTINUOUS
62
252
70
128
10
0.000000
20
0.000000
30
0.000000
71
62
72
45
73
61
0
VERTEX
8
0
6
CONTINUOUS
62
252
70
128
10
0.000000
20
0.000000
30
0.000000
71
61
72
45
73
46
0
VERTEX
8
0
6
CONTINUOUS
62
252
70
128
10
0.000000
20
0.000000
30
0.000000
71
61
72
46
73
47
0
VERTEX
8
0
6
CONTINUOUS
62
252
70
128
10
0.000000
20
0.000000
30
0.000000
71
61
72
47
73
120
0
VERTEX
8
0
6
CONTINUOUS
62
252
70
128
10
0.000000
20
0.000000
30
0.000000
71
120
72
47
73
48
0
VERTEX
8
0
6
CONTINUOUS
62
252
70
128
10
0.000000
20
0.000000
30
0.000000
71
120
72
48
73
119
0
VERTEX
8
0
6
CONTINUOUS
62
252
70
128
10
0.000000
20
0.000000
30
0.000000
71
119
72
48
73
49
0
VERTEX
8
0
6
CONTINUOUS
62
252
70
128
10
0.000000
20
0.000000
30
0.000000
71
119
72
49
73
118
0
VERTEX
8
0
6
CONTINUOUS
62
252
70
128
10
0.000000
20
0.000000
30
0.000000
71
118
72
49
73
50
0
VERTEX
8
0
6
CONTINUOUS
62
252
70
128
10
0.000000
20
0.000000
30
0.000000
71
118
72
50
73
117
0
VERTEX
8
0
6
CONTINUOUS
62
252
70
128
10
0.000000
20
0.000000
30
0.000000
71
117
72
50
73
51
0
SEQEND
0
POLYLINE
66
1
8
0
6
CONTINUOUS
62
252
70
64
75
0
10
0.000000
20
0.000000
30
0.000000
0
VERTEX
8
0
6
CONTINUOUS
62
252
70
192
10
0.600000
20
-0.109375
30
0.189443
0
VERTEX
8
0
6
CONTINUOUS
62
252
70
192
10
0.599028
20
-0.135596
30
0.174305
0
VERTEX
8
0
6
CONTINUOUS
62
252
70
192
10
0.596128
20
-0.162063
30
0.159024
0
VERTEX
8
0
6
CONTINUOUS
62
252
70
192
10
0.591248
20
-0.189516
30
0.143174
0
VERTEX
8
0
6
CONTINUOUS
62
252
70
192
10
0.584220
20
-0.218750
30
0.126295
0
VERTEX
8
0
6
CONTINUOUS
62
252
70
192
10
0.591248
20
-0.218750
30
0.092539
0
VERTEX
8
0
6
CONTINUOUS
62
252
70
192
10
0.596128
20
-0.218750
30
0.060839
0
VERTEX
8
0
6
CONTINUOUS
62
252
70
192
10
0.599028
20
-0.218750
30
0.030277
0
VERTEX
8
0
6
CONTINUOUS
62
252
70
192
10
0.600000
20
-0.218750
30
0.000000
0
VERTEX
8
0
6
CONTINUOUS
62
252
70
192
10
0.600000
20
-0.217552
30
0.022866
0
VERTEX
8
0
6
CONTINUOUS
62
252
70
192
10
0.600000
20
-0.213970
30
0.045481
0
VERTEX
8
0
6
CONTINUOUS
62
252
70
192
10
0.600000
20
-0.208044
30
0.067597
0
VERTEX
8
0
6
CONTINUOUS
62
252
70
192
10
0.600000
20
-0.199838
30
0.088974
0
VERTEX
8
0
6
CONTINUOUS
62
252
70
192
10
0.600000
20
-0.189443
30
0.109375
0
VERTEX
8
0
6
CONTINUOUS
62
252
70
192
10
0.600000
20
-0.176972
30
0.128578
0
VERTEX
8
0
6
CONTINUOUS
62
252
70
192
10
0.600000
20
-0.162563
30
0.146372
0
VERTEX
8
0
6
CONTINUOUS
62
252
70
192
10
0.600000
20
-0.146372
30
0.162563
0
VERTEX
8
0
6
CONTINUOUS
62
252
70
192
10
0.600000
20
-0.128578
30
0.176972
0
VERTEX
8
0
6
CONTINUOUS
62
252
70
128
10
0.000000
20
0.000000
30
0.000000
71
1
72
2
73
18
0
VERTEX
8
0
6
CONTINUOUS
62
252
70
128
10
0.000000
20
0.000000
30
0.000000
71
18
72
2
73
17
0
VERTEX
8
0
6
CONTINUOUS
62
252
70
128
10
0.000000
20
0.000000
30
0.000000
71
17
72
2
73
3
0
VERTEX
8
0
6
CONTINUOUS
62
252
70
128
10
0.000000
20
0.000000
30
0.000000
71
17
72
3
73
16
0
VERTEX
8
0
6
CONTINUOUS
62
252
70
128
10
0.000000
20
0.000000
30
0.000000
71
16
72
3
73
4
0
VERTEX
8
0
6
CONTINUOUS
62
252
70
128
10
0.000000
20
0.000000
30
0.000000
71
16
72
4
73
15
0
VERTEX
8
0
6
CONTINUOUS
62
252
70
128
10
0.000000
20
0.000000
30
0.000000
71
15
72
4
73
5
0
VERTEX
8
0
6
CONTINUOUS
62
252
70
128
10
0.000000
20
0.000000
30
0.000000
71
15
72
5
73
14
0
VERTEX
8
0
6
CONTINUOUS
62
252
70
128
10
0.000000
20
0.000000
30
0.000000
71
14
72
5
73
13
0
VERTEX
8
0
6
CONTINUOUS
62
252
70
128
10
0.000000
20
0.000000
30
0.000000
71
13
72
5
73
6
0
VERTEX
8
0
6
CONTINUOUS
62
252
70
128
10
0.000000
20
0.000000
30
0.000000
71
13
72
6
73
12
0
VERTEX
8
0
6
CONTINUOUS
62
252
70
128
10
0.000000
20
0.000000
30
0.000000
71
12
72
6
73
7
0
VERTEX
8
0
6
CONTINUOUS
62
252
70
128
10
0.000000
20
0.000000
30
0.000000
71
12
72
7
73
11
0
VERTEX
8
0
6
CONTINUOUS
62
252
70
128
10
0.000000
20
0.000000
30
0.000000
71
11
72
7
73
8
0
VERTEX
8
0
6
CONTINUOUS
62
252
70
128
10
0.000000
20
0.000000
30
0.000000
71
11
72
8
73
10
0
VERTEX
8
0
6
CONTINUOUS
62
252
70
128
10
0.000000
20
0.000000
30
0.000000
71
10
72
8
73
9
0
SEQEND
0
POLYLINE
66
1
8
0
6
CONTINUOUS
62
252
70
64
75
0
10
0.000000
20
0.000000
30
0.000000
0
VERTEX
8
0
6
CONTINUOUS
62
252
70
192
10
0.584220
20
-0.218750
30
-0.126295
0
VERTEX
8
0
6
CONTINUOUS
62
252
70
192
10
0.591248
20
-0.189516
30
-0.143174
0
VERTEX
8
0
6
CONTINUOUS
62
252
70
192
10
0.596128
20
-0.162063
30
-0.159024
0
VERTEX
8
0
6
CONTINUOUS
62
252
70
192
10
0.599028
20
-0.135596
30
-0.174305
0
VERTEX
8
0
6
CONTINUOUS
62
252
70
192
10
0.600000
20
-0.109375
30
-0.189443
0
VERTEX
8
0
6
CONTINUOUS
62
252
70
192
10
0.600000
20
-0.128578
30
-0.176972
0
VERTEX
8
0
6
CONTINUOUS
62
252
70
192
10
0.600000
20
-0.146372
30
-0.162563
0
VERTEX
8
0
6
CONTINUOUS
62
252
70
192
10
0.600000
20
-0.162563
30
-0.146372
0
VERTEX
8
0
6
CONTINUOUS
62
252
70
192
10
0.600000
20
-0.176972
30
-0.128578
0
VERTEX
8
0
6
CONTINUOUS
62
252
70
192
10
0.600000
20
-0.189443
30
-0.109375
0
VERTEX
8
0
6
CONTINUOUS
62
252
70
192
10
0.600000
20
-0.199838
30
-0.088974
0
VERTEX
8
0
6
CONTINUOUS
62
252
70
192
10
0.600000
20
-0.208044
30
-0.067597
0
VERTEX
8
0
6
CONTINUOUS
62
252
70
192
10
0.600000
20
-0.213970
30
-0.045481
0
VERTEX
8
0
6
CONTINUOUS
62
252
70
192
10
0.600000
20
-0.217552
30
-0.022866
0
VERTEX
8
0
6
CONTINUOUS
62
252
70
192
10
0.600000
20
-0.218750
30
0.000000
0
VERTEX
8
0
6
CONTINUOUS
62
252
70
192
10
0.599028
20
-0.218750
30
-0.030277
0
VERTEX
8
0
6
CONTINUOUS
62
252
70
192
10
0.596128
20
-0.218750
30
-0.060839
0
VERTEX
8
0
6
CONTINUOUS
62
252
70
192
10
0.591248
20
-0.218750
30
-0.092539
0
VERTEX
8
0
6
CONTINUOUS
62
252
70
128
10
0.000000
20
0.000000
30
0.000000
71
2
72
9
73
1
0
VERTEX
8
0
6
CONTINUOUS
62
252
70
128
10
0.000000
20
0.000000
30
0.000000
71
1
72
9
73
10
0
VERTEX
8
0
6
CONTINUOUS
62
252
70
128
10
0.000000
20
0.000000
30
0.000000
71
1
72
10
73
11
0
VERTEX
8
0
6
CONTINUOUS
62
252
70
128
10
0.000000
20
0.000000
30
0.000000
71
9
72
2
73
8
0
VERTEX
8
0
6
CONTINUOUS
62
252
70
128
10
0.000000
20
0.000000
30
0.000000
71
8
72
2
73
3
0
VERTEX
8
0
6
CONTINUOUS
62
252
70
128
10
0.000000
20
0.000000
30
0.000000
71
8
72
3
73
7
0
VERTEX
8
0
6
CONTINUOUS
62
252
70
128
10
0.000000
20
0.000000
30
0.000000
71
7
72
3
73
4
0
VERTEX
8
0
6
CONTINUOUS
62
252
70
128
10
0.000000
20
0.000000
30
0.000000
71
7
72
4
73
6
0
VERTEX
8
0
6
CONTINUOUS
62
252
70
128
10
0.000000
20
0.000000
30
0.000000
71
6
72
4
73
5
0
VERTEX
8
0
6
CONTINUOUS
62
252
70
128
10
0.000000
20
0.000000
30
0.000000
71
1
72
11
73
18
0
VERTEX
8
0
6
CONTINUOUS
62
252
70
128
10
0.000000
20
0.000000
30
0.000000
71
18
72
11
73
12
0
VERTEX
8
0
6
CONTINUOUS
62
252
70
128
10
0.000000
20
0.000000
30
0.000000
71
18
72
12
73
17
0
VERTEX
8
0
6
CONTINUOUS
62
252
70
128
10
0.000000
20
0.000000
30
0.000000
71
17
72
12
73
13
0
VERTEX
8
0
6
CONTINUOUS
62
252
70
128
10
0.000000
20
0.000000
30
0.000000
71
17
72
13
73
16
0
VERTEX
8
0
6
CONTINUOUS
62
252
70
128
10
0.000000
20
0.000000
30
0.000000
71
16
72
13
73
14
0
VERTEX
8
0
6
CONTINUOUS
62
252
70
128
10
0.000000
20
0.000000
30
0.000000
71
16
72
14
73
15
0
SEQEND
0
POLYLINE
66
1
8
0
6
CONTINUOUS
62
252
70
64
75
0
10
0.000000
20
0.000000
30
0.000000
0
VERTEX
8
0
6
CONTINUOUS
62
252
70
192
10
0.600000
20
0.109375
30
0.189443
0
VERTEX
8
0
6
CONTINUOUS
62
252
70
192
10
0.599028
20
0.083154
30
0.204582
0
VERTEX
8
0
6
CONTINUOUS
62
252
70
192
10
0.596128
20
0.056687
30
0.219862
0
VERTEX
8
0
6
CONTINUOUS
62
252
70
192
10
0.591248
20
0.029234
30
0.235712
0
VERTEX
8
0
6
CONTINUOUS
62
252
70
192
10
0.584220
20
0.000000
30
0.252591
0
VERTEX
8
0
6
CONTINUOUS
62
252
70
192
10
0.591248
20
-0.029234
30
0.235712
0
VERTEX
8
0
6
CONTINUOUS
62
252
70
192
10
0.596128
20
-0.056687
30
0.219862
0
VERTEX
8
0
6
CONTINUOUS
62
252
70
192
10
0.599028
20
-0.083154
30
0.204582
0
VERTEX
8
0
6
CONTINUOUS
62
252
70
192
10
0.600000
20
-0.109375
30
0.189443
0
VERTEX
8
0
6
CONTINUOUS
62
252
70
192
10
0.600000
20
-0.088974
30
0.199838
0
VERTEX
8
0
6
CONTINUOUS
62
252
70
192
10
0.600000
20
-0.067597
30
0.208044
0
VERTEX
8
0
6
CONTINUOUS
62
252
70
192
10
0.600000
20
-0.045481
30
0.213970
0
VERTEX
8
0
6
CONTINUOUS
62
252
70
192
10
0.600000
20
-0.022866
30
0.217552
0
VERTEX
8
0
6
CONTINUOUS
62
252
70
192
10
0.600000
20
0.000000
30
0.218750
0
VERTEX
8
0
6
CONTINUOUS
62
252
70
192
10
0.600000
20
0.022866
30
0.217552
0
VERTEX
8
0
6
CONTINUOUS
62
252
70
192
10
0.600000
20
0.045481
30
0.213970
0
VERTEX
8
0
6
CONTINUOUS
62
252
70
192
10
0.600000
20
0.067597
30
0.208044
0
VERTEX
8
0
6
CONTINUOUS
62
252
70
192
10
0.600000
20
0.088974
30
0.199838
0
VERTEX
8
0
6
CONTINUOUS
62
252
70
128
10
0.000000
20
0.000000
30
0.000000
71
1
72
2
73
18
0
VERTEX
8
0
6
CONTINUOUS
62
252
70
128
10
0.000000
20
0.000000
30
0.000000
71
18
72
2
73
17
0
VERTEX
8
0
6
CONTINUOUS
62
252
70
128
10
0.000000
20
0.000000
30
0.000000
71
17
72
2
73
3
0
VERTEX
8
0
6
CONTINUOUS
62
252
70
128
10
0.000000
20
0.000000
30
0.000000
71
17
72
3
73
16
0
VERTEX
8
0
6
CONTINUOUS
62
252
70
128
10
0.000000
20
0.000000
30
0.000000
71
16
72
3
73
4
0
VERTEX
8
0
6
CONTINUOUS
62
252
70
128
10
0.000000
20
0.000000
30
0.000000
71
16
72
4
73
15
0
VERTEX
8
0
6
CONTINUOUS
62
252
70
128
10
0.000000
20
0.000000
30
0.000000
71
15
72
4
73
5
0
VERTEX
8
0
6
CONTINUOUS
62
252
70
128
10
0.000000
20
0.000000
30
0.000000
71
15
72
5
73
14
0
VERTEX
8
0
6
CONTINUOUS
62
252
70
128
10
0.000000
20
0.000000
30
0.000000
71
14
72
5
73
13
0
VERTEX
8
0
6
CONTINUOUS
62
252
70
128
10
0.000000
20
0.000000
30
0.000000
71
13
72
5
73
6
0
VERTEX
8
0
6
CONTINUOUS
62
252
70
128
10
0.000000
20
0.000000
30
0.000000
71
13
72
6
73
12
0
VERTEX
8
0
6
CONTINUOUS
62
252
70
128
10
0.000000
20
0.000000
30
0.000000
71
12
72
6
73
7
0
VERTEX
8
0
6
CONTINUOUS
62
252
70
128
10
0.000000
20
0.000000
30
0.000000
71
12
72
7
73
11
0
VERTEX
8
0
6
CONTINUOUS
62
252
70
128
10
0.000000
20
0.000000
30
0.000000
71
11
72
7
73
8
0
VERTEX
8
0
6
CONTINUOUS
62
252
70
128
10
0.000000
20
0.000000
30
0.000000
71
11
72
8
73
10
0
VERTEX
8
0
6
CONTINUOUS
62
252
70
128
10
0.000000
20
0.000000
30
0.000000
71
10
72
8
73
9
0
SEQEND
0
POLYLINE
66
1
8
0
6
CONTINUOUS
62
252
70
64
75
0
10
0.000000
20
0.000000
30
0.000000
0
VERTEX
8
0
6
CONTINUOUS
62
252
70
192
10
0.600000
20
0.218750
30
-0.000000
0
VERTEX
8
0
6
CONTINUOUS
62
252
70
192
10
0.599028
20
0.218750
30
0.030277
0
VERTEX
8
0
6
CONTINUOUS
62
252
70
192
10
0.596128
20
0.218750
30
0.060839
0
VERTEX
8
0
6
CONTINUOUS
62
252
70
192
10
0.591248
20
0.218750
30
0.092539
0
VERTEX
8
0
6
CONTINUOUS
62
252
70
192
10
0.584220
20
0.218750
30
0.126295
0
VERTEX
8
0
6
CONTINUOUS
62
252
70
192
10
0.591248
20
0.189516
30
0.143174
0
VERTEX
8
0
6
CONTINUOUS
62
252
70
192
10
0.596128
20
0.162063
30
0.159024
0
VERTEX
8
0
6
CONTINUOUS
62
252
70
192
10
0.599028
20
0.135596
30
0.174305
0
VERTEX
8
0
6
CONTINUOUS
62
252
70
192
10
0.600000
20
0.109375
30
0.189443
0
VERTEX
8
0
6
CONTINUOUS
62
252
70
192
10
0.600000
20
0.128578
30
0.176972
0
VERTEX
8
0
6
CONTINUOUS
62
252
70
192
10
0.600000
20
0.146372
30
0.162563
0
VERTEX
8
0
6
CONTINUOUS
62
252
70
192
10
0.600000
20
0.162563
30
0.146372
0
VERTEX
8
0
6
CONTINUOUS
62
252
70
192
10
0.600000
20
0.176972
30
0.128578
0
VERTEX
8
0
6
CONTINUOUS
62
252
70
192
10
0.600000
20
0.189443
30
0.109375
0
VERTEX
8
0
6
CONTINUOUS
62
252
70
192
10
0.600000
20
0.199838
30
0.088974
0
VERTEX
8
0
6
CONTINUOUS
62
252
70
192
10
0.600000
20
0.208044
30
0.067597
0
VERTEX
8
0
6
CONTINUOUS
62
252
70
192
10
0.600000
20
0.213970
30
0.045481
0
VERTEX
8
0
6
CONTINUOUS
62
252
70
192
10
0.600000
20
0.217552
30
0.022866
0
VERTEX
8
0
6
CONTINUOUS
62
252
70
128
10
0.000000
20
0.000000
30
0.000000
71
1
72
2
73
18
0
VERTEX
8
0
6
CONTINUOUS
62
252
70
128
10
0.000000
20
0.000000
30
0.000000
71
18
72
2
73
17
0
VERTEX
8
0
6
CONTINUOUS
62
252
70
128
10
0.000000
20
0.000000
30
0.000000
71
17
72
2
73
3
0
VERTEX
8
0
6
CONTINUOUS
62
252
70
128
10
0.000000
20
0.000000
30
0.000000
71
17
72
3
73
16
0
VERTEX
8
0
6
CONTINUOUS
62
252
70
128
10
0.000000
20
0.000000
30
0.000000
71
16
72
3
73
4
0
VERTEX
8
0
6
CONTINUOUS
62
252
70
128
10
0.000000
20
0.000000
30
0.000000
71
16
72
4
73
15
0
VERTEX
8
0
6
CONTINUOUS
62
252
70
128
10
0.000000
20
0.000000
30
0.000000
71
15
72
4
73
5
0
VERTEX
8
0
6
CONTINUOUS
62
252
70
128
10
0.000000
20
0.000000
30
0.000000
71
15
72
5
73
14
0
VERTEX
8
0
6
CONTINUOUS
62
252
70
128
10
0.000000
20
0.000000
30
0.000000
71
14
72
5
73
13
0
VERTEX
8
0
6
CONTINUOUS
62
252
70
128
10
0.000000
20
0.000000
30
0.000000
71
13
72
5
73
6
0
VERTEX
8
0
6
CONTINUOUS
62
252
70
128
10
0.000000
20
0.000000
30
0.000000
71
13
72
6
73
12
0
VERTEX
8
0
6
CONTINUOUS
62
252
70
128
10
0.000000
20
0.000000
30
0.000000
71
12
72
6
73
7
0
VERTEX
8
0
6
CONTINUOUS
62
252
70
128
10
0.000000
20
0.000000
30
0.000000
71
12
72
7
73
11
0
VERTEX
8
0
6
CONTINUOUS
62
252
70
128
10
0.000000
20
0.000000
30
0.000000
71
11
72
7
73
8
0
VERTEX
8
0
6
CONTINUOUS
62
252
70
128
10
0.000000
20
0.000000
30
0.000000
71
11
72
8
73
10
0
VERTEX
8
0
6
CONTINUOUS
62
252
70
128
10
0.000000
20
0.000000
30
0.000000
71
10
72
8
73
9
0
SEQEND
0
POLYLINE
66
1
8
0
6
CONTINUOUS
62
252
70
64
75
0
10
0.000000
20
0.000000
30
0.000000
0
VERTEX
8
0
6
CONTINUOUS
62
252
70
192
10
0.584220
20
-0.000000
30
-0.252591
0
VERTEX
8
0
6
CONTINUOUS
62
252
70
192
10
0.591248
20
0.029234
30
-0.235712
0
VERTEX
8
0
6
CONTINUOUS
62
252
70
192
10
0.596128
20
0.056687
30
-0.219862
0
VERTEX
8
0
6
CONTINUOUS
62
252
70
192
10
0.599028
20
0.083154
30
-0.204582
0
VERTEX
8
0
6
CONTINUOUS
62
252
70
192
10
0.600000
20
0.109375
30
-0.189443
0
VERTEX
8
0
6
CONTINUOUS
62
252
70
192
10
0.600000
20
0.088974
30
-0.199838
0
VERTEX
8
0
6
CONTINUOUS
62
252
70
192
10
0.600000
20
0.067597
30
-0.208044
0
VERTEX
8
0
6
CONTINUOUS
62
252
70
192
10
0.600000
20
0.045481
30
-0.213970
0
VERTEX
8
0
6
CONTINUOUS
62
252
70
192
10
0.600000
20
0.022866
30
-0.217552
0
VERTEX
8
0
6
CONTINUOUS
62
252
70
192
10
0.600000
20
-0.000000
30
-0.218750
0
VERTEX
8
0
6
CONTINUOUS
62
252
70
192
10
0.600000
20
-0.022866
30
-0.217552
0
VERTEX
8
0
6
CONTINUOUS
62
252
70
192
10
0.600000
20
-0.045481
30
-0.213970
0
VERTEX
8
0
6
CONTINUOUS
62
252
70
192
10
0.600000
20
-0.067597
30
-0.208044
0
VERTEX
8
0
6
CONTINUOUS
62
252
70
192
10
0.600000
20
-0.088974
30
-0.199838
0
VERTEX
8
0
6
CONTINUOUS
62
252
70
192
10
0.600000
20
-0.109375
30
-0.189443
0
VERTEX
8
0
6
CONTINUOUS
62
252
70
192
10
0.599028
20
-0.083154
30
-0.204582
0
VERTEX
8
0
6
CONTINUOUS
62
252
70
192
10
0.596128
20
-0.056687
30
-0.219862
0
VERTEX
8
0
6
CONTINUOUS
62
252
70
192
10
0.591248
20
-0.029234
30
-0.235712
0
VERTEX
8
0
6
CONTINUOUS
62
252
70
128
10
0.000000
20
0.000000
30
0.000000
71
2
72
9
73
1
0
VERTEX
8
0
6
CONTINUOUS
62
252
70
128
10
0.000000
20
0.000000
30
0.000000
71
1
72
9
73
10
0
VERTEX
8
0
6
CONTINUOUS
62
252
70
128
10
0.000000
20
0.000000
30
0.000000
71
1
72
10
73
11
0
VERTEX
8
0
6
CONTINUOUS
62
252
70
128
10
0.000000
20
0.000000
30
0.000000
71
9
72
2
73
8
0
VERTEX
8
0
6
CONTINUOUS
62
252
70
128
10
0.000000
20
0.000000
30
0.000000
71
8
72
2
73
3
0
VERTEX
8
0
6
CONTINUOUS
62
252
70
128
10
0.000000
20
0.000000
30
0.000000
71
8
72
3
73
7
0
VERTEX
8
0
6
CONTINUOUS
62
252
70
128
10
0.000000
20
0.000000
30
0.000000
71
7
72
3
73
4
0
VERTEX
8
0
6
CONTINUOUS
62
252
70
128
10
0.000000
20
0.000000
30
0.000000
71
7
72
4
73
6
0
VERTEX
8
0
6
CONTINUOUS
62
252
70
128
10
0.000000
20
0.000000
30
0.000000
71
6
72
4
73
5
0
VERTEX
8
0
6
CONTINUOUS
62
252
70
128
10
0.000000
20
0.000000
30
0.000000
71
1
72
11
73
18
0
VERTEX
8
0
6
CONTINUOUS
62
252
70
128
10
0.000000
20
0.000000
30
0.000000
71
18
72
11
73
12
0
VERTEX
8
0
6
CONTINUOUS
62
252
70
128
10
0.000000
20
0.000000
30
0.000000
71
18
72
12
73
17
0
VERTEX
8
0
6
CONTINUOUS
62
252
70
128
10
0.000000
20
0.000000
30
0.000000
71
17
72
12
73
13
0
VERTEX
8
0
6
CONTINUOUS
62
252
70
128
10
0.000000
20
0.000000
30
0.000000
71
17
72
13
73
16
0
VERTEX
8
0
6
CONTINUOUS
62
252
70
128
10
0.000000
20
0.000000
30
0.000000
71
16
72
13
73
14
0
VERTEX
8
0
6
CONTINUOUS
62
252
70
128
10
0.000000
20
0.000000
30
0.000000
71
16
72
14
73
15
0
SEQEND
0
POLYLINE
66
1
8
0
6
CONTINUOUS
62
252
70
64
75
0
10
0.000000
20
0.000000
30
0.000000
0
VERTEX
8
0
6
CONTINUOUS
62
252
70
192
10
0.600000
20
0.109375
30
-0.189443
0
VERTEX
8
0
6
CONTINUOUS
62
252
70
192
10
0.599028
20
0.135596
30
-0.174305
0
VERTEX
8
0
6
CONTINUOUS
62
252
70
192
10
0.596128
20
0.162063
30
-0.159024
0
VERTEX
8
0
6
CONTINUOUS
62
252
70
192
10
0.591248
20
0.189516
30
-0.143174
0
VERTEX
8
0
6
CONTINUOUS
62
252
70
192
10
0.584220
20
0.218750
30
-0.126295
0
VERTEX
8
0
6
CONTINUOUS
62
252
70
192
10
0.591248
20
0.218750
30
-0.092539
0
VERTEX
8
0
6
CONTINUOUS
62
252
70
192
10
0.596128
20
0.218750
30
-0.060839
0
VERTEX
8
0
6
CONTINUOUS
62
252
70
192
10
0.599028
20
0.218750
30
-0.030277
0
VERTEX
8
0
6
CONTINUOUS
62
252
70
192
10
0.600000
20
0.218750
30
-0.000000
0
VERTEX
8
0
6
CONTINUOUS
62
252
70
192
10
0.600000
20
0.217552
30
-0.022866
0
VERTEX
8
0
6
CONTINUOUS
62
252
70
192
10
0.600000
20
0.213970
30
-0.045481
0
VERTEX
8
0
6
CONTINUOUS
62
252
70
192
10
0.600000
20
0.208044
30
-0.067597
0
VERTEX
8
0
6
CONTINUOUS
62
252
70
192
10
0.600000
20
0.199838
30
-0.088974
0
VERTEX
8
0
6
CONTINUOUS
62
252
70
192
10
0.600000
20
0.189443
30
-0.109375
0
VERTEX
8
0
6
CONTINUOUS
62
252
70
192
10
0.600000
20
0.176972
30
-0.128578
0
VERTEX
8
0
6
CONTINUOUS
62
252
70
192
10
0.600000
20
0.162563
30
-0.146372
0
VERTEX
8
0
6
CONTINUOUS
62
252
70
192
10
0.600000
20
0.146372
30
-0.162563
0
VERTEX
8
0
6
CONTINUOUS
62
252
70
192
10
0.600000
20
0.128578
30
-0.176972
0
VERTEX
8
0
6
CONTINUOUS
62
252
70
128
10
0.000000
20
0.000000
30
0.000000
71
1
72
2
73
18
0
VERTEX
8
0
6
CONTINUOUS
62
252
70
128
10
0.000000
20
0.000000
30
0.000000
71
18
72
2
73
17
0
VERTEX
8
0
6
CONTINUOUS
62
252
70
128
10
0.000000
20
0.000000
30
0.000000
71
17
72
2
73
3
0
VERTEX
8
0
6
CONTINUOUS
62
252
70
128
10
0.000000
20
0.000000
30
0.000000
71
17
72
3
73
16
0
VERTEX
8
0
6
CONTINUOUS
62
252
70
128
10
0.000000
20
0.000000
30
0.000000
71
16
72
3
73
4
0
VERTEX
8
0
6
CONTINUOUS
62
252
70
128
10
0.000000
20
0.000000
30
0.000000
71
16
72
4
73
15
0
VERTEX
8
0
6
CONTINUOUS
62
252
70
128
10
0.000000
20
0.000000
30
0.000000
71
15
72
4
73
5
0
VERTEX
8
0
6
CONTINUOUS
62
252
70
128
10
0.000000
20
0.000000
30
0.000000
71
15
72
5
73
14
0
VERTEX
8
0
6
CONTINUOUS
62
252
70
128
10
0.000000
20
0.000000
30
0.000000
71
14
72
5
73
13
0
VERTEX
8
0
6
CONTINUOUS
62
252
70
128
10
0.000000
20
0.000000
30
0.000000
71
13
72
5
73
6
0
VERTEX
8
0
6
CONTINUOUS
62
252
70
128
10
0.000000
20
0.000000
30
0.000000
71
13
72
6
73
12
0
VERTEX
8
0
6
CONTINUOUS
62
252
70
128
10
0.000000
20
0.000000
30
0.000000
71
12
72
6
73
7
0
VERTEX
8
0
6
CONTINUOUS
62
252
70
128
10
0.000000
20
0.000000
30
0.000000
71
12
72
7
73
11
0
VERTEX
8
0
6
CONTINUOUS
62
252
70
128
10
0.000000
20
0.000000
30
0.000000
71
11
72
7
73
8
0
VERTEX
8
0
6
CONTINUOUS
62
252
70
128
10
0.000000
20
0.000000
30
0.000000
71
11
72
8
73
10
0
VERTEX
8
0
6
CONTINUOUS
62
252
70
128
10
0.000000
20
0.000000
30
0.000000
71
10
72
8
73
9
0
SEQEND
0
POLYLINE
66
1
8
0
6
CONTINUOUS
62
252
70
64
75
0
10
0.000000
20
0.000000
30
0.000000
0
VERTEX
8
0
6
CONTINUOUS
62
252
70
192
10
0.584220
20
0.218750
30
-0.126295
0
VERTEX
8
0
6
CONTINUOUS
62
252
70
192
10
0.591248
20
0.189516
30
-0.143174
0
VERTEX
8
0
6
CONTINUOUS
62
252
70
192
10
0.596128
20
0.162063
30
-0.159024
0
VERTEX
8
0
6
CONTINUOUS
62
252
70
192
10
0.599028
20
0.135596
30
-0.174305
0
VERTEX
8
0
6
CONTINUOUS
62
252
70
192
10
0.600000
20
0.109375
30
-0.189443
0
VERTEX
8
0
6
CONTINUOUS
62
252
70
192
10
0.599028
20
0.083154
30
-0.204582
0
VERTEX
8
0
6
CONTINUOUS
62
252
70
192
10
0.596128
20
0.056687
30
-0.219862
0
VERTEX
8
0
6
CONTINUOUS
62
252
70
192
10
0.591248
20
0.029234
30
-0.235712
0
VERTEX
8
0
6
CONTINUOUS
62
252
70
192
10
0.584220
20
-0.000000
30
-0.252591
0
VERTEX
8
0
6
CONTINUOUS
62
252
70
192
10
0.408180
20
0.000000
30
-0.252591
0
VERTEX
8
0
6
CONTINUOUS
62
252
70
192
10
0.401152
20
0.029234
30
-0.235712
0
VERTEX
8
0
6
CONTINUOUS
62
252
70
192
10
0.396272
20
0.056687
30
-0.219862
0
VERTEX
8
0
6
CONTINUOUS
62
252
70
192
10
0.393372
20
0.083154
30
-0.204582
0
VERTEX
8
0
6
CONTINUOUS
62
252
70
192
10
0.392400
20
0.109375
30
-0.189443
0
VERTEX
8
0
6
CONTINUOUS
62
252
70
192
10
0.393372
20
0.135596
30
-0.174305
0
VERTEX
8
0
6
CONTINUOUS
62
252
70
192
10
0.396272
20
0.162063
30
-0.159024
0
VERTEX
8
0
6
CONTINUOUS
62
252
70
192
10
0.401152
20
0.189516
30
-0.143174
0
VERTEX
8
0
6
CONTINUOUS
62
252
70
192
10
0.408180
20
0.218750
30
-0.126295
0
VERTEX
8
0
6
CONTINUOUS
62
252
70
128
10
0.000000
20
0.000000
30
0.000000
71
18
72
1
73
17
0
VERTEX
8
0
6
CONTINUOUS
62
252
70
128
10
0.000000
20
0.000000
30
0.000000
71
17
72
1
73
2
0
VERTEX
8
0
6
CONTINUOUS
62
252
70
128
10
0.000000
20
0.000000
30
0.000000
71
17
72
2
73
3
0
VERTEX
8
0
6
CONTINUOUS
62
252
70
128
10
0.000000
20
0.000000
30
0.000000
71
17
72
3
73
16
0
VERTEX
8
0
6
CONTINUOUS
62
252
70
128
10
0.000000
20
0.000000
30
0.000000
71
16
72
3
73
4
0
VERTEX
8
0
6
CONTINUOUS
62
252
70
128
10
0.000000
20
0.000000
30
0.000000
71
16
72
4
73
15
0
VERTEX
8
0
6
CONTINUOUS
62
252
70
128
10
0.000000
20
0.000000
30
0.000000
71
15
72
4
73
5
0
VERTEX
8
0
6
CONTINUOUS
62
252
70
128
10
0.000000
20
0.000000
30
0.000000
71
15
72
5
73
14
0
VERTEX
8
0
6
CONTINUOUS
62
252
70
128
10
0.000000
20
0.000000
30
0.000000
71
14
72
5
73
13
0
VERTEX
8
0
6
CONTINUOUS
62
252
70
128
10
0.000000
20
0.000000
30
0.000000
71
13
72
5
73
6
0
VERTEX
8
0
6
CONTINUOUS
62
252
70
128
10
0.000000
20
0.000000
30
0.000000
71
13
72
6
73
7
0
VERTEX
8
0
6
CONTINUOUS
62
252
70
128
10
0.000000
20
0.000000
30
0.000000
71
8
72
11
73
7
0
VERTEX
8
0
6
CONTINUOUS
62
252
70
128
10
0.000000
20
0.000000
30
0.000000
71
7
72
11
73
12
0
VERTEX
8
0
6
CONTINUOUS
62
252
70
128
10
0.000000
20
0.000000
30
0.000000
71
7
72
12
73
13
0
VERTEX
8
0
6
CONTINUOUS
62
252
70
128
10
0.000000
20
0.000000
30
0.000000
71
8
72
9
73
11
0
VERTEX
8
0
6
CONTINUOUS
62
252
70
128
10
0.000000
20
0.000000
30
0.000000
71
11
72
9
73
10
0
SEQEND
0
POLYLINE
66
1
8
0
6
CONTINUOUS
62
252
70
64
75
0
10
0.000000
20
0.000000
30
0.000000
0
VERTEX
8
0
6
CONTINUOUS
62
252
70
192
10
0.584220
20
-0.000000
30
-0.252591
0
VERTEX
8
0
6
CONTINUOUS
62
252
70
192
10
0.591248
20
-0.029234
30
-0.235712
0
VERTEX
8
0
6
CONTINUOUS
62
252
70
192
10
0.596128
20
-0.056687
30
-0.219862
0
VERTEX
8
0
6
CONTINUOUS
62
252
70
192
10
0.599028
20
-0.083154
30
-0.204582
0
VERTEX
8
0
6
CONTINUOUS
62
252
70
192
10
0.600000
20
-0.109375
30
-0.189443
0
VERTEX
8
0
6
CONTINUOUS
62
252
70
192
10
0.599028
20
-0.135596
30
-0.174305
0
VERTEX
8
0
6
CONTINUOUS
62
252
70
192
10
0.596128
20
-0.162063
30
-0.159024
0
VERTEX
8
0
6
CONTINUOUS
62
252
70
192
10
0.591248
20
-0.189516
30
-0.143174
0
VERTEX
8
0
6
CONTINUOUS
62
252
70
192
10
0.584220
20
-0.218750
30
-0.126295
0
VERTEX
8
0
6
CONTINUOUS
62
252
70
192
10
0.408180
20
-0.218750
30
-0.126295
0
VERTEX
8
0
6
CONTINUOUS
62
252
70
192
10
0.401152
20
-0.189516
30
-0.143174
0
VERTEX
8
0
6
CONTINUOUS
62
252
70
192
10
0.396272
20
-0.162063
30
-0.159024
0
VERTEX
8
0
6
CONTINUOUS
62
252
70
192
10
0.393372
20
-0.135596
30
-0.174305
0
VERTEX
8
0
6
CONTINUOUS
62
252
70
192
10
0.392400
20
-0.109375
30
-0.189443
0
VERTEX
8
0
6
CONTINUOUS
62
252
70
192
10
0.393372
20
-0.083154
30
-0.204582
0
VERTEX
8
0
6
CONTINUOUS
62
252
70
192
10
0.396272
20
-0.056687
30
-0.219862
0
VERTEX
8
0
6
CONTINUOUS
62
252
70
192
10
0.401152
20
-0.029234
30
-0.235712
0
VERTEX
8
0
6
CONTINUOUS
62
252
70
192
10
0.408180
20
0.000000
30
-0.252591
0
VERTEX
8
0
6
CONTINUOUS
62
252
70
128
10
0.000000
20
0.000000
30
0.000000
71
18
72
1
73
17
0
VERTEX
8
0
6
CONTINUOUS
62
252
70
128
10
0.000000
20
0.000000
30
0.000000
71
17
72
1
73
2
0
VERTEX
8
0
6
CONTINUOUS
62
252
70
128
10
0.000000
20
0.000000
30
0.000000
71
17
72
2
73
16
0
VERTEX
8
0
6
CONTINUOUS
62
252
70
128
10
0.000000
20
0.000000
30
0.000000
71
16
72
2
73
3
0
VERTEX
8
0
6
CONTINUOUS
62
252
70
128
10
0.000000
20
0.000000
30
0.000000
71
16
72
3
73
4
0
VERTEX
8
0
6
CONTINUOUS
62
252
70
128
10
0.000000
20
0.000000
30
0.000000
71
16
72
4
73
15
0
VERTEX
8
0
6
CONTINUOUS
62
252
70
128
10
0.000000
20
0.000000
30
0.000000
71
15
72
4
73
5
0
VERTEX
8
0
6
CONTINUOUS
62
252
70
128
10
0.000000
20
0.000000
30
0.000000
71
15
72
5
73
14
0
VERTEX
8
0
6
CONTINUOUS
62
252
70
128
10
0.000000
20
0.000000
30
0.000000
71
14
72
5
73
6
0
VERTEX
8
0
6
CONTINUOUS
62
252
70
128
10
0.000000
20
0.000000
30
0.000000
71
14
72
6
73
13
0
VERTEX
8
0
6
CONTINUOUS
62
252
70
128
10
0.000000
20
0.000000
30
0.000000
71
13
72
6
73
12
0
VERTEX
8
0
6
CONTINUOUS
62
252
70
128
10
0.000000
20
0.000000
30
0.000000
71
12
72
6
73
7
0
VERTEX
8
0
6
CONTINUOUS
62
252
70
128
10
0.000000
20
0.000000
30
0.000000
71
12
72
7
73
11
0
VERTEX
8
0
6
CONTINUOUS
62
252
70
128
10
0.000000
20
0.000000
30
0.000000
71
11
72
7
73
8
0
VERTEX
8
0
6
CONTINUOUS
62
252
70
128
10
0.000000
20
0.000000
30
0.000000
71
11
72
8
73
9
0
VERTEX
8
0
6
CONTINUOUS
62
252
70
128
10
0.000000
20
0.000000
30
0.000000
71
9
72
10
73
11
0
SEQEND
0
POLYLINE
66
1
8
0
6
CONTINUOUS
62
252
70
64
75
0
10
0.000000
20
0.000000
30
0.000000
0
VERTEX
8
0
6
CONTINUOUS
62
252
70
192
10
0.584220
20
-0.218750
30
-0.126295
0
VERTEX
8
0
6
CONTINUOUS
62
252
70
192
10
0.591248
20
-0.218750
30
-0.092539
0
VERTEX
8
0
6
CONTINUOUS
62
252
70
192
10
0.596128
20
-0.218750
30
-0.060839
0
VERTEX
8
0
6
CONTINUOUS
62
252
70
192
10
0.599028
20
-0.218750
30
-0.030277
0
VERTEX
8
0
6
CONTINUOUS
62
252
70
192
10
0.600000
20
-0.218750
30
0.000000
0
VERTEX
8
0
6
CONTINUOUS
62
252
70
192
10
0.599028
20
-0.218750
30
0.030277
0
VERTEX
8
0
6
CONTINUOUS
62
252
70
192
10
0.596128
20
-0.218750
30
0.060839
0
VERTEX
8
0
6
CONTINUOUS
62
252
70
192
10
0.591248
20
-0.218750
30
0.092539
0
VERTEX
8
0
6
CONTINUOUS
62
252
70
192
10
0.584220
20
-0.218750
30
0.126295
0
VERTEX
8
0
6
CONTINUOUS
62
252
70
192
10
0.408180
20
-0.218750
30
0.126295
0
VERTEX
8
0
6
CONTINUOUS
62
252
70
192
10
0.401152
20
-0.218750
30
0.092539
0
VERTEX
8
0
6
CONTINUOUS
62
252
70
192
10
0.396272
20
-0.218750
30
0.060839
0
VERTEX
8
0
6
CONTINUOUS
62
252
70
192
10
0.393372
20
-0.218750
30
0.030277
0
VERTEX
8
0
6
CONTINUOUS
62
252
70
192
10
0.392400
20
-0.218750
30
0.000000
0
VERTEX
8
0
6
CONTINUOUS
62
252
70
192
10
0.393372
20
-0.218750
30
-0.030277
0
VERTEX
8
0
6
CONTINUOUS
62
252
70
192
10
0.396272
20
-0.218750
30
-0.060839
0
VERTEX
8
0
6
CONTINUOUS
62
252
70
192
10
0.401152
20
-0.218750
30
-0.092539
0
VERTEX
8
0
6
CONTINUOUS
62
252
70
192
10
0.408180
20
-0.218750
30
-0.126295
0
VERTEX
8
0
6
CONTINUOUS
62
252
70
128
10
0.000000
20
0.000000
30
0.000000
71
18
72
1
73
17
0
VERTEX
8
0
6
CONTINUOUS
62
252
70
128
10
0.000000
20
0.000000
30
0.000000
71
17
72
1
73
2
0
VERTEX
8
0
6
CONTINUOUS
62
252
70
128
10
0.000000
20
0.000000
30
0.000000
71
17
72
2
73
3
0
VERTEX
8
0
6
CONTINUOUS
62
252
70
128
10
0.000000
20
0.000000
30
0.000000
71
17
72
3
73
16
0
VERTEX
8
0
6
CONTINUOUS
62
252
70
128
10
0.000000
20
0.000000
30
0.000000
71
16
72
3
73
4
0
VERTEX
8
0
6
CONTINUOUS
62
252
70
128
10
0.000000
20
0.000000
30
0.000000
71
16
72
4
73
15
0
VERTEX
8
0
6
CONTINUOUS
62
252
70
128
10
0.000000
20
0.000000
30
0.000000
71
15
72
4
73
14
0
VERTEX
8
0
6
CONTINUOUS
62
252
70
128
10
0.000000
20
0.000000
30
0.000000
71
14
72
4
73
5
0
VERTEX
8
0
6
CONTINUOUS
62
252
70
128
10
0.000000
20
0.000000
30
0.000000
71
14
72
5
73
6
0
VERTEX
8
0
6
CONTINUOUS
62
252
70
128
10
0.000000
20
0.000000
30
0.000000
71
7
72
12
73
6
0
VERTEX
8
0
6
CONTINUOUS
62
252
70
128
10
0.000000
20
0.000000
30
0.000000
71
6
72
12
73
13
0
VERTEX
8
0
6
CONTINUOUS
62
252
70
128
10
0.000000
20
0.000000
30
0.000000
71
6
72
13
73
14
0
VERTEX
8
0
6
CONTINUOUS
62
252
70
128
10
0.000000
20
0.000000
30
0.000000
71
12
72
7
73
11
0
VERTEX
8
0
6
CONTINUOUS
62
252
70
128
10
0.000000
20
0.000000
30
0.000000
71
11
72
7
73
8
0
VERTEX
8
0
6
CONTINUOUS
62
252
70
128
10
0.000000
20
0.000000
30
0.000000
71
11
72
8
73
9
0
VERTEX
8
0
6
CONTINUOUS
62
252
70
128
10
0.000000
20
0.000000
30
0.000000
71
9
72
10
73
11
0
SEQEND
0
POLYLINE
66
1
8
0
6
CONTINUOUS
62
252
70
64
75
0
10
0.000000
20
0.000000
30
0.000000
0
VERTEX
8
0
6
CONTINUOUS
62
252
70
192
10
0.408180
20
0.000000
30
0.252591
0
VERTEX
8
0
6
CONTINUOUS
62
252
70
192
10
0.401152
20
0.029234
30
0.235712
0
VERTEX
8
0
6
CONTINUOUS
62
252
70
192
10
0.396272
20
0.056687
30
0.219862
0
VERTEX
8
0
6
CONTINUOUS
62
252
70
192
10
0.393372
20
0.083154
30
0.204582
0
VERTEX
8
0
6
CONTINUOUS
62
252
70
192
10
0.392400
20
0.109375
30
0.189443
0
VERTEX
8
0
6
CONTINUOUS
62
252
70
192
10
0.392400
20
0.088974
30
0.199838
0
VERTEX
8
0
6
CONTINUOUS
62
252
70
192
10
0.392400
20
0.067597
30
0.208044
0
VERTEX
8
0
6
CONTINUOUS
62
252
70
192
10
0.392400
20
0.045481
30
0.213970
0
VERTEX
8
0
6
CONTINUOUS
62
252
70
192
10
0.392400
20
0.022866
30
0.217552
0
VERTEX
8
0
6
CONTINUOUS
62
252
70
192
10
0.392400
20
-0.000000
30
0.218750
0
VERTEX
8
0
6
CONTINUOUS
62
252
70
192
10
0.392400
20
-0.022866
30
0.217552
0
VERTEX
8
0
6
CONTINUOUS
62
252
70
192
10
0.392400
20
-0.045481
30
0.213970
0
VERTEX
8
0
6
CONTINUOUS
62
252
70
192
10
0.392400
20
-0.067597
30
0.208044
0
VERTEX
8
0
6
CONTINUOUS
62
252
70
192
10
0.392400
20
-0.088974
30
0.199838
0
VERTEX
8
0
6
CONTINUOUS
62
252
70
192
10
0.392400
20
-0.109375
30
0.189443
0
VERTEX
8
0
6
CONTINUOUS
62
252
70
192
10
0.393372
20
-0.083154
30
0.204582
0
VERTEX
8
0
6
CONTINUOUS
62
252
70
192
10
0.396272
20
-0.056687
30
0.219862
0
VERTEX
8
0
6
CONTINUOUS
62
252
70
192
10
0.401152
20
-0.029234
30
0.235712
0
VERTEX
8
0
6
CONTINUOUS
62
252
70
128
10
0.000000
20
0.000000
30
0.000000
71
2
72
9
73
1
0
VERTEX
8
0
6
CONTINUOUS
62
252
70
128
10
0.000000
20
0.000000
30
0.000000
71
1
72
9
73
10
0
VERTEX
8
0
6
CONTINUOUS
62
252
70
128
10
0.000000
20
0.000000
30
0.000000
71
1
72
10
73
11
0
VERTEX
8
0
6
CONTINUOUS
62
252
70
128
10
0.000000
20
0.000000
30
0.000000
71
9
72
2
73
8
0
VERTEX
8
0
6
CONTINUOUS
62
252
70
128
10
0.000000
20
0.000000
30
0.000000
71
8
72
2
73
3
0
VERTEX
8
0
6
CONTINUOUS
62
252
70
128
10
0.000000
20
0.000000
30
0.000000
71
8
72
3
73
7
0
VERTEX
8
0
6
CONTINUOUS
62
252
70
128
10
0.000000
20
0.000000
30
0.000000
71
7
72
3
73
4
0
VERTEX
8
0
6
CONTINUOUS
62
252
70
128
10
0.000000
20
0.000000
30
0.000000
71
7
72
4
73
6
0
VERTEX
8
0
6
CONTINUOUS
62
252
70
128
10
0.000000
20
0.000000
30
0.000000
71
6
72
4
73
5
0
VERTEX
8
0
6
CONTINUOUS
62
252
70
128
10
0.000000
20
0.000000
30
0.000000
71
1
72
11
73
18
0
VERTEX
8
0
6
CONTINUOUS
62
252
70
128
10
0.000000
20
0.000000
30
0.000000
71
18
72
11
73
12
0
VERTEX
8
0
6
CONTINUOUS
62
252
70
128
10
0.000000
20
0.000000
30
0.000000
71
18
72
12
73
17
0
VERTEX
8
0
6
CONTINUOUS
62
252
70
128
10
0.000000
20
0.000000
30
0.000000
71
17
72
12
73
13
0
VERTEX
8
0
6
CONTINUOUS
62
252
70
128
10
0.000000
20
0.000000
30
0.000000
71
17
72
13
73
16
0
VERTEX
8
0
6
CONTINUOUS
62
252
70
128
10
0.000000
20
0.000000
30
0.000000
71
16
72
13
73
14
0
VERTEX
8
0
6
CONTINUOUS
62
252
70
128
10
0.000000
20
0.000000
30
0.000000
71
16
72
14
73
15
0
SEQEND
0
POLYLINE
66
1
8
0
6
CONTINUOUS
62
252
70
64
75
0
10
0.000000
20
0.000000
30
0.000000
0
VERTEX
8
0
6
CONTINUOUS
62
252
70
192
10
0.408180
20
0.218750
30
0.126295
0
VERTEX
8
0
6
CONTINUOUS
62
252
70
192
10
0.401152
20
0.218750
30
0.092539
0
VERTEX
8
0
6
CONTINUOUS
62
252
70
192
10
0.396272
20
0.218750
30
0.060839
0
VERTEX
8
0
6
CONTINUOUS
62
252
70
192
10
0.393372
20
0.218750
30
0.030277
0
VERTEX
8
0
6
CONTINUOUS
62
252
70
192
10
0.392400
20
0.218750
30
-0.000000
0
VERTEX
8
0
6
CONTINUOUS
62
252
70
192
10
0.392400
20
0.217552
30
0.022866
0
VERTEX
8
0
6
CONTINUOUS
62
252
70
192
10
0.392400
20
0.213970
30
0.045481
0
VERTEX
8
0
6
CONTINUOUS
62
252
70
192
10
0.392400
20
0.208044
30
0.067597
0
VERTEX
8
0
6
CONTINUOUS
62
252
70
192
10
0.392400
20
0.199838
30
0.088974
0
VERTEX
8
0
6
CONTINUOUS
62
252
70
192
10
0.392400
20
0.189443
30
0.109375
0
VERTEX
8
0
6
CONTINUOUS
62
252
70
192
10
0.392400
20
0.176972
30
0.128578
0
VERTEX
8
0
6
CONTINUOUS
62
252
70
192
10
0.392400
20
0.162563
30
0.146372
0
VERTEX
8
0
6
CONTINUOUS
62
252
70
192
10
0.392400
20
0.146372
30
0.162563
0
VERTEX
8
0
6
CONTINUOUS
62
252
70
192
10
0.392400
20
0.128578
30
0.176972
0
VERTEX
8
0
6
CONTINUOUS
62
252
70
192
10
0.392400
20
0.109375
30
0.189443
0
VERTEX
8
0
6
CONTINUOUS
62
252
70
192
10
0.393372
20
0.135596
30
0.174305
0
VERTEX
8
0
6
CONTINUOUS
62
252
70
192
10
0.396272
20
0.162063
30
0.159024
0
VERTEX
8
0
6
CONTINUOUS
62
252
70
192
10
0.401152
20
0.189516
30
0.143174
0
VERTEX
8
0
6
CONTINUOUS
62
252
70
128
10
0.000000
20
0.000000
30
0.000000
71
2
72
9
73
1
0
VERTEX
8
0
6
CONTINUOUS
62
252
70
128
10
0.000000
20
0.000000
30
0.000000
71
1
72
9
73
10
0
VERTEX
8
0
6
CONTINUOUS
62
252
70
128
10
0.000000
20
0.000000
30
0.000000
71
1
72
10
73
11
0
VERTEX
8
0
6
CONTINUOUS
62
252
70
128
10
0.000000
20
0.000000
30
0.000000
71
9
72
2
73
8
0
VERTEX
8
0
6
CONTINUOUS
62
252
70
128
10
0.000000
20
0.000000
30
0.000000
71
8
72
2
73
3
0
VERTEX
8
0
6
CONTINUOUS
62
252
70
128
10
0.000000
20
0.000000
30
0.000000
71
8
72
3
73
7
0
VERTEX
8
0
6
CONTINUOUS
62
252
70
128
10
0.000000
20
0.000000
30
0.000000
71
7
72
3
73
4
0
VERTEX
8
0
6
CONTINUOUS
62
252
70
128
10
0.000000
20
0.000000
30
0.000000
71
7
72
4
73
6
0
VERTEX
8
0
6
CONTINUOUS
62
252
70
128
10
0.000000
20
0.000000
30
0.000000
71
6
72
4
73
5
0
VERTEX
8
0
6
CONTINUOUS
62
252
70
128
10
0.000000
20
0.000000
30
0.000000
71
1
72
11
73
18
0
VERTEX
8
0
6
CONTINUOUS
62
252
70
128
10
0.000000
20
0.000000
30
0.000000
71
18
72
11
73
12
0
VERTEX
8
0
6
CONTINUOUS
62
252
70
128
10
0.000000
20
0.000000
30
0.000000
71
18
72
12
73
17
0
VERTEX
8
0
6
CONTINUOUS
62
252
70
128
10
0.000000
20
0.000000
30
0.000000
71
17
72
12
73
13
0
VERTEX
8
0
6
CONTINUOUS
62
252
70
128
10
0.000000
20
0.000000
30
0.000000
71
17
72
13
73
16
0
VERTEX
8
0
6
CONTINUOUS
62
252
70
128
10
0.000000
20
0.000000
30
0.000000
71
16
72
13
73
14
0
VERTEX
8
0
6
CONTINUOUS
62
252
70
128
10
0.000000
20
0.000000
30
0.000000
71
16
72
14
73
15
0
SEQEND
0
POLYLINE
66
1
8
0
6
CONTINUOUS
62
252
70
64
75
0
10
0.000000
20
0.000000
30
0.000000
0
VERTEX
8
0
6
CONTINUOUS
62
252
70
192
10
0.392400
20
-0.218750
30
0.000000
0
VERTEX
8
0
6
CONTINUOUS
62
252
70
192
10
0.393372
20
-0.218750
30
0.030277
0
VERTEX
8
0
6
CONTINUOUS
62
252
70
192
10
0.396272
20
-0.218750
30
0.060839
0
VERTEX
8
0
6
CONTINUOUS
62
252
70
192
10
0.401152
20
-0.218750
30
0.092539
0
VERTEX
8
0
6
CONTINUOUS
62
252
70
192
10
0.408180
20
-0.218750
30
0.126295
0
VERTEX
8
0
6
CONTINUOUS
62
252
70
192
10
0.401152
20
-0.189516
30
0.143174
0
VERTEX
8
0
6
CONTINUOUS
62
252
70
192
10
0.396272
20
-0.162063
30
0.159024
0
VERTEX
8
0
6
CONTINUOUS
62
252
70
192
10
0.393372
20
-0.135596
30
0.174305
0
VERTEX
8
0
6
CONTINUOUS
62
252
70
192
10
0.392400
20
-0.109375
30
0.189443
0
VERTEX
8
0
6
CONTINUOUS
62
252
70
192
10
0.392400
20
-0.128578
30
0.176972
0
VERTEX
8
0
6
CONTINUOUS
62
252
70
192
10
0.392400
20
-0.146372
30
0.162563
0
VERTEX
8
0
6
CONTINUOUS
62
252
70
192
10
0.392400
20
-0.162563
30
0.146372
0
VERTEX
8
0
6
CONTINUOUS
62
252
70
192
10
0.392400
20
-0.176972
30
0.128578
0
VERTEX
8
0
6
CONTINUOUS
62
252
70
192
10
0.392400
20
-0.189443
30
0.109375
0
VERTEX
8
0
6
CONTINUOUS
62
252
70
192
10
0.392400
20
-0.199838
30
0.088974
0
VERTEX
8
0
6
CONTINUOUS
62
252
70
192
10
0.392400
20
-0.208044
30
0.067597
0
VERTEX
8
0
6
CONTINUOUS
62
252
70
192
10
0.392400
20
-0.213970
30
0.045481
0
VERTEX
8
0
6
CONTINUOUS
62
252
70
192
10
0.392400
20
-0.217552
30
0.022866
0
VERTEX
8
0
6
CONTINUOUS
62
252
70
128
10
0.000000
20
0.000000
30
0.000000
71
1
72
2
73
18
0
VERTEX
8
0
6
CONTINUOUS
62
252
70
128
10
0.000000
20
0.000000
30
0.000000
71
18
72
2
73
17
0
VERTEX
8
0
6
CONTINUOUS
62
252
70
128
10
0.000000
20
0.000000
30
0.000000
71
17
72
2
73
3
0
VERTEX
8
0
6
CONTINUOUS
62
252
70
128
10
0.000000
20
0.000000
30
0.000000
71
17
72
3
73
16
0
VERTEX
8
0
6
CONTINUOUS
62
252
70
128
10
0.000000
20
0.000000
30
0.000000
71
16
72
3
73
4
0
VERTEX
8
0
6
CONTINUOUS
62
252
70
128
10
0.000000
20
0.000000
30
0.000000
71
16
72
4
73
15
0
VERTEX
8
0
6
CONTINUOUS
62
252
70
128
10
0.000000
20
0.000000
30
0.000000
71
15
72
4
73
5
0
VERTEX
8
0
6
CONTINUOUS
62
252
70
128
10
0.000000
20
0.000000
30
0.000000
71
15
72
5
73
14
0
VERTEX
8
0
6
CONTINUOUS
62
252
70
128
10
0.000000
20
0.000000
30
0.000000
71
14
72
5
73
13
0
VERTEX
8
0
6
CONTINUOUS
62
252
70
128
10
0.000000
20
0.000000
30
0.000000
71
13
72
5
73
6
0
VERTEX
8
0
6
CONTINUOUS
62
252
70
128
10
0.000000
20
0.000000
30
0.000000
71
13
72
6
73
12
0
VERTEX
8
0
6
CONTINUOUS
62
252
70
128
10
0.000000
20
0.000000
30
0.000000
71
12
72
6
73
7
0
VERTEX
8
0
6
CONTINUOUS
62
252
70
128
10
0.000000
20
0.000000
30
0.000000
71
12
72
7
73
11
0
VERTEX
8
0
6
CONTINUOUS
62
252
70
128
10
0.000000
20
0.000000
30
0.000000
71
11
72
7
73
8
0
VERTEX
8
0
6
CONTINUOUS
62
252
70
128
10
0.000000
20
0.000000
30
0.000000
71
11
72
8
73
10
0
VERTEX
8
0
6
CONTINUOUS
62
252
70
128
10
0.000000
20
0.000000
30
0.000000
71
10
72
8
73
9
0
SEQEND
0
POLYLINE
66
1
8
0
6
CONTINUOUS
62
252
70
64
75
0
10
0.000000
20
0.000000
30
0.000000
0
VERTEX
8
0
6
CONTINUOUS
62
252
70
192
10
0.392400
20
-0.109375
30
-0.189443
0
VERTEX
8
0
6
CONTINUOUS
62
252
70
192
10
0.393372
20
-0.135596
30
-0.174305
0
VERTEX
8
0
6
CONTINUOUS
62
252
70
192
10
0.396272
20
-0.162063
30
-0.159024
0
VERTEX
8
0
6
CONTINUOUS
62
252
70
192
10
0.401152
20
-0.189516
30
-0.143174
0
VERTEX
8
0
6
CONTINUOUS
62
252
70
192
10
0.408180
20
-0.218750
30
-0.126295
0
VERTEX
8
0
6
CONTINUOUS
62
252
70
192
10
0.401152
20
-0.218750
30
-0.092539
0
VERTEX
8
0
6
CONTINUOUS
62
252
70
192
10
0.396272
20
-0.218750
30
-0.060839
0
VERTEX
8
0
6
CONTINUOUS
62
252
70
192
10
0.393372
20
-0.218750
30
-0.030277
0
VERTEX
8
0
6
CONTINUOUS
62
252
70
192
10
0.392400
20
-0.218750
30
0.000000
0
VERTEX
8
0
6
CONTINUOUS
62
252
70
192
10
0.392400
20
-0.217552
30
-0.022866
0
VERTEX
8
0
6
CONTINUOUS
62
252
70
192
10
0.392400
20
-0.213970
30
-0.045481
0
VERTEX
8
0
6
CONTINUOUS
62
252
70
192
10
0.392400
20
-0.208044
30
-0.067597
0
VERTEX
8
0
6
CONTINUOUS
62
252
70
192
10
0.392400
20
-0.199838
30
-0.088974
0
VERTEX
8
0
6
CONTINUOUS
62
252
70
192
10
0.392400
20
-0.189443
30
-0.109375
0
VERTEX
8
0
6
CONTINUOUS
62
252
70
192
10
0.392400
20
-0.176972
30
-0.128578
0
VERTEX
8
0
6
CONTINUOUS
62
252
70
192
10
0.392400
20
-0.162563
30
-0.146372
0
VERTEX
8
0
6
CONTINUOUS
62
252
70
192
10
0.392400
20
-0.146372
30
-0.162563
0
VERTEX
8
0
6
CONTINUOUS
62
252
70
192
10
0.392400
20
-0.128578
30
-0.176972
0
VERTEX
8
0
6
CONTINUOUS
62
252
70
128
10
0.000000
20
0.000000
30
0.000000
71
1
72
2
73
18
0
VERTEX
8
0
6
CONTINUOUS
62
252
70
128
10
0.000000
20
0.000000
30
0.000000
71
18
72
2
73
17
0
VERTEX
8
0
6
CONTINUOUS
62
252
70
128
10
0.000000
20
0.000000
30
0.000000
71
17
72
2
73
3
0
VERTEX
8
0
6
CONTINUOUS
62
252
70
128
10
0.000000
20
0.000000
30
0.000000
71
17
72
3
73
16
0
VERTEX
8
0
6
CONTINUOUS
62
252
70
128
10
0.000000
20
0.000000
30
0.000000
71
16
72
3
73
4
0
VERTEX
8
0
6
CONTINUOUS
62
252
70
128
10
0.000000
20
0.000000
30
0.000000
71
16
72
4
73
15
0
VERTEX
8
0
6
CONTINUOUS
62
252
70
128
10
0.000000
20
0.000000
30
0.000000
71
15
72
4
73
5
0
VERTEX
8
0
6
CONTINUOUS
62
252
70
128
10
0.000000
20
0.000000
30
0.000000
71
15
72
5
73
14
0
VERTEX
8
0
6
CONTINUOUS
62
252
70
128
10
0.000000
20
0.000000
30
0.000000
71
14
72
5
73
13
0
VERTEX
8
0
6
CONTINUOUS
62
252
70
128
10
0.000000
20
0.000000
30
0.000000
71
13
72
5
73
6
0
VERTEX
8
0
6
CONTINUOUS
62
252
70
128
10
0.000000
20
0.000000
30
0.000000
71
13
72
6
73
12
0
VERTEX
8
0
6
CONTINUOUS
62
252
70
128
10
0.000000
20
0.000000
30
0.000000
71
12
72
6
73
7
0
VERTEX
8
0
6
CONTINUOUS
62
252
70
128
10
0.000000
20
0.000000
30
0.000000
71
12
72
7
73
11
0
VERTEX
8
0
6
CONTINUOUS
62
252
70
128
10
0.000000
20
0.000000
30
0.000000
71
11
72
7
73
8
0
VERTEX
8
0
6
CONTINUOUS
62
252
70
128
10
0.000000
20
0.000000
30
0.000000
71
11
72
8
73
10
0
VERTEX
8
0
6
CONTINUOUS
62
252
70
128
10
0.000000
20
0.000000
30
0.000000
71
10
72
8
73
9
0
SEQEND
0
POLYLINE
66
1
8
0
6
CONTINUOUS
62
252
70
64
75
0
10
0.000000
20
0.000000
30
0.000000
0
VERTEX
8
0
6
CONTINUOUS
62
252
70
192
10
0.408180
20
0.218750
30
-0.126295
0
VERTEX
8
0
6
CONTINUOUS
62
252
70
192
10
0.401152
20
0.189516
30
-0.143174
0
VERTEX
8
0
6
CONTINUOUS
62
252
70
192
10
0.396272
20
0.162063
30
-0.159024
0
VERTEX
8
0
6
CONTINUOUS
62
252
70
192
10
0.393372
20
0.135596
30
-0.174305
0
VERTEX
8
0
6
CONTINUOUS
62
252
70
192
10
0.392400
20
0.109375
30
-0.189443
0
VERTEX
8
0
6
CONTINUOUS
62
252
70
192
10
0.392400
20
0.128578
30
-0.176972
0
VERTEX
8
0
6
CONTINUOUS
62
252
70
192
10
0.392400
20
0.146372
30
-0.162563
0
VERTEX
8
0
6
CONTINUOUS
62
252
70
192
10
0.392400
20
0.162563
30
-0.146372
0
VERTEX
8
0
6
CONTINUOUS
62
252
70
192
10
0.392400
20
0.176972
30
-0.128578
0
VERTEX
8
0
6
CONTINUOUS
62
252
70
192
10
0.392400
20
0.189443
30
-0.109375
0
VERTEX
8
0
6
CONTINUOUS
62
252
70
192
10
0.392400
20
0.199838
30
-0.088974
0
VERTEX
8
0
6
CONTINUOUS
62
252
70
192
10
0.392400
20
0.208044
30
-0.067597
0
VERTEX
8
0
6
CONTINUOUS
62
252
70
192
10
0.392400
20
0.213970
30
-0.045481
0
VERTEX
8
0
6
CONTINUOUS
62
252
70
192
10
0.392400
20
0.217552
30
-0.022866
0
VERTEX
8
0
6
CONTINUOUS
62
252
70
192
10
0.392400
20
0.218750
30
-0.000000
0
VERTEX
8
0
6
CONTINUOUS
62
252
70
192
10
0.393372
20
0.218750
30
-0.030277
0
VERTEX
8
0
6
CONTINUOUS
62
252
70
192
10
0.396272
20
0.218750
30
-0.060839
0
VERTEX
8
0
6
CONTINUOUS
62
252
70
192
10
0.401152
20
0.218750
30
-0.092539
0
VERTEX
8
0
6
CONTINUOUS
62
252
70
128
10
0.000000
20
0.000000
30
0.000000
71
2
72
9
73
1
0
VERTEX
8
0
6
CONTINUOUS
62
252
70
128
10
0.000000
20
0.000000
30
0.000000
71
1
72
9
73
10
0
VERTEX
8
0
6
CONTINUOUS
62
252
70
128
10
0.000000
20
0.000000
30
0.000000
71
1
72
10
73
11
0
VERTEX
8
0
6
CONTINUOUS
62
252
70
128
10
0.000000
20
0.000000
30
0.000000
71
9
72
2
73
8
0
VERTEX
8
0
6
CONTINUOUS
62
252
70
128
10
0.000000
20
0.000000
30
0.000000
71
8
72
2
73
3
0
VERTEX
8
0
6
CONTINUOUS
62
252
70
128
10
0.000000
20
0.000000
30
0.000000
71
8
72
3
73
7
0
VERTEX
8
0
6
CONTINUOUS
62
252
70
128
10
0.000000
20
0.000000
30
0.000000
71
7
72
3
73
4
0
VERTEX
8
0
6
CONTINUOUS
62
252
70
128
10
0.000000
20
0.000000
30
0.000000
71
7
72
4
73
6
0
VERTEX
8
0
6
CONTINUOUS
62
252
70
128
10
0.000000
20
0.000000
30
0.000000
71
6
72
4
73
5
0
VERTEX
8
0
6
CONTINUOUS
62
252
70
128
10
0.000000
20
0.000000
30
0.000000
71
1
72
11
73
18
0
VERTEX
8
0
6
CONTINUOUS
62
252
70
128
10
0.000000
20
0.000000
30
0.000000
71
18
72
11
73
12
0
VERTEX
8
0
6
CONTINUOUS
62
252
70
128
10
0.000000
20
0.000000
30
0.000000
71
18
72
12
73
17
0
VERTEX
8
0
6
CONTINUOUS
62
252
70
128
10
0.000000
20
0.000000
30
0.000000
71
17
72
12
73
13
0
VERTEX
8
0
6
CONTINUOUS
62
252
70
128
10
0.000000
20
0.000000
30
0.000000
71
17
72
13
73
16
0
VERTEX
8
0
6
CONTINUOUS
62
252
70
128
10
0.000000
20
0.000000
30
0.000000
71
16
72
13
73
14
0
VERTEX
8
0
6
CONTINUOUS
62
252
70
128
10
0.000000
20
0.000000
30
0.000000
71
16
72
14
73
15
0
SEQEND
0
POLYLINE
66
1
8
0
6
CONTINUOUS
62
252
70
64
75
0
10
0.000000
20
0.000000
30
0.000000
0
VERTEX
8
0
6
CONTINUOUS
62
252
70
192
10
0.408180
20
0.000000
30
-0.252591
0
VERTEX
8
0
6
CONTINUOUS
62
252
70
192
10
0.401152
20
-0.029234
30
-0.235712
0
VERTEX
8
0
6
CONTINUOUS
62
252
70
192
10
0.396272
20
-0.056687
30
-0.219862
0
VERTEX
8
0
6
CONTINUOUS
62
252
70
192
10
0.393372
20
-0.083154
30
-0.204582
0
VERTEX
8
0
6
CONTINUOUS
62
252
70
192
10
0.392400
20
-0.109375
30
-0.189443
0
VERTEX
8
0
6
CONTINUOUS
62
252
70
192
10
0.392400
20
-0.088974
30
-0.199838
0
VERTEX
8
0
6
CONTINUOUS
62
252
70
192
10
0.392400
20
-0.067597
30
-0.208044
0
VERTEX
8
0
6
CONTINUOUS
62
252
70
192
10
0.392400
20
-0.045481
30
-0.213970
0
VERTEX
8
0
6
CONTINUOUS
62
252
70
192
10
0.392400
20
-0.022866
30
-0.217552
0
VERTEX
8
0
6
CONTINUOUS
62
252
70
192
10
0.392400
20
-0.000000
30
-0.218750
0
VERTEX
8
0
6
CONTINUOUS
62
252
70
192
10
0.392400
20
0.022866
30
-0.217552
0
VERTEX
8
0
6
CONTINUOUS
62
252
70
192
10
0.392400
20
0.045481
30
-0.213970
0
VERTEX
8
0
6
CONTINUOUS
62
252
70
192
10
0.392400
20
0.067597
30
-0.208044
0
VERTEX
8
0
6
CONTINUOUS
62
252
70
192
10
0.392400
20
0.088974
30
-0.199838
0
VERTEX
8
0
6
CONTINUOUS
62
252
70
192
10
0.392400
20
0.109375
30
-0.189443
0
VERTEX
8
0
6
CONTINUOUS
62
252
70
192
10
0.393372
20
0.083154
30
-0.204582
0
VERTEX
8
0
6
CONTINUOUS
62
252
70
192
10
0.396272
20
0.056687
30
-0.219862
0
VERTEX
8
0
6
CONTINUOUS
62
252
70
192
10
0.401152
20
0.029234
30
-0.235712
0
VERTEX
8
0
6
CONTINUOUS
62
252
70
128
10
0.000000
20
0.000000
30
0.000000
71
2
72
9
73
1
0
VERTEX
8
0
6
CONTINUOUS
62
252
70
128
10
0.000000
20
0.000000
30
0.000000
71
1
72
9
73
10
0
VERTEX
8
0
6
CONTINUOUS
62
252
70
128
10
0.000000
20
0.000000
30
0.000000
71
1
72
10
73
11
0
VERTEX
8
0
6
CONTINUOUS
62
252
70
128
10
0.000000
20
0.000000
30
0.000000
71
9
72
2
73
8
0
VERTEX
8
0
6
CONTINUOUS
62
252
70
128
10
0.000000
20
0.000000
30
0.000000
71
8
72
2
73
3
0
VERTEX
8
0
6
CONTINUOUS
62
252
70
128
10
0.000000
20
0.000000
30
0.000000
71
8
72
3
73
7
0
VERTEX
8
0
6
CONTINUOUS
62
252
70
128
10
0.000000
20
0.000000
30
0.000000
71
7
72
3
73
4
0
VERTEX
8
0
6
CONTINUOUS
62
252
70
128
10
0.000000
20
0.000000
30
0.000000
71
7
72
4
73
6
0
VERTEX
8
0
6
CONTINUOUS
62
252
70
128
10
0.000000
20
0.000000
30
0.000000
71
6
72
4
73
5
0
VERTEX
8
0
6
CONTINUOUS
62
252
70
128
10
0.000000
20
0.000000
30
0.000000
71
1
72
11
73
18
0
VERTEX
8
0
6
CONTINUOUS
62
252
70
128
10
0.000000
20
0.000000
30
0.000000
71
18
72
11
73
12
0
VERTEX
8
0
6
CONTINUOUS
62
252
70
128
10
0.000000
20
0.000000
30
0.000000
71
18
72
12
73
17
0
VERTEX
8
0
6
CONTINUOUS
62
252
70
128
10
0.000000
20
0.000000
30
0.000000
71
17
72
12
73
13
0
VERTEX
8
0
6
CONTINUOUS
62
252
70
128
10
0.000000
20
0.000000
30
0.000000
71
17
72
13
73
16
0
VERTEX
8
0
6
CONTINUOUS
62
252
70
128
10
0.000000
20
0.000000
30
0.000000
71
16
72
13
73
14
0
VERTEX
8
0
6
CONTINUOUS
62
252
70
128
10
0.000000
20
0.000000
30
0.000000
71
16
72
14
73
15
0
SEQEND
0
POLYLINE
66
1
8
0
6
CONTINUOUS
62
252
70
64
75
0
10
0.000000
20
0.000000
30
0.000000
0
VERTEX
8
0
6
CONTINUOUS
62
252
70
192
10
0.600000
20
0.218750
30
-0.000000
0
VERTEX
8
0
6
CONTINUOUS
62
252
70
192
10
0.599028
20
0.218750
30
-0.030277
0
VERTEX
8
0
6
CONTINUOUS
62
252
70
192
10
0.596128
20
0.218750
30
-0.060839
0
VERTEX
8
0
6
CONTINUOUS
62
252
70
192
10
0.591248
20
0.218750
30
-0.092539
0
VERTEX
8
0
6
CONTINUOUS
62
252
70
192
10
0.584220
20
0.218750
30
-0.126295
0
VERTEX
8
0
6
CONTINUOUS
62
252
70
192
10
0.408180
20
0.218750
30
-0.126295
0
VERTEX
8
0
6
CONTINUOUS
62
252
70
192
10
0.401152
20
0.218750
30
-0.092539
0
VERTEX
8
0
6
CONTINUOUS
62
252
70
192
10
0.396272
20
0.218750
30
-0.060839
0
VERTEX
8
0
6
CONTINUOUS
62
252
70
192
10
0.393372
20
0.218750
30
-0.030277
0
VERTEX
8
0
6
CONTINUOUS
62
252
70
192
10
0.392400
20
0.218750
30
-0.000000
0
VERTEX
8
0
6
CONTINUOUS
62
252
70
192
10
0.393372
20
0.218750
30
0.030277
0
VERTEX
8
0
6
CONTINUOUS
62
252
70
192
10
0.396272
20
0.218750
30
0.060839
0
VERTEX
8
0
6
CONTINUOUS
62
252
70
192
10
0.401152
20
0.218750
30
0.092539
0
VERTEX
8
0
6
CONTINUOUS
62
252
70
192
10
0.408180
20
0.218750
30
0.126295
0
VERTEX
8
0
6
CONTINUOUS
62
252
70
192
10
0.584220
20
0.218750
30
0.126295
0
VERTEX
8
0
6
CONTINUOUS
62
252
70
192
10
0.591248
20
0.218750
30
0.092539
0
VERTEX
8
0
6
CONTINUOUS
62
252
70
192
10
0.596128
20
0.218750
30
0.060839
0
VERTEX
8
0
6
CONTINUOUS
62
252
70
192
10
0.599028
20
0.218750
30
0.030277
0
VERTEX
8
0
6
CONTINUOUS
62
252
70
128
10
0.000000
20
0.000000
30
0.000000
71
2
72
10
73
1
0
VERTEX
8
0
6
CONTINUOUS
62
252
70
128
10
0.000000
20
0.000000
30
0.000000
71
1
72
10
73
11
0
VERTEX
8
0
6
CONTINUOUS
62
252
70
128
10
0.000000
20
0.000000
30
0.000000
71
1
72
11
73
18
0
VERTEX
8
0
6
CONTINUOUS
62
252
70
128
10
0.000000
20
0.000000
30
0.000000
71
18
72
11
73
17
0
VERTEX
8
0
6
CONTINUOUS
62
252
70
128
10
0.000000
20
0.000000
30
0.000000
71
17
72
11
73
12
0
VERTEX
8
0
6
CONTINUOUS
62
252
70
128
10
0.000000
20
0.000000
30
0.000000
71
17
72
12
73
16
0
VERTEX
8
0
6
CONTINUOUS
62
252
70
128
10
0.000000
20
0.000000
30
0.000000
71
16
72
12
73
13
0
VERTEX
8
0
6
CONTINUOUS
62
252
70
128
10
0.000000
20
0.000000
30
0.000000
71
16
72
13
73
14
0
VERTEX
8
0
6
CONTINUOUS
62
252
70
128
10
0.000000
20
0.000000
30
0.000000
71
10
72
2
73
9
0
VERTEX
8
0
6
CONTINUOUS
62
252
70
128
10
0.000000
20
0.000000
30
0.000000
71
9
72
2
73
3
0
VERTEX
8
0
6
CONTINUOUS
62
252
70
128
10
0.000000
20
0.000000
30
0.000000
71
9
72
3
73
8
0
VERTEX
8
0
6
CONTINUOUS
62
252
70
128
10
0.000000
20
0.000000
30
0.000000
71
8
72
3
73
7
0
VERTEX
8
0
6
CONTINUOUS
62
252
70
128
10
0.000000
20
0.000000
30
0.000000
71
7
72
3
73
4
0
VERTEX
8
0
6
CONTINUOUS
62
252
70
128
10
0.000000
20
0.000000
30
0.000000
71
7
72
4
73
6
0
VERTEX
8
0
6
CONTINUOUS
62
252
70
128
10
0.000000
20
0.000000
30
0.000000
71
6
72
4
73
5
0
VERTEX
8
0
6
CONTINUOUS
62
252
70
128
10
0.000000
20
0.000000
30
0.000000
71
14
72
15
73
16
0
SEQEND
0
POLYLINE
66
1
8
0
6
CONTINUOUS
62
252
70
64
75
0
10
0.000000
20
0.000000
30
0.000000
0
VERTEX
8
0
6
CONTINUOUS
62
252
70
192
10
0.600000
20
0.109375
30
0.189443
0
VERTEX
8
0
6
CONTINUOUS
62
252
70
192
10
0.599028
20
0.135596
30
0.174305
0
VERTEX
8
0
6
CONTINUOUS
62
252
70
192
10
0.596128
20
0.162063
30
0.159024
0
VERTEX
8
0
6
CONTINUOUS
62
252
70
192
10
0.591248
20
0.189516
30
0.143174
0
VERTEX
8
0
6
CONTINUOUS
62
252
70
192
10
0.584220
20
0.218750
30
0.126295
0
VERTEX
8
0
6
CONTINUOUS
62
252
70
192
10
0.408180
20
0.218750
30
0.126295
0
VERTEX
8
0
6
CONTINUOUS
62
252
70
192
10
0.401152
20
0.189516
30
0.143174
0
VERTEX
8
0
6
CONTINUOUS
62
252
70
192
10
0.396272
20
0.162063
30
0.159024
0
VERTEX
8
0
6
CONTINUOUS
62
252
70
192
10
0.393372
20
0.135596
30
0.174305
0
VERTEX
8
0
6
CONTINUOUS
62
252
70
192
10
0.392400
20
0.109375
30
0.189443
0
VERTEX
8
0
6
CONTINUOUS
62
252
70
192
10
0.393372
20
0.083154
30
0.204582
0
VERTEX
8
0
6
CONTINUOUS
62
252
70
192
10
0.396272
20
0.056687
30
0.219862
0
VERTEX
8
0
6
CONTINUOUS
62
252
70
192
10
0.401152
20
0.029234
30
0.235712
0
VERTEX
8
0
6
CONTINUOUS
62
252
70
192
10
0.408180
20
0.000000
30
0.252591
0
VERTEX
8
0
6
CONTINUOUS
62
252
70
192
10
0.584220
20
0.000000
30
0.252591
0
VERTEX
8
0
6
CONTINUOUS
62
252
70
192
10
0.591248
20
0.029234
30
0.235712
0
VERTEX
8
0
6
CONTINUOUS
62
252
70
192
10
0.596128
20
0.056687
30
0.219862
0
VERTEX
8
0
6
CONTINUOUS
62
252
70
192
10
0.599028
20
0.083154
30
0.204582
0
VERTEX
8
0
6
CONTINUOUS
62
252
70
128
10
0.000000
20
0.000000
30
0.000000
71
2
72
9
73
1
0
VERTEX
8
0
6
CONTINUOUS
62
252
70
128
10
0.000000
20
0.000000
30
0.000000
71
1
72
9
73
10
0
VERTEX
8
0
6
CONTINUOUS
62
252
70
128
10
0.000000
20
0.000000
30
0.000000
71
1
72
10
73
11
0
VERTEX
8
0
6
CONTINUOUS
62
252
70
128
10
0.000000
20
0.000000
30
0.000000
71
2
72
3
73
9
0
VERTEX
8
0
6
CONTINUOUS
62
252
70
128
10
0.000000
20
0.000000
30
0.000000
71
9
72
3
73
8
0
VERTEX
8
0
6
CONTINUOUS
62
252
70
128
10
0.000000
20
0.000000
30
0.000000
71
8
72
3
73
4
0
VERTEX
8
0
6
CONTINUOUS
62
252
70
128
10
0.000000
20
0.000000
30
0.000000
71
8
72
4
73
7
0
VERTEX
8
0
6
CONTINUOUS
62
252
70
128
10
0.000000
20
0.000000
30
0.000000
71
7
72
4
73
6
0
VERTEX
8
0
6
CONTINUOUS
62
252
70
128
10
0.000000
20
0.000000
30
0.000000
71
6
72
4
73
5
0
VERTEX
8
0
6
CONTINUOUS
62
252
70
128
10
0.000000
20
0.000000
30
0.000000
71
12
72
17
73
11
0
VERTEX
8
0
6
CONTINUOUS
62
252
70
128
10
0.000000
20
0.000000
30
0.000000
71
11
72
17
73
18
0
VERTEX
8
0
6
CONTINUOUS
62
252
70
128
10
0.000000
20
0.000000
30
0.000000
71
11
72
18
73
1
0
VERTEX
8
0
6
CONTINUOUS
62
252
70
128
10
0.000000
20
0.000000
30
0.000000
71
17
72
12
73
16
0
VERTEX
8
0
6
CONTINUOUS
62
252
70
128
10
0.000000
20
0.000000
30
0.000000
71
16
72
12
73
13
0
VERTEX
8
0
6
CONTINUOUS
62
252
70
128
10
0.000000
20
0.000000
30
0.000000
71
16
72
13
73
14
0
VERTEX
8
0
6
CONTINUOUS
62
252
70
128
10
0.000000
20
0.000000
30
0.000000
71
14
72
15
73
16
0
SEQEND
0
POLYLINE
66
1
8
0
6
CONTINUOUS
62
252
70
64
75
0
10
0.000000
20
0.000000
30
0.000000
0
VERTEX
8
0
6
CONTINUOUS
62
252
70
192
10
0.600000
20
-0.109375
30
0.189443
0
VERTEX
8
0
6
CONTINUOUS
62
252
70
192
10
0.599028
20
-0.083154
30
0.204582
0
VERTEX
8
0
6
CONTINUOUS
62
252
70
192
10
0.596128
20
-0.056687
30
0.219862
0
VERTEX
8
0
6
CONTINUOUS
62
252
70
192
10
0.591248
20
-0.029234
30
0.235712
0
VERTEX
8
0
6
CONTINUOUS
62
252
70
192
10
0.584220
20
0.000000
30
0.252591
0
VERTEX
8
0
6
CONTINUOUS
62
252
70
192
10
0.408180
20
0.000000
30
0.252591
0
VERTEX
8
0
6
CONTINUOUS
62
252
70
192
10
0.401152
20
-0.029234
30
0.235712
0
VERTEX
8
0
6
CONTINUOUS
62
252
70
192
10
0.396272
20
-0.056687
30
0.219862
0
VERTEX
8
0
6
CONTINUOUS
62
252
70
192
10
0.393372
20
-0.083154
30
0.204582
0
VERTEX
8
0
6
CONTINUOUS
62
252
70
192
10
0.392400
20
-0.109375
30
0.189443
0
VERTEX
8
0
6
CONTINUOUS
62
252
70
192
10
0.393372
20
-0.135596
30
0.174305
0
VERTEX
8
0
6
CONTINUOUS
62
252
70
192
10
0.396272
20
-0.162063
30
0.159024
0
VERTEX
8
0
6
CONTINUOUS
62
252
70
192
10
0.401152
20
-0.189516
30
0.143174
0
VERTEX
8
0
6
CONTINUOUS
62
252
70
192
10
0.408180
20
-0.218750
30
0.126295
0
VERTEX
8
0
6
CONTINUOUS
62
252
70
192
10
0.584220
20
-0.218750
30
0.126295
0
VERTEX
8
0
6
CONTINUOUS
62
252
70
192
10
0.591248
20
-0.189516
30
0.143174
0
VERTEX
8
0
6
CONTINUOUS
62
252
70
192
10
0.596128
20
-0.162063
30
0.159024
0
VERTEX
8
0
6
CONTINUOUS
62
252
70
192
10
0.599028
20
-0.135596
30
0.174305
0
VERTEX
8
0
6
CONTINUOUS
62
252
70
128
10
0.000000
20
0.000000
30
0.000000
71
18
72
1
73
10
0
VERTEX
8
0
6
CONTINUOUS
62
252
70
128
10
0.000000
20
0.000000
30
0.000000
71
10
72
1
73
2
0
VERTEX
8
0
6
CONTINUOUS
62
252
70
128
10
0.000000
20
0.000000
30
0.000000
71
10
72
2
73
9
0
VERTEX
8
0
6
CONTINUOUS
62
252
70
128
10
0.000000
20
0.000000
30
0.000000
71
9
72
2
73
8
0
VERTEX
8
0
6
CONTINUOUS
62
252
70
128
10
0.000000
20
0.000000
30
0.000000
71
8
72
2
73
3
0
VERTEX
8
0
6
CONTINUOUS
62
252
70
128
10
0.000000
20
0.000000
30
0.000000
71
8
72
3
73
7
0
VERTEX
8
0
6
CONTINUOUS
62
252
70
128
10
0.000000
20
0.000000
30
0.000000
71
7
72
3
73
4
0
VERTEX
8
0
6
CONTINUOUS
62
252
70
128
10
0.000000
20
0.000000
30
0.000000
71
7
72
4
73
5
0
VERTEX
8
0
6
CONTINUOUS
62
252
70
128
10
0.000000
20
0.000000
30
0.000000
71
5
72
6
73
7
0
VERTEX
8
0
6
CONTINUOUS
62
252
70
128
10
0.000000
20
0.000000
30
0.000000
71
10
72
11
73
18
0
VERTEX
8
0
6
CONTINUOUS
62
252
70
128
10
0.000000
20
0.000000
30
0.000000
71
18
72
11
73
12
0
VERTEX
8
0
6
CONTINUOUS
62
252
70
128
10
0.000000
20
0.000000
30
0.000000
71
18
72
12
73
17
0
VERTEX
8
0
6
CONTINUOUS
62
252
70
128
10
0.000000
20
0.000000
30
0.000000
71
17
72
12
73
13
0
VERTEX
8
0
6
CONTINUOUS
62
252
70
128
10
0.000000
20
0.000000
30
0.000000
71
17
72
13
73
16
0
VERTEX
8
0
6
CONTINUOUS
62
252
70
128
10
0.000000
20
0.000000
30
0.000000
71
16
72
13
73
15
0
VERTEX
8
0
6
CONTINUOUS
62
252
70
128
10
0.000000
20
0.000000
30
0.000000
71
15
72
13
73
14
0
SEQEND
0
POLYLINE
66
1
8
0
6
CONTINUOUS
62
252
70
64
75
0
10
0.000000
20
0.000000
30
0.000000
0
VERTEX
8
0
6
CONTINUOUS
62
252
70
192
10
0.392400
20
0.000000
30
-0.202500
0
VERTEX
8
0
6
CONTINUOUS
62
252
70
192
10
0.392400
20
0.021167
30
-0.201391
0
VERTEX
8
0
6
CONTINUOUS
62
252
70
192
10
0.392400
20
0.042102
30
-0.198075
0
VERTEX
8
0
6
CONTINUOUS
62
252
70
192
10
0.392400
20
0.062576
30
-0.192589
0
VERTEX
8
0
6
CONTINUOUS
62
252
70
192
10
0.392400
20
0.082364
30
-0.184993
0
VERTEX
8
0
6
CONTINUOUS
62
252
70
192
10
0.392400
20
0.101250
30
-0.175370
0
VERTEX
8
0
6
CONTINUOUS
62
252
70
192
10
0.392400
20
0.119027
30
-0.163826
0
VERTEX
8
0
6
CONTINUOUS
62
252
70
192
10
0.392400
20
0.135499
30
-0.150487
0
VERTEX
8
0
6
CONTINUOUS
62
252
70
192
10
0.392400
20
0.150487
30
-0.135499
0
VERTEX
8
0
6
CONTINUOUS
62
252
70
192
10
0.392400
20
0.163826
30
-0.119027
0
VERTEX
8
0
6
CONTINUOUS
62
252
70
192
10
0.392400
20
0.175370
30
-0.101250
0
VERTEX
8
0
6
CONTINUOUS
62
252
70
192
10
0.392400
20
0.184993
30
-0.082364
0
VERTEX
8
0
6
CONTINUOUS
62
252
70
192
10
0.392400
20
0.192589
30
-0.062576
0
VERTEX
8
0
6
CONTINUOUS
62
252
70
192
10
0.392400
20
0.198075
30
-0.042102
0
VERTEX
8
0
6
CONTINUOUS
62
252
70
192
10
0.392400
20
0.201391
30
-0.021167
0
VERTEX
8
0
6
CONTINUOUS
62
252
70
192
10
0.392400
20
0.202500
30
-0.000000
0
VERTEX
8
0
6
CONTINUOUS
62
252
70
192
10
0.392400
20
0.201391
30
0.021167
0
VERTEX
8
0
6
CONTINUOUS
62
252
70
192
10
0.392400
20
0.198075
30
0.042102
0
VERTEX
8
0
6
CONTINUOUS
62
252
70
192
10
0.392400
20
0.192589
30
0.062576
0
VERTEX
8
0
6
CONTINUOUS
62
252
70
192
10
0.392400
20
0.184993
30
0.082364
0
VERTEX
8
0
6
CONTINUOUS
62
252
70
192
10
0.392400
20
0.175370
30
0.101250
0
VERTEX
8
0
6
CONTINUOUS
62
252
70
192
10
0.392400
20
0.163826
30
0.119027
0
VERTEX
8
0
6
CONTINUOUS
62
252
70
192
10
0.392400
20
0.150487
30
0.135499
0
VERTEX
8
0
6
CONTINUOUS
62
252
70
192
10
0.392400
20
0.135499
30
0.150487
0
VERTEX
8
0
6
CONTINUOUS
62
252
70
192
10
0.392400
20
0.119027
30
0.163826
0
VERTEX
8
0
6
CONTINUOUS
62
252
70
192
10
0.392400
20
0.101250
30
0.175370
0
VERTEX
8
0
6
CONTINUOUS
62
252
70
192
10
0.392400
20
0.082364
30
0.184993
0
VERTEX
8
0
6
CONTINUOUS
62
252
70
192
10
0.392400
20
0.062576
30
0.192589
0
VERTEX
8
0
6
CONTINUOUS
62
252
70
192
10
0.392400
20
0.042102
30
0.198075
0
VERTEX
8
0
6
CONTINUOUS
62
252
70
192
10
0.392400
20
0.021167
30
0.201391
0
VERTEX
8
0
6
CONTINUOUS
62
252
70
192
10
0.392400
20
0.000000
30
0.202500
0
VERTEX
8
0
6
CONTINUOUS
62
252
70
192
10
0.392400
20
-0.021167
30
0.201391
0
VERTEX
8
0
6
CONTINUOUS
62
252
70
192
10
0.392400
20
-0.042102
30
0.198075
0
VERTEX
8
0
6
CONTINUOUS
62
252
70
192
10
0.392400
20
-0.062576
30
0.192589
0
VERTEX
8
0
6
CONTINUOUS
62
252
70
192
10
0.392400
20
-0.082364
30
0.184993
0
VERTEX
8
0
6
CONTINUOUS
62
252
70
192
10
0.392400
20
-0.101250
30
0.175370
0
VERTEX
8
0
6
CONTINUOUS
62
252
70
192
10
0.392400
20
-0.119027
30
0.163826
0
VERTEX
8
0
6
CONTINUOUS
62
252
70
192
10
0.392400
20
-0.135499
30
0.150487
0
VERTEX
8
0
6
CONTINUOUS
62
252
70
192
10
0.392400
20
-0.150487
30
0.135499
0
VERTEX
8
0
6
CONTINUOUS
62
252
70
192
10
0.392400
20
-0.163826
30
0.119027
0
VERTEX
8
0
6
CONTINUOUS
62
252
70
192
10
0.392400
20
-0.175370
30
0.101250
0
VERTEX
8
0
6
CONTINUOUS
62
252
70
192
10
0.392400
20
-0.184993
30
0.082364
0
VERTEX
8
0
6
CONTINUOUS
62
252
70
192
10
0.392400
20
-0.192589
30
0.062576
0
VERTEX
8
0
6
CONTINUOUS
62
252
70
192
10
0.392400
20
-0.198075
30
0.042102
0
VERTEX
8
0
6
CONTINUOUS
62
252
70
192
10
0.392400
20
-0.201391
30
0.021167
0
VERTEX
8
0
6
CONTINUOUS
62
252
70
192
10
0.392400
20
-0.202500
30
0.000000
0
VERTEX
8
0
6
CONTINUOUS
62
252
70
192
10
0.392400
20
-0.201391
30
-0.021167
0
VERTEX
8
0
6
CONTINUOUS
62
252
70
192
10
0.392400
20
-0.198075
30
-0.042102
0
VERTEX
8
0
6
CONTINUOUS
62
252
70
192
10
0.392400
20
-0.192589
30
-0.062576
0
VERTEX
8
0
6
CONTINUOUS
62
252
70
192
10
0.392400
20
-0.184993
30
-0.082364
0
VERTEX
8
0
6
CONTINUOUS
62
252
70
192
10
0.392400
20
-0.175370
30
-0.101250
0
VERTEX
8
0
6
CONTINUOUS
62
252
70
192
10
0.392400
20
-0.163826
30
-0.119027
0
VERTEX
8
0
6
CONTINUOUS
62
252
70
192
10
0.392400
20
-0.150487
30
-0.135499
0
VERTEX
8
0
6
CONTINUOUS
62
252
70
192
10
0.392400
20
-0.135499
30
-0.150487
0
VERTEX
8
0
6
CONTINUOUS
62
252
70
192
10
0.392400
20
-0.119027
30
-0.163826
0
VERTEX
8
0
6
CONTINUOUS
62
252
70
192
10
0.392400
20
-0.101250
30
-0.175370
0
VERTEX
8
0
6
CONTINUOUS
62
252
70
192
10
0.392400
20
-0.082364
30
-0.184993
0
VERTEX
8
0
6
CONTINUOUS
62
252
70
192
10
0.392400
20
-0.062576
30
-0.192589
0
VERTEX
8
0
6
CONTINUOUS
62
252
70
192
10
0.392400
20
-0.042102
30
-0.198075
0
VERTEX
8
0
6
CONTINUOUS
62
252
70
192
10
0.392400
20
-0.021167
30
-0.201391
0
VERTEX
8
0
6
CONTINUOUS
62
252
70
192
10
0.392400
20
-0.109375
30
0.189443
0
VERTEX
8
0
6
CONTINUOUS
62
252
70
192
10
0.392400
20
-0.088974
30
0.199838
0
VERTEX
8
0
6
CONTINUOUS
62
252
70
192
10
0.392400
20
-0.067597
30
0.208044
0
VERTEX
8
0
6
CONTINUOUS
62
252
70
192
10
0.392400
20
-0.045481
30
0.213970
0
VERTEX
8
0
6
CONTINUOUS
62
252
70
192
10
0.392400
20
-0.022866
30
0.217552
0
VERTEX
8
0
6
CONTINUOUS
62
252
70
192
10
0.392400
20
-0.000000
30
0.218750
0
VERTEX
8
0
6
CONTINUOUS
62
252
70
192
10
0.392400
20
0.022866
30
0.217552
0
VERTEX
8
0
6
CONTINUOUS
62
252
70
192
10
0.392400
20
0.045481
30
0.213970
0
VERTEX
8
0
6
CONTINUOUS
62
252
70
192
10
0.392400
20
0.067597
30
0.208044
0
VERTEX
8
0
6
CONTINUOUS
62
252
70
192
10
0.392400
20
0.088974
30
0.199838
0
VERTEX
8
0
6
CONTINUOUS
62
252
70
192
10
0.392400
20
0.109375
30
0.189443
0
VERTEX
8
0
6
CONTINUOUS
62
252
70
192
10
0.392400
20
0.128578
30
0.176972
0
VERTEX
8
0
6
CONTINUOUS
62
252
70
192
10
0.392400
20
0.146372
30
0.162563
0
VERTEX
8
0
6
CONTINUOUS
62
252
70
192
10
0.392400
20
0.162563
30
0.146372
0
VERTEX
8
0
6
CONTINUOUS
62
252
70
192
10
0.392400
20
0.176972
30
0.128578
0
VERTEX
8
0
6
CONTINUOUS
62
252
70
192
10
0.392400
20
0.189443
30
0.109375
0
VERTEX
8
0
6
CONTINUOUS
62
252
70
192
10
0.392400
20
0.199838
30
0.088974
0
VERTEX
8
0
6
CONTINUOUS
62
252
70
192
10
0.392400
20
0.208044
30
0.067597
0
VERTEX
8
0
6
CONTINUOUS
62
252
70
192
10
0.392400
20
0.213970
30
0.045481
0
VERTEX
8
0
6
CONTINUOUS
62
252
70
192
10
0.392400
20
0.217552
30
0.022866
0
VERTEX
8
0
6
CONTINUOUS
62
252
70
192
10
0.392400
20
0.218750
30
-0.000000
0
VERTEX
8
0
6
CONTINUOUS
62
252
70
192
10
0.392400
20
0.217552
30
-0.022866
0
VERTEX
8
0
6
CONTINUOUS
62
252
70
192
10
0.392400
20
0.213970
30
-0.045481
0
VERTEX
8
0
6
CONTINUOUS
62
252
70
192
10
0.392400
20
0.208044
30
-0.067597
0
VERTEX
8
0
6
CONTINUOUS
62
252
70
192
10
0.392400
20
0.199838
30
-0.088974
0
VERTEX
8
0
6
CONTINUOUS
62
252
70
192
10
0.392400
20
0.189443
30
-0.109375
0
VERTEX
8
0
6
CONTINUOUS
62
252
70
192
10
0.392400
20
0.176972
30
-0.128578
0
VERTEX
8
0
6
CONTINUOUS
62
252
70
192
10
0.392400
20
0.162563
30
-0.146372
0
VERTEX
8
0
6
CONTINUOUS
62
252
70
192
10
0.392400
20
0.146372
30
-0.162563
0
VERTEX
8
0
6
CONTINUOUS
62
252
70
192
10
0.392400
20
0.128578
30
-0.176972
0
VERTEX
8
0
6
CONTINUOUS
62
252
70
192
10
0.392400
20
0.109375
30
-0.189443
0
VERTEX
8
0
6
CONTINUOUS
62
252
70
192
10
0.392400
20
0.088974
30
-0.199838
0
VERTEX
8
0
6
CONTINUOUS
62
252
70
192
10
0.392400
20
0.067597
30
-0.208044
0
VERTEX
8
0
6
CONTINUOUS
62
252
70
192
10
0.392400
20
0.045481
30
-0.213970
0
VERTEX
8
0
6
CONTINUOUS
62
252
70
192
10
0.392400
20
0.022866
30
-0.217552
0
VERTEX
8
0
6
CONTINUOUS
62
252
70
192
10
0.392400
20
-0.000000
30
-0.218750
0
VERTEX
8
0
6
CONTINUOUS
62
252
70
192
10
0.392400
20
-0.022866
30
-0.217552
0
VERTEX
8
0
6
CONTINUOUS
62
252
70
192
10
0.392400
20
-0.045481
30
-0.213970
0
VERTEX
8
0
6
CONTINUOUS
62
252
70
192
10
0.392400
20
-0.067597
30
-0.208044
0
VERTEX
8
0
6
CONTINUOUS
62
252
70
192
10
0.392400
20
-0.088974
30
-0.199838
0
VERTEX
8
0
6
CONTINUOUS
62
252
70
192
10
0.392400
20
-0.109375
30
-0.189443
0
VERTEX
8
0
6
CONTINUOUS
62
252
70
192
10
0.392400
20
-0.128578
30
-0.176972
0
VERTEX
8
0
6
CONTINUOUS
62
252
70
192
10
0.392400
20
-0.146372
30
-0.162563
0
VERTEX
8
0
6
CONTINUOUS
62
252
70
192
10
0.392400
20
-0.162563
30
-0.146372
0
VERTEX
8
0
6
CONTINUOUS
62
252
70
192
10
0.392400
20
-0.176972
30
-0.128578
0
VERTEX
8
0
6
CONTINUOUS
62
252
70
192
10
0.392400
20
-0.189443
30
-0.109375
0
VERTEX
8
0
6
CONTINUOUS
62
252
70
192
10
0.392400
20
-0.199838
30
-0.088974
0
VERTEX
8
0
6
CONTINUOUS
62
252
70
192
10
0.392400
20
-0.208044
30
-0.067597
0
VERTEX
8
0
6
CONTINUOUS
62
252
70
192
10
0.392400
20
-0.213970
30
-0.045481
0
VERTEX
8
0
6
CONTINUOUS
62
252
70
192
10
0.392400
20
-0.217552
30
-0.022866
0
VERTEX
8
0
6
CONTINUOUS
62
252
70
192
10
0.392400
20
-0.218750
30
0.000000
0
VERTEX
8
0
6
CONTINUOUS
62
252
70
192
10
0.392400
20
-0.217552
30
0.022866
0
VERTEX
8
0
6
CONTINUOUS
62
252
70
192
10
0.392400
20
-0.213970
30
0.045481
0
VERTEX
8
0
6
CONTINUOUS
62
252
70
192
10
0.392400
20
-0.208044
30
0.067597
0
VERTEX
8
0
6
CONTINUOUS
62
252
70
192
10
0.392400
20
-0.199838
30
0.088974
0
VERTEX
8
0
6
CONTINUOUS
62
252
70
192
10
0.392400
20
-0.189443
30
0.109375
0
VERTEX
8
0
6
CONTINUOUS
62
252
70
192
10
0.392400
20
-0.176972
30
0.128578
0
VERTEX
8
0
6
CONTINUOUS
62
252
70
192
10
0.392400
20
-0.162563
30
0.146372
0
VERTEX
8
0
6
CONTINUOUS
62
252
70
192
10
0.392400
20
-0.146372
30
0.162563
0
VERTEX
8
0
6
CONTINUOUS
62
252
70
192
10
0.392400
20
-0.128578
30
0.176972
0
VERTEX
8
0
6
CONTINUOUS
62
252
70
128
10
0.000000
20
0.000000
30
0.000000
71
2
72
95
73
1
0
VERTEX
8
0
6
CONTINUOUS
62
252
70
128
10
0.000000
20
0.000000
30
0.000000
71
1
72
95
73
96
0
VERTEX
8
0
6
CONTINUOUS
62
252
70
128
10
0.000000
20
0.000000
30
0.000000
71
1
72
96
73
60
0
VERTEX
8
0
6
CONTINUOUS
62
252
70
128
10
0.000000
20
0.000000
30
0.000000
71
60
72
96
73
97
0
VERTEX
8
0
6
CONTINUOUS
62
252
70
128
10
0.000000
20
0.000000
30
0.000000
71
60
72
97
73
98
0
VERTEX
8
0
6
CONTINUOUS
62
252
70
128
10
0.000000
20
0.000000
30
0.000000
71
95
72
2
73
94
0
VERTEX
8
0
6
CONTINUOUS
62
252
70
128
10
0.000000
20
0.000000
30
0.000000
71
94
72
2
73
3
0
VERTEX
8
0
6
CONTINUOUS
62
252
70
128
10
0.000000
20
0.000000
30
0.000000
71
94
72
3
73
93
0
VERTEX
8
0
6
CONTINUOUS
62
252
70
128
10
0.000000
20
0.000000
30
0.000000
71
93
72
3
73
4
0
VERTEX
8
0
6
CONTINUOUS
62
252
70
128
10
0.000000
20
0.000000
30
0.000000
71
93
72
4
73
92
0
VERTEX
8
0
6
CONTINUOUS
62
252
70
128
10
0.000000
20
0.000000
30
0.000000
71
92
72
4
73
5
0
VERTEX
8
0
6
CONTINUOUS
62
252
70
128
10
0.000000
20
0.000000
30
0.000000
71
92
72
5
73
6
0
VERTEX
8
0
6
CONTINUOUS
62
252
70
128
10
0.000000
20
0.000000
30
0.000000
71
92
72
6
73
91
0
VERTEX
8
0
6
CONTINUOUS
62
252
70
128
10
0.000000
20
0.000000
30
0.000000
71
91
72
6
73
7
0
VERTEX
8
0
6
CONTINUOUS
62
252
70
128
10
0.000000
20
0.000000
30
0.000000
71
91
72
7
73
90
0
VERTEX
8
0
6
CONTINUOUS
62
252
70
128
10
0.000000
20
0.000000
30
0.000000
71
90
72
7
73
89
0
VERTEX
8
0
6
CONTINUOUS
62
252
70
128
10
0.000000
20
0.000000
30
0.000000
71
89
72
7
73
8
0
VERTEX
8
0
6
CONTINUOUS
62
252
70
128
10
0.000000
20
0.000000
30
0.000000
71
89
72
8
73
88
0
VERTEX
8
0
6
CONTINUOUS
62
252
70
128
10
0.000000
20
0.000000
30
0.000000
71
88
72
8
73
9
0
VERTEX
8
0
6
CONTINUOUS
62
252
70
128
10
0.000000
20
0.000000
30
0.000000
71
88
72
9
73
10
0
VERTEX
8
0
6
CONTINUOUS
62
252
70
128
10
0.000000
20
0.000000
30
0.000000
71
11
72
86
73
10
0
VERTEX
8
0
6
CONTINUOUS
62
252
70
128
10
0.000000
20
0.000000
30
0.000000
71
10
72
86
73
87
0
VERTEX
8
0
6
CONTINUOUS
62
252
70
128
10
0.000000
20
0.000000
30
0.000000
71
10
72
87
73
88
0
VERTEX
8
0
6
CONTINUOUS
62
252
70
128
10
0.000000
20
0.000000
30
0.000000
71
86
72
11
73
85
0
VERTEX
8
0
6
CONTINUOUS
62
252
70
128
10
0.000000
20
0.000000
30
0.000000
71
85
72
11
73
12
0
VERTEX
8
0
6
CONTINUOUS
62
252
70
128
10
0.000000
20
0.000000
30
0.000000
71
85
72
12
73
84
0
VERTEX
8
0
6
CONTINUOUS
62
252
70
128
10
0.000000
20
0.000000
30
0.000000
71
84
72
12
73
13
0
VERTEX
8
0
6
CONTINUOUS
62
252
70
128
10
0.000000
20
0.000000
30
0.000000
71
84
72
13
73
83
0
VERTEX
8
0
6
CONTINUOUS
62
252
70
128
10
0.000000
20
0.000000
30
0.000000
71
83
72
13
73
14
0
VERTEX
8
0
6
CONTINUOUS
62
252
70
128
10
0.000000
20
0.000000
30
0.000000
71
83
72
14
73
15
0
VERTEX
8
0
6
CONTINUOUS
62
252
70
128
10
0.000000
20
0.000000
30
0.000000
71
83
72
15
73
82
0
VERTEX
8
0
6
CONTINUOUS
62
252
70
128
10
0.000000
20
0.000000
30
0.000000
71
82
72
15
73
16
0
VERTEX
8
0
6
CONTINUOUS
62
252
70
128
10
0.000000
20
0.000000
30
0.000000
71
82
72
16
73
81
0
VERTEX
8
0
6
CONTINUOUS
62
252
70
128
10
0.000000
20
0.000000
30
0.000000
71
81
72
16
73
17
0
VERTEX
8
0
6
CONTINUOUS
62
252
70
128
10
0.000000
20
0.000000
30
0.000000
71
81
72
17
73
80
0
VERTEX
8
0
6
CONTINUOUS
62
252
70
128
10
0.000000
20
0.000000
30
0.000000
71
80
72
17
73
18
0
VERTEX
8
0
6
CONTINUOUS
62
252
70
128
10
0.000000
20
0.000000
30
0.000000
71
80
72
18
73
79
0
VERTEX
8
0
6
CONTINUOUS
62
252
70
128
10
0.000000
20
0.000000
30
0.000000
71
79
72
18
73
19
0
VERTEX
8
0
6
CONTINUOUS
62
252
70
128
10
0.000000
20
0.000000
30
0.000000
71
79
72
19
73
78
0
VERTEX
8
0
6
CONTINUOUS
62
252
70
128
10
0.000000
20
0.000000
30
0.000000
71
78
72
19
73
20
0
VERTEX
8
0
6
CONTINUOUS
62
252
70
128
10
0.000000
20
0.000000
30
0.000000
71
78
72
20
73
77
0
VERTEX
8
0
6
CONTINUOUS
62
252
70
128
10
0.000000
20
0.000000
30
0.000000
71
77
72
20
73
21
0
VERTEX
8
0
6
CONTINUOUS
62
252
70
128
10
0.000000
20
0.000000
30
0.000000
71
77
72
21
73
76
0
VERTEX
8
0
6
CONTINUOUS
62
252
70
128
10
0.000000
20
0.000000
30
0.000000
71
76
72
21
73
22
0
VERTEX
8
0
6
CONTINUOUS
62
252
70
128
10
0.000000
20
0.000000
30
0.000000
71
76
72
22
73
75
0
VERTEX
8
0
6
CONTINUOUS
62
252
70
128
10
0.000000
20
0.000000
30
0.000000
71
75
72
22
73
23
0
VERTEX
8
0
6
CONTINUOUS
62
252
70
128
10
0.000000
20
0.000000
30
0.000000
71
75
72
23
73
74
0
VERTEX
8
0
6
CONTINUOUS
62
252
70
128
10
0.000000
20
0.000000
30
0.000000
71
74
72
23
73
24
0
VERTEX
8
0
6
CONTINUOUS
62
252
70
128
10
0.000000
20
0.000000
30
0.000000
71
74
72
24
73
73
0
VERTEX
8
0
6
CONTINUOUS
62
252
70
128
10
0.000000
20
0.000000
30
0.000000
71
73
72
24
73
25
0
VERTEX
8
0
6
CONTINUOUS
62
252
70
128
10
0.000000
20
0.000000
30
0.000000
71
73
72
25
73
72
0
VERTEX
8
0
6
CONTINUOUS
62
252
70
128
10
0.000000
20
0.000000
30
0.000000
71
72
72
25
73
26
0
VERTEX
8
0
6
CONTINUOUS
62
252
70
128
10
0.000000
20
0.000000
30
0.000000
71
72
72
26
73
71
0
VERTEX
8
0
6
CONTINUOUS
62
252
70
128
10
0.000000
20
0.000000
30
0.000000
71
71
72
26
73
27
0
VERTEX
8
0
6
CONTINUOUS
62
252
70
128
10
0.000000
20
0.000000
30
0.000000
71
71
72
27
73
70
0
VERTEX
8
0
6
CONTINUOUS
62
252
70
128
10
0.000000
20
0.000000
30
0.000000
71
70
72
27
73
28
0
VERTEX
8
0
6
CONTINUOUS
62
252
70
128
10
0.000000
20
0.000000
30
0.000000
71
70
72
28
73
69
0
VERTEX
8
0
6
CONTINUOUS
62
252
70
128
10
0.000000
20
0.000000
30
0.000000
71
69
72
28
73
29
0
VERTEX
8
0
6
CONTINUOUS
62
252
70
128
10
0.000000
20
0.000000
30
0.000000
71
69
72
29
73
68
0
VERTEX
8
0
6
CONTINUOUS
62
252
70
128
10
0.000000
20
0.000000
30
0.000000
71
68
72
29
73
30
0
VERTEX
8
0
6
CONTINUOUS
62
252
70
128
10
0.000000
20
0.000000
30
0.000000
71
68
72
30
73
67
0
VERTEX
8
0
6
CONTINUOUS
62
252
70
128
10
0.000000
20
0.000000
30
0.000000
71
67
72
30
73
31
0
VERTEX
8
0
6
CONTINUOUS
62
252
70
128
10
0.000000
20
0.000000
30
0.000000
71
67
72
31
73
66
0
VERTEX
8
0
6
CONTINUOUS
62
252
70
128
10
0.000000
20
0.000000
30
0.000000
71
66
72
31
73
32
0
VERTEX
8
0
6
CONTINUOUS
62
252
70
128
10
0.000000
20
0.000000
30
0.000000
71
66
72
32
73
65
0
VERTEX
8
0
6
CONTINUOUS
62
252
70
128
10
0.000000
20
0.000000
30
0.000000
71
65
72
32
73
33
0
VERTEX
8
0
6
CONTINUOUS
62
252
70
128
10
0.000000
20
0.000000
30
0.000000
71
65
72
33
73
64
0
VERTEX
8
0
6
CONTINUOUS
62
252
70
128
10
0.000000
20
0.000000
30
0.000000
71
64
72
33
73
34
0
VERTEX
8
0
6
CONTINUOUS
62
252
70
128
10
0.000000
20
0.000000
30
0.000000
71
64
72
34
73
63
0
VERTEX
8
0
6
CONTINUOUS
62
252
70
128
10
0.000000
20
0.000000
30
0.000000
71
63
72
34
73
35
0
VERTEX
8
0
6
CONTINUOUS
62
252
70
128
10
0.000000
20
0.000000
30
0.000000
71
63
72
35
73
62
0
VERTEX
8
0
6
CONTINUOUS
62
252
70
128
10
0.000000
20
0.000000
30
0.000000
71
62
72
35
73
36
0
VERTEX
8
0
6
CONTINUOUS
62
252
70
128
10
0.000000
20
0.000000
30
0.000000
71
62
72
36
73
61
0
VERTEX
8
0
6
CONTINUOUS
62
252
70
128
10
0.000000
20
0.000000
30
0.000000
71
61
72
36
73
37
0
VERTEX
8
0
6
CONTINUOUS
62
252
70
128
10
0.000000
20
0.000000
30
0.000000
71
61
72
37
73
120
0
VERTEX
8
0
6
CONTINUOUS
62
252
70
128
10
0.000000
20
0.000000
30
0.000000
71
120
72
37
73
38
0
VERTEX
8
0
6
CONTINUOUS
62
252
70
128
10
0.000000
20
0.000000
30
0.000000
71
120
72
38
73
119
0
VERTEX
8
0
6
CONTINUOUS
62
252
70
128
10
0.000000
20
0.000000
30
0.000000
71
119
72
38
73
39
0
VERTEX
8
0
6
CONTINUOUS
62
252
70
128
10
0.000000
20
0.000000
30
0.000000
71
119
72
39
73
118
0
VERTEX
8
0
6
CONTINUOUS
62
252
70
128
10
0.000000
20
0.000000
30
0.000000
71
118
72
39
73
40
0
VERTEX
8
0
6
CONTINUOUS
62
252
70
128
10
0.000000
20
0.000000
30
0.000000
71
118
72
40
73
117
0
VERTEX
8
0
6
CONTINUOUS
62
252
70
128
10
0.000000
20
0.000000
30
0.000000
71
117
72
40
73
41
0
VERTEX
8
0
6
CONTINUOUS
62
252
70
128
10
0.000000
20
0.000000
30
0.000000
71
117
72
41
73
116
0
VERTEX
8
0
6
CONTINUOUS
62
252
70
128
10
0.000000
20
0.000000
30
0.000000
71
116
72
41
73
42
0
VERTEX
8
0
6
CONTINUOUS
62
252
70
128
10
0.000000
20
0.000000
30
0.000000
71
116
72
42
73
115
0
VERTEX
8
0
6
CONTINUOUS
62
252
70
128
10
0.000000
20
0.000000
30
0.000000
71
115
72
42
73
43
0
VERTEX
8
0
6
CONTINUOUS
62
252
70
128
10
0.000000
20
0.000000
30
0.000000
71
115
72
43
73
114
0
VERTEX
8
0
6
CONTINUOUS
62
252
70
128
10
0.000000
20
0.000000
30
0.000000
71
114
72
43
73
44
0
VERTEX
8
0
6
CONTINUOUS
62
252
70
128
10
0.000000
20
0.000000
30
0.000000
71
114
72
44
73
113
0
VERTEX
8
0
6
CONTINUOUS
62
252
70
128
10
0.000000
20
0.000000
30
0.000000
71
113
72
44
73
45
0
VERTEX
8
0
6
CONTINUOUS
62
252
70
128
10
0.000000
20
0.000000
30
0.000000
71
113
72
45
73
112
0
VERTEX
8
0
6
CONTINUOUS
62
252
70
128
10
0.000000
20
0.000000
30
0.000000
71
112
72
45
73
46
0
VERTEX
8
0
6
CONTINUOUS
62
252
70
128
10
0.000000
20
0.000000
30
0.000000
71
112
72
46
73
111
0
VERTEX
8
0
6
CONTINUOUS
62
252
70
128
10
0.000000
20
0.000000
30
0.000000
71
111
72
46
73
110
0
VERTEX
8
0
6
CONTINUOUS
62
252
70
128
10
0.000000
20
0.000000
30
0.000000
71
110
72
46
73
47
0
VERTEX
8
0
6
CONTINUOUS
62
252
70
128
10
0.000000
20
0.000000
30
0.000000
71
110
72
47
73
48
0
VERTEX
8
0
6
CONTINUOUS
62
252
70
128
10
0.000000
20
0.000000
30
0.000000
71
110
72
48
73
109
0
VERTEX
8
0
6
CONTINUOUS
62
252
70
128
10
0.000000
20
0.000000
30
0.000000
71
109
72
48
73
49
0
VERTEX
8
0
6
CONTINUOUS
62
252
70
128
10
0.000000
20
0.000000
30
0.000000
71
109
72
49
73
108
0
VERTEX
8
0
6
CONTINUOUS
62
252
70
128
10
0.000000
20
0.000000
30
0.000000
71
108
72
49
73
50
0
VERTEX
8
0
6
CONTINUOUS
62
252
70
128
10
0.000000
20
0.000000
30
0.000000
71
108
72
50
73
107
0
VERTEX
8
0
6
CONTINUOUS
62
252
70
128
10
0.000000
20
0.000000
30
0.000000
71
107
72
50
73
51
0
VERTEX
8
0
6
CONTINUOUS
62
252
70
128
10
0.000000
20
0.000000
30
0.000000
71
107
72
51
73
106
0
VERTEX
8
0
6
CONTINUOUS
62
252
70
128
10
0.000000
20
0.000000
30
0.000000
71
106
72
51
73
52
0
VERTEX
8
0
6
CONTINUOUS
62
252
70
128
10
0.000000
20
0.000000
30
0.000000
71
106
72
52
73
105
0
VERTEX
8
0
6
CONTINUOUS
62
252
70
128
10
0.000000
20
0.000000
30
0.000000
71
105
72
52
73
104
0
VERTEX
8
0
6
CONTINUOUS
62
252
70
128
10
0.000000
20
0.000000
30
0.000000
71
104
72
52
73
53
0
VERTEX
8
0
6
CONTINUOUS
62
252
70
128
10
0.000000
20
0.000000
30
0.000000
71
104
72
53
73
54
0
VERTEX
8
0
6
CONTINUOUS
62
252
70
128
10
0.000000
20
0.000000
30
0.000000
71
104
72
54
73
103
0
VERTEX
8
0
6
CONTINUOUS
62
252
70
128
10
0.000000
20
0.000000
30
0.000000
71
103
72
54
73
55
0
VERTEX
8
0
6
CONTINUOUS
62
252
70
128
10
0.000000
20
0.000000
30
0.000000
71
103
72
55
73
102
0
VERTEX
8
0
6
CONTINUOUS
62
252
70
128
10
0.000000
20
0.000000
30
0.000000
71
102
72
55
73
101
0
VERTEX
8
0
6
CONTINUOUS
62
252
70
128
10
0.000000
20
0.000000
30
0.000000
71
101
72
55
73
56
0
VERTEX
8
0
6
CONTINUOUS
62
252
70
128
10
0.000000
20
0.000000
30
0.000000
71
101
72
56
73
57
0
VERTEX
8
0
6
CONTINUOUS
62
252
70
128
10
0.000000
20
0.000000
30
0.000000
71
58
72
99
73
57
0
VERTEX
8
0
6
CONTINUOUS
62
252
70
128
10
0.000000
20
0.000000
30
0.000000
71
57
72
99
73
100
0
VERTEX
8
0
6
CONTINUOUS
62
252
70
128
10
0.000000
20
0.000000
30
0.000000
71
57
72
100
73
101
0
VERTEX
8
0
6
CONTINUOUS
62
252
70
128
10
0.000000
20
0.000000
30
0.000000
71
99
72
58
73
98
0
VERTEX
8
0
6
CONTINUOUS
62
252
70
128
10
0.000000
20
0.000000
30
0.000000
71
98
72
58
73
59
0
VERTEX
8
0
6
CONTINUOUS
62
252
70
128
10
0.000000
20
0.000000
30
0.000000
71
98
72
59
73
60
0
SEQEND
0
POLYLINE
66
1
8
0
6
CONTINUOUS
62
252
70
64
75
0
10
0.000000
20
0.000000
30
0.000000
0
VERTEX
8
0
6
CONTINUOUS
62
252
70
192
10
0.000000
20
0.000000
30
-0.140000
0
VERTEX
8
0
6
CONTINUOUS
62
252
70
192
10
-0.000000
20
-0.014634
30
-0.139233
0
VERTEX
8
0
6
CONTINUOUS
62
252
70
192
10
-0.000000
20
-0.029108
30
-0.136941
0
VERTEX
8
0
6
CONTINUOUS
62
252
70
192
10
-0.000000
20
-0.043262
30
-0.133148
0
VERTEX
8
0
6
CONTINUOUS
62
252
70
192
10
-0.000000
20
-0.056943
30
-0.127896
0
VERTEX
8
0
6
CONTINUOUS
62
252
70
192
10
-0.000000
20
-0.070000
30
-0.121244
0
VERTEX
8
0
6
CONTINUOUS
62
252
70
192
10
-0.000000
20
-0.082290
30
-0.113262
0
VERTEX
8
0
6
CONTINUOUS
62
252
70
192
10
-0.000000
20
-0.093678
30
-0.104040
0
VERTEX
8
0
6
CONTINUOUS
62
252
70
192
10
-0.000000
20
-0.104040
30
-0.093678
0
VERTEX
8
0
6
CONTINUOUS
62
252
70
192
10
-0.000000
20
-0.113262
30
-0.082290
0
VERTEX
8
0
6
CONTINUOUS
62
252
70
192
10
-0.000000
20
-0.121244
30
-0.070000
0
VERTEX
8
0
6
CONTINUOUS
62
252
70
192
10
-0.000000
20
-0.127896
30
-0.056943
0
VERTEX
8
0
6
CONTINUOUS
62
252
70
192
10
-0.000000
20
-0.133148
30
-0.043262
0
VERTEX
8
0
6
CONTINUOUS
62
252
70
192
10
-0.000000
20
-0.136941
30
-0.029108
0
VERTEX
8
0
6
CONTINUOUS
62
252
70
192
10
-0.000000
20
-0.139233
30
-0.014634
0
VERTEX
8
0
6
CONTINUOUS
62
252
70
192
10
-0.000000
20
-0.140000
30
0.000000
0
VERTEX
8
0
6
CONTINUOUS
62
252
70
192
10
-0.000000
20
-0.139233
30
0.014634
0
VERTEX
8
0
6
CONTINUOUS
62
252
70
192
10
-0.000000
20
-0.136941
30
0.029108
0
VERTEX
8
0
6
CONTINUOUS
62
252
70
192
10
-0.000000
20
-0.133148
30
0.043262
0
VERTEX
8
0
6
CONTINUOUS
62
252
70
192
10
-0.000000
20
-0.127896
30
0.056943
0
VERTEX
8
0
6
CONTINUOUS
62
252
70
192
10
-0.000000
20
-0.121244
30
0.070000
0
VERTEX
8
0
6
CONTINUOUS
62
252
70
192
10
-0.000000
20
-0.113262
30
0.082290
0
VERTEX
8
0
6
CONTINUOUS
62
252
70
192
10
-0.000000
20
-0.104040
30
0.093678
0
VERTEX
8
0
6
CONTINUOUS
62
252
70
192
10
-0.000000
20
-0.093678
30
0.104040
0
VERTEX
8
0
6
CONTINUOUS
62
252
70
192
10
-0.000000
20
-0.082290
30
0.113262
0
VERTEX
8
0
6
CONTINUOUS
62
252
70
192
10
-0.000000
20
-0.070000
30
0.121244
0
VERTEX
8
0
6
CONTINUOUS
62
252
70
192
10
0.000000
20
-0.056943
30
0.127896
0
VERTEX
8
0
6
CONTINUOUS
62
252
70
192
10
0.000000
20
-0.043262
30
0.133148
0
VERTEX
8
0
6
CONTINUOUS
62
252
70
192
10
0.000000
20
-0.029108
30
0.136941
0
VERTEX
8
0
6
CONTINUOUS
62
252
70
192
10
0.000000
20
-0.014634
30
0.139233
0
VERTEX
8
0
6
CONTINUOUS
62
252
70
192
10
0.000000
20
0.000000
30
0.140000
0
VERTEX
8
0
6
CONTINUOUS
62
252
70
192
10
0.000000
20
0.014634
30
0.139233
0
VERTEX
8
0
6
CONTINUOUS
62
252
70
192
10
0.000000
20
0.029108
30
0.136941
0
VERTEX
8
0
6
CONTINUOUS
62
252
70
192
10
0.000000
20
0.043262
30
0.133148
0
VERTEX
8
0
6
CONTINUOUS
62
252
70
192
10
0.000000
20
0.056943
30
0.127896
0
VERTEX
8
0
6
CONTINUOUS
62
252
70
192
10
0.000000
20
0.070000
30
0.121244
0
VERTEX
8
0
6
CONTINUOUS
62
252
70
192
10
0.000000
20
0.082290
30
0.113262
0
VERTEX
8
0
6
CONTINUOUS
62
252
70
192
10
0.000000
20
0.093678
30
0.104040
0
VERTEX
8
0
6
CONTINUOUS
62
252
70
192
10
0.000000
20
0.104040
30
0.093678
0
VERTEX
8
0
6
CONTINUOUS
62
252
70
192
10
0.000000
20
0.113262
30
0.082290
0
VERTEX
8
0
6
CONTINUOUS
62
252
70
192
10
0.000000
20
0.121244
30
0.070000
0
VERTEX
8
0
6
CONTINUOUS
62
252
70
192
10
0.000000
20
0.127896
30
0.056943
0
VERTEX
8
0
6
CONTINUOUS
62
252
70
192
10
0.000000
20
0.133148
30
0.043262
0
VERTEX
8
0
6
CONTINUOUS
62
252
70
192
10
0.000000
20
0.136941
30
0.029108
0
VERTEX
8
0
6
CONTINUOUS
62
252
70
192
10
0.000000
20
0.139233
30
0.014634
0
VERTEX
8
0
6
CONTINUOUS
62
252
70
192
10
0.000000
20
0.140000
30
0.000000
0
VERTEX
8
0
6
CONTINUOUS
62
252
70
192
10
0.000000
20
0.139233
30
-0.014634
0
VERTEX
8
0
6
CONTINUOUS
62
252
70
192
10
0.000000
20
0.136941
30
-0.029108
0
VERTEX
8
0
6
CONTINUOUS
62
252
70
192
10
0.000000
20
0.133148
30
-0.043262
0
VERTEX
8
0
6
CONTINUOUS
62
252
70
192
10
0.000000
20
0.127896
30
-0.056943
0
VERTEX
8
0
6
CONTINUOUS
62
252
70
192
10
0.000000
20
0.121244
30
-0.070000
0
VERTEX
8
0
6
CONTINUOUS
62
252
70
192
10
0.000000
20
0.113262
30
-0.082290
0
VERTEX
8
0
6
CONTINUOUS
62
252
70
192
10
0.000000
20
0.104040
30
-0.093678
0
VERTEX
8
0
6
CONTINUOUS
62
252
70
192
10
0.000000
20
0.093678
30
-0.104040
0
VERTEX
8
0
6
CONTINUOUS
62
252
70
192
10
0.000000
20
0.082290
30
-0.113262
0
VERTEX
8
0
6
CONTINUOUS
62
252
70
192
10
0.000000
20
0.070000
30
-0.121244
0
VERTEX
8
0
6
CONTINUOUS
62
252
70
192
10
-0.000000
20
0.056943
30
-0.127896
0
VERTEX
8
0
6
CONTINUOUS
62
252
70
192
10
-0.000000
20
0.043262
30
-0.133148
0
VERTEX
8
0
6
CONTINUOUS
62
252
70
192
10
-0.000000
20
0.029108
30
-0.136941
0
VERTEX
8
0
6
CONTINUOUS
62
252
70
192
10
-0.000000
20
0.014634
30
-0.139233
0
VERTEX
8
0
6
CONTINUOUS
62
252
70
192
10
1.380000
20
0.000000
30
-0.140000
0
VERTEX
8
0
6
CONTINUOUS
62
252
70
192
10
1.380000
20
0.014634
30
-0.139233
0
VERTEX
8
0
6
CONTINUOUS
62
252
70
192
10
1.380000
20
0.029108
30
-0.136941
0
VERTEX
8
0
6
CONTINUOUS
62
252
70
192
10
1.380000
20
0.043262
30
-0.133148
0
VERTEX
8
0
6
CONTINUOUS
62
252
70
192
10
1.380000
20
0.056943
30
-0.127896
0
VERTEX
8
0
6
CONTINUOUS
62
252
70
192
10
1.380000
20
0.070000
30
-0.121244
0
VERTEX
8
0
6
CONTINUOUS
62
252
70
192
10
1.380000
20
0.082290
30
-0.113262
0
VERTEX
8
0
6
CONTINUOUS
62
252
70
192
10
1.380000
20
0.093678
30
-0.104040
0
VERTEX
8
0
6
CONTINUOUS
62
252
70
192
10
1.380000
20
0.104040
30
-0.093678
0
VERTEX
8
0
6
CONTINUOUS
62
252
70
192
10
1.380000
20
0.113262
30
-0.082290
0
VERTEX
8
0
6
CONTINUOUS
62
252
70
192
10
1.380000
20
0.121244
30
-0.070000
0
VERTEX
8
0
6
CONTINUOUS
62
252
70
192
10
1.380000
20
0.127896
30
-0.056943
0
VERTEX
8
0
6
CONTINUOUS
62
252
70
192
10
1.380000
20
0.133148
30
-0.043262
0
VERTEX
8
0
6
CONTINUOUS
62
252
70
192
10
1.380000
20
0.136941
30
-0.029108
0
VERTEX
8
0
6
CONTINUOUS
62
252
70
192
10
1.380000
20
0.139233
30
-0.014634
0
VERTEX
8
0
6
CONTINUOUS
62
252
70
192
10
1.380000
20
0.140000
30
0.000000
0
VERTEX
8
0
6
CONTINUOUS
62
252
70
192
10
1.380000
20
0.139233
30
0.014634
0
VERTEX
8
0
6
CONTINUOUS
62
252
70
192
10
1.380000
20
0.136941
30
0.029108
0
VERTEX
8
0
6
CONTINUOUS
62
252
70
192
10
1.380000
20
0.133148
30
0.043262
0
VERTEX
8
0
6
CONTINUOUS
62
252
70
192
10
1.380000
20
0.127896
30
0.056943
0
VERTEX
8
0
6
CONTINUOUS
62
252
70
192
10
1.380000
20
0.121244
30
0.070000
0
VERTEX
8
0
6
CONTINUOUS
62
252
70
192
10
1.380000
20
0.113262
30
0.082290
0
VERTEX
8
0
6
CONTINUOUS
62
252
70
192
10
1.380000
20
0.104040
30
0.093678
0
VERTEX
8
0
6
CONTINUOUS
62
252
70
192
10
1.380000
20
0.093678
30
0.104040
0
VERTEX
8
0
6
CONTINUOUS
62
252
70
192
10
1.380000
20
0.082290
30
0.113262
0
VERTEX
8
0
6
CONTINUOUS
62
252
70
192
10
1.380000
20
0.070000
30
0.121244
0
VERTEX
8
0
6
CONTINUOUS
62
252
70
192
10
1.380000
20
0.056943
30
0.127896
0
VERTEX
8
0
6
CONTINUOUS
62
252
70
192
10
1.380000
20
0.043262
30
0.133148
0
VERTEX
8
0
6
CONTINUOUS
62
252
70
192
10
1.380000
20
0.029108
30
0.136941
0
VERTEX
8
0
6
CONTINUOUS
62
252
70
192
10
1.380000
20
0.014634
30
0.139233
0
VERTEX
8
0
6
CONTINUOUS
62
252
70
192
10
1.380000
20
-0.000000
30
0.140000
0
VERTEX
8
0
6
CONTINUOUS
62
252
70
192
10
1.380000
20
-0.014634
30
0.139233
0
VERTEX
8
0
6
CONTINUOUS
62
252
70
192
10
1.380000
20
-0.029108
30
0.136941
0
VERTEX
8
0
6
CONTINUOUS
62
252
70
192
10
1.380000
20
-0.043262
30
0.133148
0
VERTEX
8
0
6
CONTINUOUS
62
252
70
192
10
1.380000
20
-0.056943
30
0.127896
0
VERTEX
8
0
6
CONTINUOUS
62
252
70
192
10
1.380000
20
-0.070000
30
0.121244
0
VERTEX
8
0
6
CONTINUOUS
62
252
70
192
10
1.380000
20
-0.082290
30
0.113262
0
VERTEX
8
0
6
CONTINUOUS
62
252
70
192
10
1.380000
20
-0.093678
30
0.104040
0
VERTEX
8
0
6
CONTINUOUS
62
252
70
192
10
1.380000
20
-0.104040
30
0.093678
0
VERTEX
8
0
6
CONTINUOUS
62
252
70
192
10
1.380000
20
-0.113262
30
0.082290
0
VERTEX
8
0
6
CONTINUOUS
62
252
70
192
10
1.380000
20
-0.121244
30
0.070000
0
VERTEX
8
0
6
CONTINUOUS
62
252
70
192
10
1.380000
20
-0.127896
30
0.056943
0
VERTEX
8
0
6
CONTINUOUS
62
252
70
192
10
1.380000
20
-0.133148
30
0.043262
0
VERTEX
8
0
6
CONTINUOUS
62
252
70
192
10
1.380000
20
-0.136941
30
0.029108
0
VERTEX
8
0
6
CONTINUOUS
62
252
70
192
10
1.380000
20
-0.139233
30
0.014634
0
VERTEX
8
0
6
CONTINUOUS
62
252
70
192
10
1.380000
20
-0.140000
30
-0.000000
0
VERTEX
8
0
6
CONTINUOUS
62
252
70
192
10
1.380000
20
-0.139233
30
-0.014634
0
VERTEX
8
0
6
CONTINUOUS
62
252
70
192
10
1.380000
20
-0.136941
30
-0.029108
0
VERTEX
8
0
6
CONTINUOUS
62
252
70
192
10
1.380000
20
-0.133148
30
-0.043262
0
VERTEX
8
0
6
CONTINUOUS
62
252
70
192
10
1.380000
20
-0.127896
30
-0.056943
0
VERTEX
8
0
6
CONTINUOUS
62
252
70
192
10
1.380000
20
-0.121244
30
-0.070000
0
VERTEX
8
0
6
CONTINUOUS
62
252
70
192
10
1.380000
20
-0.113262
30
-0.082290
0
VERTEX
8
0
6
CONTINUOUS
62
252
70
192
10
1.380000
20
-0.104040
30
-0.093678
0
VERTEX
8
0
6
CONTINUOUS
62
252
70
192
10
1.380000
20
-0.093678
30
-0.104040
0
VERTEX
8
0
6
CONTINUOUS
62
252
70
192
10
1.380000
20
-0.082290
30
-0.113262
0
VERTEX
8
0
6
CONTINUOUS
62
252
70
192
10
1.380000
20
-0.070000
30
-0.121244
0
VERTEX
8
0
6
CONTINUOUS
62
252
70
192
10
1.380000
20
-0.056943
30
-0.127896
0
VERTEX
8
0
6
CONTINUOUS
62
252
70
192
10
1.380000
20
-0.043262
30
-0.133148
0
VERTEX
8
0
6
CONTINUOUS
62
252
70
192
10
1.380000
20
-0.029108
30
-0.136941
0
VERTEX
8
0
6
CONTINUOUS
62
252
70
192
10
1.380000
20
-0.014634
30
-0.139233
0
VERTEX
8
0
6
CONTINUOUS
62
252
70
128
10
0.000000
20
0.000000
30
0.000000
71
2
72
120
73
1
0
VERTEX
8
0
6
CONTINUOUS
62
252
70
128
10
0.000000
20
0.000000
30
0.000000
71
1
72
120
73
61
0
VERTEX
8
0
6
CONTINUOUS
62
252
70
128
10
0.000000
20
0.000000
30
0.000000
71
1
72
61
73
60
0
VERTEX
8
0
6
CONTINUOUS
62
252
70
128
10
0.000000
20
0.000000
30
0.000000
71
60
72
61
73
62
0
VERTEX
8
0
6
CONTINUOUS
62
252
70
128
10
0.000000
20
0.000000
30
0.000000
71
60
72
62
73
59
0
VERTEX
8
0
6
CONTINUOUS
62
252
70
128
10
0.000000
20
0.000000
30
0.000000
71
59
72
62
73
63
0
VERTEX
8
0
6
CONTINUOUS
62
252
70
128
10
0.000000
20
0.000000
30
0.000000
71
59
72
63
73
58
0
VERTEX
8
0
6
CONTINUOUS
62
252
70
128
10
0.000000
20
0.000000
30
0.000000
71
58
72
63
73
64
0
VERTEX
8
0
6
CONTINUOUS
62
252
70
128
10
0.000000
20
0.000000
30
0.000000
71
58
72
64
73
57
0
VERTEX
8
0
6
CONTINUOUS
62
252
70
128
10
0.000000
20
0.000000
30
0.000000
71
57
72
64
73
65
0
VERTEX
8
0
6
CONTINUOUS
62
252
70
128
10
0.000000
20
0.000000
30
0.000000
71
57
72
65
73
56
0
VERTEX
8
0
6
CONTINUOUS
62
252
70
128
10
0.000000
20
0.000000
30
0.000000
71
56
72
65
73
66
0
VERTEX
8
0
6
CONTINUOUS
62
252
70
128
10
0.000000
20
0.000000
30
0.000000
71
56
72
66
73
55
0
VERTEX
8
0
6
CONTINUOUS
62
252
70
128
10
0.000000
20
0.000000
30
0.000000
71
55
72
66
73
67
0
VERTEX
8
0
6
CONTINUOUS
62
252
70
128
10
0.000000
20
0.000000
30
0.000000
71
55
72
67
73
54
0
VERTEX
8
0
6
CONTINUOUS
62
252
70
128
10
0.000000
20
0.000000
30
0.000000
71
54
72
67
73
68
0
VERTEX
8
0
6
CONTINUOUS
62
252
70
128
10
0.000000
20
0.000000
30
0.000000
71
54
72
68
73
53
0
VERTEX
8
0
6
CONTINUOUS
62
252
70
128
10
0.000000
20
0.000000
30
0.000000
71
53
72
68
73
69
0
VERTEX
8
0
6
CONTINUOUS
62
252
70
128
10
0.000000
20
0.000000
30
0.000000
71
53
72
69
73
52
0
VERTEX
8
0
6
CONTINUOUS
62
252
70
128
10
0.000000
20
0.000000
30
0.000000
71
52
72
69
73
70
0
VERTEX
8
0
6
CONTINUOUS
62
252
70
128
10
0.000000
20
0.000000
30
0.000000
71
52
72
70
73
51
0
VERTEX
8
0
6
CONTINUOUS
62
252
70
128
10
0.000000
20
0.000000
30
0.000000
71
51
72
70
73
71
0
VERTEX
8
0
6
CONTINUOUS
62
252
70
128
10
0.000000
20
0.000000
30
0.000000
71
51
72
71
73
50
0
VERTEX
8
0
6
CONTINUOUS
62
252
70
128
10
0.000000
20
0.000000
30
0.000000
71
50
72
71
73
72
0
VERTEX
8
0
6
CONTINUOUS
62
252
70
128
10
0.000000
20
0.000000
30
0.000000
71
50
72
72
73
49
0
VERTEX
8
0
6
CONTINUOUS
62
252
70
128
10
0.000000
20
0.000000
30
0.000000
71
49
72
72
73
73
0
VERTEX
8
0
6
CONTINUOUS
62
252
70
128
10
0.000000
20
0.000000
30
0.000000
71
49
72
73
73
48
0
VERTEX
8
0
6
CONTINUOUS
62
252
70
128
10
0.000000
20
0.000000
30
0.000000
71
48
72
73
73
74
0
VERTEX
8
0
6
CONTINUOUS
62
252
70
128
10
0.000000
20
0.000000
30
0.000000
71
48
72
74
73
47
0
VERTEX
8
0
6
CONTINUOUS
62
252
70
128
10
0.000000
20
0.000000
30
0.000000
71
47
72
74
73
75
0
VERTEX
8
0
6
CONTINUOUS
62
252
70
128
10
0.000000
20
0.000000
30
0.000000
71
47
72
75
73
46
0
VERTEX
8
0
6
CONTINUOUS
62
252
70
128
10
0.000000
20
0.000000
30
0.000000
71
46
72
75
73
76
0
VERTEX
8
0
6
CONTINUOUS
62
252
70
128
10
0.000000
20
0.000000
30
0.000000
71
46
72
76
73
45
0
VERTEX
8
0
6
CONTINUOUS
62
252
70
128
10
0.000000
20
0.000000
30
0.000000
71
45
72
76
73
77
0
VERTEX
8
0
6
CONTINUOUS
62
252
70
128
10
0.000000
20
0.000000
30
0.000000
71
45
72
77
73
44
0
VERTEX
8
0
6
CONTINUOUS
62
252
70
128
10
0.000000
20
0.000000
30
0.000000
71
44
72
77
73
78
0
VERTEX
8
0
6
CONTINUOUS
62
252
70
128
10
0.000000
20
0.000000
30
0.000000
71
44
72
78
73
79
0
VERTEX
8
0
6
CONTINUOUS
62
252
70
128
10
0.000000
20
0.000000
30
0.000000
71
120
72
2
73
119
0
VERTEX
8
0
6
CONTINUOUS
62
252
70
128
10
0.000000
20
0.000000
30
0.000000
71
119
72
2
73
3
0
VERTEX
8
0
6
CONTINUOUS
62
252
70
128
10
0.000000
20
0.000000
30
0.000000
71
119
72
3
73
118
0
VERTEX
8
0
6
CONTINUOUS
62
252
70
128
10
0.000000
20
0.000000
30
0.000000
71
118
72
3
73
4
0
VERTEX
8
0
6
CONTINUOUS
62
252
70
128
10
0.000000
20
0.000000
30
0.000000
71
118
72
4
73
117
0
VERTEX
8
0
6
CONTINUOUS
62
252
70
128
10
0.000000
20
0.000000
30
0.000000
71
117
72
4
73
5
0
VERTEX
8
0
6
CONTINUOUS
62
252
70
128
10
0.000000
20
0.000000
30
0.000000
71
117
72
5
73
116
0
VERTEX
8
0
6
CONTINUOUS
62
252
70
128
10
0.000000
20
0.000000
30
0.000000
71
116
72
5
73
6
0
VERTEX
8
0
6
CONTINUOUS
62
252
70
128
10
0.000000
20
0.000000
30
0.000000
71
116
72
6
73
115
0
VERTEX
8
0
6
CONTINUOUS
62
252
70
128
10
0.000000
20
0.000000
30
0.000000
71
115
72
6
73
7
0
VERTEX
8
0
6
CONTINUOUS
62
252
70
128
10
0.000000
20
0.000000
30
0.000000
71
115
72
7
73
114
0
VERTEX
8
0
6
CONTINUOUS
62
252
70
128
10
0.000000
20
0.000000
30
0.000000
71
114
72
7
73
8
0
VERTEX
8
0
6
CONTINUOUS
62
252
70
128
10
0.000000
20
0.000000
30
0.000000
71
114
72
8
73
113
0
VERTEX
8
0
6
CONTINUOUS
62
252
70
128
10
0.000000
20
0.000000
30
0.000000
71
113
72
8
73
9
0
VERTEX
8
0
6
CONTINUOUS
62
252
70
128
10
0.000000
20
0.000000
30
0.000000
71
113
72
9
73
112
0
VERTEX
8
0
6
CONTINUOUS
62
252
70
128
10
0.000000
20
0.000000
30
0.000000
71
112
72
9
73
10
0
VERTEX
8
0
6
CONTINUOUS
62
252
70
128
10
0.000000
20
0.000000
30
0.000000
71
112
72
10
73
111
0
VERTEX
8
0
6
CONTINUOUS
62
252
70
128
10
0.000000
20
0.000000
30
0.000000
71
111
72
10
73
11
0
VERTEX
8
0
6
CONTINUOUS
62
252
70
128
10
0.000000
20
0.000000
30
0.000000
71
111
72
11
73
110
0
VERTEX
8
0
6
CONTINUOUS
62
252
70
128
10
0.000000
20
0.000000
30
0.000000
71
110
72
11
73
12
0
VERTEX
8
0
6
CONTINUOUS
62
252
70
128
10
0.000000
20
0.000000
30
0.000000
71
110
72
12
73
109
0
VERTEX
8
0
6
CONTINUOUS
62
252
70
128
10
0.000000
20
0.000000
30
0.000000
71
109
72
12
73
13
0
VERTEX
8
0
6
CONTINUOUS
62
252
70
128
10
0.000000
20
0.000000
30
0.000000
71
109
72
13
73
108
0
VERTEX
8
0
6
CONTINUOUS
62
252
70
128
10
0.000000
20
0.000000
30
0.000000
71
108
72
13
73
14
0
VERTEX
8
0
6
CONTINUOUS
62
252
70
128
10
0.000000
20
0.000000
30
0.000000
71
108
72
14
73
107
0
VERTEX
8
0
6
CONTINUOUS
62
252
70
128
10
0.000000
20
0.000000
30
0.000000
71
107
72
14
73
15
0
VERTEX
8
0
6
CONTINUOUS
62
252
70
128
10
0.000000
20
0.000000
30
0.000000
71
107
72
15
73
106
0
VERTEX
8
0
6
CONTINUOUS
62
252
70
128
10
0.000000
20
0.000000
30
0.000000
71
106
72
15
73
16
0
VERTEX
8
0
6
CONTINUOUS
62
252
70
128
10
0.000000
20
0.000000
30
0.000000
71
106
72
16
73
105
0
VERTEX
8
0
6
CONTINUOUS
62
252
70
128
10
0.000000
20
0.000000
30
0.000000
71
105
72
16
73
17
0
VERTEX
8
0
6
CONTINUOUS
62
252
70
128
10
0.000000
20
0.000000
30
0.000000
71
105
72
17
73
104
0
VERTEX
8
0
6
CONTINUOUS
62
252
70
128
10
0.000000
20
0.000000
30
0.000000
71
104
72
17
73
18
0
VERTEX
8
0
6
CONTINUOUS
62
252
70
128
10
0.000000
20
0.000000
30
0.000000
71
104
72
18
73
103
0
VERTEX
8
0
6
CONTINUOUS
62
252
70
128
10
0.000000
20
0.000000
30
0.000000
71
103
72
18
73
19
0
VERTEX
8
0
6
CONTINUOUS
62
252
70
128
10
0.000000
20
0.000000
30
0.000000
71
103
72
19
73
102
0
VERTEX
8
0
6
CONTINUOUS
62
252
70
128
10
0.000000
20
0.000000
30
0.000000
71
102
72
19
73
20
0
VERTEX
8
0
6
CONTINUOUS
62
252
70
128
10
0.000000
20
0.000000
30
0.000000
71
102
72
20
73
101
0
VERTEX
8
0
6
CONTINUOUS
62
252
70
128
10
0.000000
20
0.000000
30
0.000000
71
101
72
20
73
21
0
VERTEX
8
0
6
CONTINUOUS
62
252
70
128
10
0.000000
20
0.000000
30
0.000000
71
101
72
21
73
22
0
VERTEX
8
0
6
CONTINUOUS
62
252
70
128
10
0.000000
20
0.000000
30
0.000000
71
101
72
22
73
100
0
VERTEX
8
0
6
CONTINUOUS
62
252
70
128
10
0.000000
20
0.000000
30
0.000000
71
100
72
22
73
23
0
VERTEX
8
0
6
CONTINUOUS
62
252
70
128
10
0.000000
20
0.000000
30
0.000000
71
100
72
23
73
99
0
VERTEX
8
0
6
CONTINUOUS
62
252
70
128
10
0.000000
20
0.000000
30
0.000000
71
99
72
23
73
24
0
VERTEX
8
0
6
CONTINUOUS
62
252
70
128
10
0.000000
20
0.000000
30
0.000000
71
99
72
24
73
98
0
VERTEX
8
0
6
CONTINUOUS
62
252
70
128
10
0.000000
20
0.000000
30
0.000000
71
98
72
24
73
25
0
VERTEX
8
0
6
CONTINUOUS
62
252
70
128
10
0.000000
20
0.000000
30
0.000000
71
98
72
25
73
97
0
VERTEX
8
0
6
CONTINUOUS
62
252
70
128
10
0.000000
20
0.000000
30
0.000000
71
97
72
25
73
26
0
VERTEX
8
0
6
CONTINUOUS
62
252
70
128
10
0.000000
20
0.000000
30
0.000000
71
97
72
26
73
96
0
VERTEX
8
0
6
CONTINUOUS
62
252
70
128
10
0.000000
20
0.000000
30
0.000000
71
96
72
26
73
27
0
VERTEX
8
0
6
CONTINUOUS
62
252
70
128
10
0.000000
20
0.000000
30
0.000000
71
96
72
27
73
95
0
VERTEX
8
0
6
CONTINUOUS
62
252
70
128
10
0.000000
20
0.000000
30
0.000000
71
95
72
27
73
28
0
VERTEX
8
0
6
CONTINUOUS
62
252
70
128
10
0.000000
20
0.000000
30
0.000000
71
95
72
28
73
94
0
VERTEX
8
0
6
CONTINUOUS
62
252
70
128
10
0.000000
20
0.000000
30
0.000000
71
94
72
28
73
29
0
VERTEX
8
0
6
CONTINUOUS
62
252
70
128
10
0.000000
20
0.000000
30
0.000000
71
94
72
29
73
93
0
VERTEX
8
0
6
CONTINUOUS
62
252
70
128
10
0.000000
20
0.000000
30
0.000000
71
93
72
29
73
30
0
VERTEX
8
0
6
CONTINUOUS
62
252
70
128
10
0.000000
20
0.000000
30
0.000000
71
93
72
30
73
92
0
VERTEX
8
0
6
CONTINUOUS
62
252
70
128
10
0.000000
20
0.000000
30
0.000000
71
92
72
30
73
31
0
VERTEX
8
0
6
CONTINUOUS
62
252
70
128
10
0.000000
20
0.000000
30
0.000000
71
92
72
31
73
91
0
VERTEX
8
0
6
CONTINUOUS
62
252
70
128
10
0.000000
20
0.000000
30
0.000000
71
91
72
31
73
32
0
VERTEX
8
0
6
CONTINUOUS
62
252
70
128
10
0.000000
20
0.000000
30
0.000000
71
91
72
32
73
90
0
VERTEX
8
0
6
CONTINUOUS
62
252
70
128
10
0.000000
20
0.000000
30
0.000000
71
90
72
32
73
33
0
VERTEX
8
0
6
CONTINUOUS
62
252
70
128
10
0.000000
20
0.000000
30
0.000000
71
90
72
33
73
89
0
VERTEX
8
0
6
CONTINUOUS
62
252
70
128
10
0.000000
20
0.000000
30
0.000000
71
89
72
33
73
34
0
VERTEX
8
0
6
CONTINUOUS
62
252
70
128
10
0.000000
20
0.000000
30
0.000000
71
89
72
34
73
88
0
VERTEX
8
0
6
CONTINUOUS
62
252
70
128
10
0.000000
20
0.000000
30
0.000000
71
88
72
34
73
35
0
VERTEX
8
0
6
CONTINUOUS
62
252
70
128
10
0.000000
20
0.000000
30
0.000000
71
88
72
35
73
87
0
VERTEX
8
0
6
CONTINUOUS
62
252
70
128
10
0.000000
20
0.000000
30
0.000000
71
87
72
35
73
36
0
VERTEX
8
0
6
CONTINUOUS
62
252
70
128
10
0.000000
20
0.000000
30
0.000000
71
87
72
36
73
86
0
VERTEX
8
0
6
CONTINUOUS
62
252
70
128
10
0.000000
20
0.000000
30
0.000000
71
86
72
36
73
37
0
VERTEX
8
0
6
CONTINUOUS
62
252
70
128
10
0.000000
20
0.000000
30
0.000000
71
86
72
37
73
85
0
VERTEX
8
0
6
CONTINUOUS
62
252
70
128
10
0.000000
20
0.000000
30
0.000000
71
85
72
37
73
38
0
VERTEX
8
0
6
CONTINUOUS
62
252
70
128
10
0.000000
20
0.000000
30
0.000000
71
85
72
38
73
84
0
VERTEX
8
0
6
CONTINUOUS
62
252
70
128
10
0.000000
20
0.000000
30
0.000000
71
84
72
38
73
39
0
VERTEX
8
0
6
CONTINUOUS
62
252
70
128
10
0.000000
20
0.000000
30
0.000000
71
84
72
39
73
83
0
VERTEX
8
0
6
CONTINUOUS
62
252
70
128
10
0.000000
20
0.000000
30
0.000000
71
83
72
39
73
40
0
VERTEX
8
0
6
CONTINUOUS
62
252
70
128
10
0.000000
20
0.000000
30
0.000000
71
83
72
40
73
82
0
VERTEX
8
0
6
CONTINUOUS
62
252
70
128
10
0.000000
20
0.000000
30
0.000000
71
82
72
40
73
41
0
VERTEX
8
0
6
CONTINUOUS
62
252
70
128
10
0.000000
20
0.000000
30
0.000000
71
82
72
41
73
81
0
VERTEX
8
0
6
CONTINUOUS
62
252
70
128
10
0.000000
20
0.000000
30
0.000000
71
81
72
41
73
42
0
VERTEX
8
0
6
CONTINUOUS
62
252
70
128
10
0.000000
20
0.000000
30
0.000000
71
81
72
42
73
80
0
VERTEX
8
0
6
CONTINUOUS
62
252
70
128
10
0.000000
20
0.000000
30
0.000000
71
80
72
42
73
43
0
VERTEX
8
0
6
CONTINUOUS
62
252
70
128
10
0.000000
20
0.000000
30
0.000000
71
80
72
43
73
79
0
VERTEX
8
0
6
CONTINUOUS
62
252
70
128
10
0.000000
20
0.000000
30
0.000000
71
79
72
43
73
44
0
SEQEND
0
POLYLINE
66
1
8
0
6
CONTINUOUS
62
252
70
64
75
0
10
0.000000
20
0.000000
30
0.000000
0
VERTEX
8
0
6
CONTINUOUS
62
252
70
192
10
1.380000
20
0.000000
30
-0.140000
0
VERTEX
8
0
6
CONTINUOUS
62
252
70
192
10
1.380000
20
-0.014634
30
-0.139233
0
VERTEX
8
0
6
CONTINUOUS
62
252
70
192
10
1.380000
20
-0.029108
30
-0.136941
0
VERTEX
8
0
6
CONTINUOUS
62
252
70
192
10
1.380000
20
-0.043262
30
-0.133148
0
VERTEX
8
0
6
CONTINUOUS
62
252
70
192
10
1.380000
20
-0.056943
30
-0.127896
0
VERTEX
8
0
6
CONTINUOUS
62
252
70
192
10
1.380000
20
-0.070000
30
-0.121244
0
VERTEX
8
0
6
CONTINUOUS
62
252
70
192
10
1.380000
20
-0.082290
30
-0.113262
0
VERTEX
8
0
6
CONTINUOUS
62
252
70
192
10
1.380000
20
-0.093678
30
-0.104040
0
VERTEX
8
0
6
CONTINUOUS
62
252
70
192
10
1.380000
20
-0.104040
30
-0.093678
0
VERTEX
8
0
6
CONTINUOUS
62
252
70
192
10
1.380000
20
-0.113262
30
-0.082290
0
VERTEX
8
0
6
CONTINUOUS
62
252
70
192
10
1.380000
20
-0.121244
30
-0.070000
0
VERTEX
8
0
6
CONTINUOUS
62
252
70
192
10
1.380000
20
-0.127896
30
-0.056943
0
VERTEX
8
0
6
CONTINUOUS
62
252
70
192
10
1.380000
20
-0.133148
30
-0.043262
0
VERTEX
8
0
6
CONTINUOUS
62
252
70
192
10
1.380000
20
-0.136941
30
-0.029108
0
VERTEX
8
0
6
CONTINUOUS
62
252
70
192
10
1.380000
20
-0.139233
30
-0.014634
0
VERTEX
8
0
6
CONTINUOUS
62
252
70
192
10
1.380000
20
-0.140000
30
-0.000000
0
VERTEX
8
0
6
CONTINUOUS
62
252
70
192
10
1.380000
20
-0.139233
30
0.014634
0
VERTEX
8
0
6
CONTINUOUS
62
252
70
192
10
1.380000
20
-0.136941
30
0.029108
0
VERTEX
8
0
6
CONTINUOUS
62
252
70
192
10
1.380000
20
-0.133148
30
0.043262
0
VERTEX
8
0
6
CONTINUOUS
62
252
70
192
10
1.380000
20
-0.127896
30
0.056943
0
VERTEX
8
0
6
CONTINUOUS
62
252
70
192
10
1.380000
20
-0.121244
30
0.070000
0
VERTEX
8
0
6
CONTINUOUS
62
252
70
192
10
1.380000
20
-0.113262
30
0.082290
0
VERTEX
8
0
6
CONTINUOUS
62
252
70
192
10
1.380000
20
-0.104040
30
0.093678
0
VERTEX
8
0
6
CONTINUOUS
62
252
70
192
10
1.380000
20
-0.093678
30
0.104040
0
VERTEX
8
0
6
CONTINUOUS
62
252
70
192
10
1.380000
20
-0.082290
30
0.113262
0
VERTEX
8
0
6
CONTINUOUS
62
252
70
192
10
1.380000
20
-0.070000
30
0.121244
0
VERTEX
8
0
6
CONTINUOUS
62
252
70
192
10
1.380000
20
-0.056943
30
0.127896
0
VERTEX
8
0
6
CONTINUOUS
62
252
70
192
10
1.380000
20
-0.043262
30
0.133148
0
VERTEX
8
0
6
CONTINUOUS
62
252
70
192
10
1.380000
20
-0.029108
30
0.136941
0
VERTEX
8
0
6
CONTINUOUS
62
252
70
192
10
1.380000
20
-0.014634
30
0.139233
0
VERTEX
8
0
6
CONTINUOUS
62
252
70
192
10
1.380000
20
-0.000000
30
0.140000
0
VERTEX
8
0
6
CONTINUOUS
62
252
70
192
10
1.380000
20
0.014634
30
0.139233
0
VERTEX
8
0
6
CONTINUOUS
62
252
70
192
10
1.380000
20
0.029108
30
0.136941
0
VERTEX
8
0
6
CONTINUOUS
62
252
70
192
10
1.380000
20
0.043262
30
0.133148
0
VERTEX
8
0
6
CONTINUOUS
62
252
70
192
10
1.380000
20
0.056943
30
0.127896
0
VERTEX
8
0
6
CONTINUOUS
62
252
70
192
10
1.380000
20
0.070000
30
0.121244
0
VERTEX
8
0
6
CONTINUOUS
62
252
70
192
10
1.380000
20
0.082290
30
0.113262
0
VERTEX
8
0
6
CONTINUOUS
62
252
70
192
10
1.380000
20
0.093678
30
0.104040
0
VERTEX
8
0
6
CONTINUOUS
62
252
70
192
10
1.380000
20
0.104040
30
0.093678
0
VERTEX
8
0
6
CONTINUOUS
62
252
70
192
10
1.380000
20
0.113262
30
0.082290
0
VERTEX
8
0
6
CONTINUOUS
62
252
70
192
10
1.380000
20
0.121244
30
0.070000
0
VERTEX
8
0
6
CONTINUOUS
62
252
70
192
10
1.380000
20
0.127896
30
0.056943
0
VERTEX
8
0
6
CONTINUOUS
62
252
70
192
10
1.380000
20
0.133148
30
0.043262
0
VERTEX
8
0
6
CONTINUOUS
62
252
70
192
10
1.380000
20
0.136941
30
0.029108
0
VERTEX
8
0
6
CONTINUOUS
62
252
70
192
10
1.380000
20
0.139233
30
0.014634
0
VERTEX
8
0
6
CONTINUOUS
62
252
70
192
10
1.380000
20
0.140000
30
0.000000
0
VERTEX
8
0
6
CONTINUOUS
62
252
70
192
10
1.380000
20
0.139233
30
-0.014634
0
VERTEX
8
0
6
CONTINUOUS
62
252
70
192
10
1.380000
20
0.136941
30
-0.029108
0
VERTEX
8
0
6
CONTINUOUS
62
252
70
192
10
1.380000
20
0.133148
30
-0.043262
0
VERTEX
8
0
6
CONTINUOUS
62
252
70
192
10
1.380000
20
0.127896
30
-0.056943
0
VERTEX
8
0
6
CONTINUOUS
62
252
70
192
10
1.380000
20
0.121244
30
-0.070000
0
VERTEX
8
0
6
CONTINUOUS
62
252
70
192
10
1.380000
20
0.113262
30
-0.082290
0
VERTEX
8
0
6
CONTINUOUS
62
252
70
192
10
1.380000
20
0.104040
30
-0.093678
0
VERTEX
8
0
6
CONTINUOUS
62
252
70
192
10
1.380000
20
0.093678
30
-0.104040
0
VERTEX
8
0
6
CONTINUOUS
62
252
70
192
10
1.380000
20
0.082290
30
-0.113262
0
VERTEX
8
0
6
CONTINUOUS
62
252
70
192
10
1.380000
20
0.070000
30
-0.121244
0
VERTEX
8
0
6
CONTINUOUS
62
252
70
192
10
1.380000
20
0.056943
30
-0.127896
0
VERTEX
8
0
6
CONTINUOUS
62
252
70
192
10
1.380000
20
0.043262
30
-0.133148
0
VERTEX
8
0
6
CONTINUOUS
62
252
70
192
10
1.380000
20
0.029108
30
-0.136941
0
VERTEX
8
0
6
CONTINUOUS
62
252
70
192
10
1.380000
20
0.014634
30
-0.139233
0
VERTEX
8
0
6
CONTINUOUS
62
252
70
192
10
1.380000
20
-0.000000
30
0.187500
0
VERTEX
8
0
6
CONTINUOUS
62
252
70
192
10
1.380000
20
-0.019599
30
0.186473
0
VERTEX
8
0
6
CONTINUOUS
62
252
70
192
10
1.380000
20
-0.038983
30
0.183403
0
VERTEX
8
0
6
CONTINUOUS
62
252
70
192
10
1.380000
20
-0.057941
30
0.178323
0
VERTEX
8
0
6
CONTINUOUS
62
252
70
192
10
1.380000
20
-0.076263
30
0.171290
0
VERTEX
8
0
6
CONTINUOUS
62
252
70
192
10
1.380000
20
-0.093750
30
0.162380
0
VERTEX
8
0
6
CONTINUOUS
62
252
70
192
10
1.380000
20
-0.110210
30
0.151691
0
VERTEX
8
0
6
CONTINUOUS
62
252
70
192
10
1.380000
20
-0.125462
30
0.139340
0
VERTEX
8
0
6
CONTINUOUS
62
252
70
192
10
1.380000
20
-0.139340
30
0.125462
0
VERTEX
8
0
6
CONTINUOUS
62
252
70
192
10
1.380000
20
-0.151691
30
0.110210
0
VERTEX
8
0
6
CONTINUOUS
62
252
70
192
10
1.380000
20
-0.162380
30
0.093750
0
VERTEX
8
0
6
CONTINUOUS
62
252
70
192
10
1.380000
20
-0.171290
30
0.076263
0
VERTEX
8
0
6
CONTINUOUS
62
252
70
192
10
1.380000
20
-0.178323
30
0.057941
0
VERTEX
8
0
6
CONTINUOUS
62
252
70
192
10
1.380000
20
-0.183403
30
0.038983
0
VERTEX
8
0
6
CONTINUOUS
62
252
70
192
10
1.380000
20
-0.186473
30
0.019599
0
VERTEX
8
0
6
CONTINUOUS
62
252
70
192
10
1.380000
20
-0.187500
30
-0.000000
0
VERTEX
8
0
6
CONTINUOUS
62
252
70
192
10
1.380000
20
-0.186473
30
-0.019599
0
VERTEX
8
0
6
CONTINUOUS
62
252
70
192
10
1.380000
20
-0.183403
30
-0.038983
0
VERTEX
8
0
6
CONTINUOUS
62
252
70
192
10
1.380000
20
-0.178323
30
-0.057941
0
VERTEX
8
0
6
CONTINUOUS
62
252
70
192
10
1.380000
20
-0.171290
30
-0.076263
0
VERTEX
8
0
6
CONTINUOUS
62
252
70
192
10
1.380000
20
-0.162380
30
-0.093750
0
VERTEX
8
0
6
CONTINUOUS
62
252
70
192
10
1.380000
20
-0.151691
30
-0.110210
0
VERTEX
8
0
6
CONTINUOUS
62
252
70
192
10
1.380000
20
-0.139340
30
-0.125462
0
VERTEX
8
0
6
CONTINUOUS
62
252
70
192
10
1.380000
20
-0.125462
30
-0.139340
0
VERTEX
8
0
6
CONTINUOUS
62
252
70
192
10
1.380000
20
-0.110210
30
-0.151691
0
VERTEX
8
0
6
CONTINUOUS
62
252
70
192
10
1.380000
20
-0.093750
30
-0.162380
0
VERTEX
8
0
6
CONTINUOUS
62
252
70
192
10
1.380000
20
-0.076263
30
-0.171290
0
VERTEX
8
0
6
CONTINUOUS
62
252
70
192
10
1.380000
20
-0.057941
30
-0.178323
0
VERTEX
8
0
6
CONTINUOUS
62
252
70
192
10
1.380000
20
-0.038983
30
-0.183403
0
VERTEX
8
0
6
CONTINUOUS
62
252
70
192
10
1.380000
20
-0.019599
30
-0.186473
0
VERTEX
8
0
6
CONTINUOUS
62
252
70
192
10
1.380000
20
0.000000
30
-0.187500
0
VERTEX
8
0
6
CONTINUOUS
62
252
70
192
10
1.380000
20
0.019599
30
-0.186473
0
VERTEX
8
0
6
CONTINUOUS
62
252
70
192
10
1.380000
20
0.038983
30
-0.183403
0
VERTEX
8
0
6
CONTINUOUS
62
252
70
192
10
1.380000
20
0.057941
30
-0.178323
0
VERTEX
8
0
6
CONTINUOUS
62
252
70
192
10
1.380000
20
0.076263
30
-0.171290
0
VERTEX
8
0
6
CONTINUOUS
62
252
70
192
10
1.380000
20
0.093750
30
-0.162380
0
VERTEX
8
0
6
CONTINUOUS
62
252
70
192
10
1.380000
20
0.110210
30
-0.151691
0
VERTEX
8
0
6
CONTINUOUS
62
252
70
192
10
1.380000
20
0.125462
30
-0.139340
0
VERTEX
8
0
6
CONTINUOUS
62
252
70
192
10
1.380000
20
0.139340
30
-0.125462
0
VERTEX
8
0
6
CONTINUOUS
62
252
70
192
10
1.380000
20
0.151691
30
-0.110210
0
VERTEX
8
0
6
CONTINUOUS
62
252
70
192
10
1.380000
20
0.162380
30
-0.093750
0
VERTEX
8
0
6
CONTINUOUS
62
252
70
192
10
1.380000
20
0.171290
30
-0.076263
0
VERTEX
8
0
6
CONTINUOUS
62
252
70
192
10
1.380000
20
0.178323
30
-0.057941
0
VERTEX
8
0
6
CONTINUOUS
62
252
70
192
10
1.380000
20
0.183403
30
-0.038983
0
VERTEX
8
0
6
CONTINUOUS
62
252
70
192
10
1.380000
20
0.186473
30
-0.019599
0
VERTEX
8
0
6
CONTINUOUS
62
252
70
192
10
1.380000
20
0.187500
30
-0.000000
0
VERTEX
8
0
6
CONTINUOUS
62
252
70
192
10
1.380000
20
0.186473
30
0.019599
0
VERTEX
8
0
6
CONTINUOUS
62
252
70
192
10
1.380000
20
0.183403
30
0.038983
0
VERTEX
8
0
6
CONTINUOUS
62
252
70
192
10
1.380000
20
0.178323
30
0.057941
0
VERTEX
8
0
6
CONTINUOUS
62
252
70
192
10
1.380000
20
0.171290
30
0.076263
0
VERTEX
8
0
6
CONTINUOUS
62
252
70
192
10
1.380000
20
0.162380
30
0.093750
0
VERTEX
8
0
6
CONTINUOUS
62
252
70
192
10
1.380000
20
0.151691
30
0.110210
0
VERTEX
8
0
6
CONTINUOUS
62
252
70
192
10
1.380000
20
0.139340
30
0.125462
0
VERTEX
8
0
6
CONTINUOUS
62
252
70
192
10
1.380000
20
0.125462
30
0.139340
0
VERTEX
8
0
6
CONTINUOUS
62
252
70
192
10
1.380000
20
0.110210
30
0.151691
0
VERTEX
8
0
6
CONTINUOUS
62
252
70
192
10
1.380000
20
0.093750
30
0.162380
0
VERTEX
8
0
6
CONTINUOUS
62
252
70
192
10
1.380000
20
0.076263
30
0.171290
0
VERTEX
8
0
6
CONTINUOUS
62
252
70
192
10
1.380000
20
0.057941
30
0.178323
0
VERTEX
8
0
6
CONTINUOUS
62
252
70
192
10
1.380000
20
0.038983
30
0.183403
0
VERTEX
8
0
6
CONTINUOUS
62
252
70
192
10
1.380000
20
0.019599
30
0.186473
0
VERTEX
8
0
6
CONTINUOUS
62
252
70
128
10
0.000000
20
0.000000
30
0.000000
71
60
72
1
73
91
0
VERTEX
8
0
6
CONTINUOUS
62
252
70
128
10
0.000000
20
0.000000
30
0.000000
71
91
72
1
73
2
0
VERTEX
8
0
6
CONTINUOUS
62
252
70
128
10
0.000000
20
0.000000
30
0.000000
71
91
72
2
73
90
0
VERTEX
8
0
6
CONTINUOUS
62
252
70
128
10
0.000000
20
0.000000
30
0.000000
71
90
72
2
73
3
0
VERTEX
8
0
6
CONTINUOUS
62
252
70
128
10
0.000000
20
0.000000
30
0.000000
71
90
72
3
73
89
0
VERTEX
8
0
6
CONTINUOUS
62
252
70
128
10
0.000000
20
0.000000
30
0.000000
71
89
72
3
73
4
0
VERTEX
8
0
6
CONTINUOUS
62
252
70
128
10
0.000000
20
0.000000
30
0.000000
71
89
72
4
73
88
0
VERTEX
8
0
6
CONTINUOUS
62
252
70
128
10
0.000000
20
0.000000
30
0.000000
71
88
72
4
73
5
0
VERTEX
8
0
6
CONTINUOUS
62
252
70
128
10
0.000000
20
0.000000
30
0.000000
71
88
72
5
73
87
0
VERTEX
8
0
6
CONTINUOUS
62
252
70
128
10
0.000000
20
0.000000
30
0.000000
71
87
72
5
73
6
0
VERTEX
8
0
6
CONTINUOUS
62
252
70
128
10
0.000000
20
0.000000
30
0.000000
71
87
72
6
73
86
0
VERTEX
8
0
6
CONTINUOUS
62
252
70
128
10
0.000000
20
0.000000
30
0.000000
71
86
72
6
73
7
0
VERTEX
8
0
6
CONTINUOUS
62
252
70
128
10
0.000000
20
0.000000
30
0.000000
71
86
72
7
73
85
0
VERTEX
8
0
6
CONTINUOUS
62
252
70
128
10
0.000000
20
0.000000
30
0.000000
71
85
72
7
73
8
0
VERTEX
8
0
6
CONTINUOUS
62
252
70
128
10
0.000000
20
0.000000
30
0.000000
71
85
72
8
73
84
0
VERTEX
8
0
6
CONTINUOUS
62
252
70
128
10
0.000000
20
0.000000
30
0.000000
71
84
72
8
73
9
0
VERTEX
8
0
6
CONTINUOUS
62
252
70
128
10
0.000000
20
0.000000
30
0.000000
71
84
72
9
73
83
0
VERTEX
8
0
6
CONTINUOUS
62
252
70
128
10
0.000000
20
0.000000
30
0.000000
71
83
72
9
73
10
0
VERTEX
8
0
6
CONTINUOUS
62
252
70
128
10
0.000000
20
0.000000
30
0.000000
71
83
72
10
73
82
0
VERTEX
8
0
6
CONTINUOUS
62
252
70
128
10
0.000000
20
0.000000
30
0.000000
71
82
72
10
73
11
0
VERTEX
8
0
6
CONTINUOUS
62
252
70
128
10
0.000000
20
0.000000
30
0.000000
71
82
72
11
73
81
0
VERTEX
8
0
6
CONTINUOUS
62
252
70
128
10
0.000000
20
0.000000
30
0.000000
71
81
72
11
73
12
0
VERTEX
8
0
6
CONTINUOUS
62
252
70
128
10
0.000000
20
0.000000
30
0.000000
71
81
72
12
73
80
0
VERTEX
8
0
6
CONTINUOUS
62
252
70
128
10
0.000000
20
0.000000
30
0.000000
71
80
72
12
73
13
0
VERTEX
8
0
6
CONTINUOUS
62
252
70
128
10
0.000000
20
0.000000
30
0.000000
71
80
72
13
73
79
0
VERTEX
8
0
6
CONTINUOUS
62
252
70
128
10
0.000000
20
0.000000
30
0.000000
71
79
72
13
73
14
0
VERTEX
8
0
6
CONTINUOUS
62
252
70
128
10
0.000000
20
0.000000
30
0.000000
71
79
72
14
73
78
0
VERTEX
8
0
6
CONTINUOUS
62
252
70
128
10
0.000000
20
0.000000
30
0.000000
71
78
72
14
73
15
0
VERTEX
8
0
6
CONTINUOUS
62
252
70
128
10
0.000000
20
0.000000
30
0.000000
71
78
72
15
73
77
0
VERTEX
8
0
6
CONTINUOUS
62
252
70
128
10
0.000000
20
0.000000
30
0.000000
71
77
72
15
73
16
0
VERTEX
8
0
6
CONTINUOUS
62
252
70
128
10
0.000000
20
0.000000
30
0.000000
71
77
72
16
73
76
0
VERTEX
8
0
6
CONTINUOUS
62
252
70
128
10
0.000000
20
0.000000
30
0.000000
71
76
72
16
73
75
0
VERTEX
8
0
6
CONTINUOUS
62
252
70
128
10
0.000000
20
0.000000
30
0.000000
71
75
72
16
73
17
0
VERTEX
8
0
6
CONTINUOUS
62
252
70
128
10
0.000000
20
0.000000
30
0.000000
71
75
72
17
73
74
0
VERTEX
8
0
6
CONTINUOUS
62
252
70
128
10
0.000000
20
0.000000
30
0.000000
71
74
72
17
73
18
0
VERTEX
8
0
6
CONTINUOUS
62
252
70
128
10
0.000000
20
0.000000
30
0.000000
71
74
72
18
73
73
0
VERTEX
8
0
6
CONTINUOUS
62
252
70
128
10
0.000000
20
0.000000
30
0.000000
71
73
72
18
73
19
0
VERTEX
8
0
6
CONTINUOUS
62
252
70
128
10
0.000000
20
0.000000
30
0.000000
71
73
72
19
73
72
0
VERTEX
8
0
6
CONTINUOUS
62
252
70
128
10
0.000000
20
0.000000
30
0.000000
71
72
72
19
73
20
0
VERTEX
8
0
6
CONTINUOUS
62
252
70
128
10
0.000000
20
0.000000
30
0.000000
71
72
72
20
73
71
0
VERTEX
8
0
6
CONTINUOUS
62
252
70
128
10
0.000000
20
0.000000
30
0.000000
71
71
72
20
73
21
0
VERTEX
8
0
6
CONTINUOUS
62
252
70
128
10
0.000000
20
0.000000
30
0.000000
71
71
72
21
73
70
0
VERTEX
8
0
6
CONTINUOUS
62
252
70
128
10
0.000000
20
0.000000
30
0.000000
71
70
72
21
73
22
0
VERTEX
8
0
6
CONTINUOUS
62
252
70
128
10
0.000000
20
0.000000
30
0.000000
71
70
72
22
73
69
0
VERTEX
8
0
6
CONTINUOUS
62
252
70
128
10
0.000000
20
0.000000
30
0.000000
71
69
72
22
73
23
0
VERTEX
8
0
6
CONTINUOUS
62
252
70
128
10
0.000000
20
0.000000
30
0.000000
71
69
72
23
73
68
0
VERTEX
8
0
6
CONTINUOUS
62
252
70
128
10
0.000000
20
0.000000
30
0.000000
71
68
72
23
73
24
0
VERTEX
8
0
6
CONTINUOUS
62
252
70
128
10
0.000000
20
0.000000
30
0.000000
71
68
72
24
73
67
0
VERTEX
8
0
6
CONTINUOUS
62
252
70
128
10
0.000000
20
0.000000
30
0.000000
71
67
72
24
73
25
0
VERTEX
8
0
6
CONTINUOUS
62
252
70
128
10
0.000000
20
0.000000
30
0.000000
71
67
72
25
73
66
0
VERTEX
8
0
6
CONTINUOUS
62
252
70
128
10
0.000000
20
0.000000
30
0.000000
71
66
72
25
73
26
0
VERTEX
8
0
6
CONTINUOUS
62
252
70
128
10
0.000000
20
0.000000
30
0.000000
71
66
72
26
73
65
0
VERTEX
8
0
6
CONTINUOUS
62
252
70
128
10
0.000000
20
0.000000
30
0.000000
71
65
72
26
73
27
0
VERTEX
8
0
6
CONTINUOUS
62
252
70
128
10
0.000000
20
0.000000
30
0.000000
71
65
72
27
73
64
0
VERTEX
8
0
6
CONTINUOUS
62
252
70
128
10
0.000000
20
0.000000
30
0.000000
71
64
72
27
73
28
0
VERTEX
8
0
6
CONTINUOUS
62
252
70
128
10
0.000000
20
0.000000
30
0.000000
71
64
72
28
73
63
0
VERTEX
8
0
6
CONTINUOUS
62
252
70
128
10
0.000000
20
0.000000
30
0.000000
71
63
72
28
73
29
0
VERTEX
8
0
6
CONTINUOUS
62
252
70
128
10
0.000000
20
0.000000
30
0.000000
71
63
72
29
73
62
0
VERTEX
8
0
6
CONTINUOUS
62
252
70
128
10
0.000000
20
0.000000
30
0.000000
71
62
72
29
73
30
0
VERTEX
8
0
6
CONTINUOUS
62
252
70
128
10
0.000000
20
0.000000
30
0.000000
71
62
72
30
73
61
0
VERTEX
8
0
6
CONTINUOUS
62
252
70
128
10
0.000000
20
0.000000
30
0.000000
71
61
72
30
73
31
0
VERTEX
8
0
6
CONTINUOUS
62
252
70
128
10
0.000000
20
0.000000
30
0.000000
71
61
72
31
73
32
0
VERTEX
8
0
6
CONTINUOUS
62
252
70
128
10
0.000000
20
0.000000
30
0.000000
71
61
72
32
73
120
0
VERTEX
8
0
6
CONTINUOUS
62
252
70
128
10
0.000000
20
0.000000
30
0.000000
71
120
72
32
73
33
0
VERTEX
8
0
6
CONTINUOUS
62
252
70
128
10
0.000000
20
0.000000
30
0.000000
71
120
72
33
73
119
0
VERTEX
8
0
6
CONTINUOUS
62
252
70
128
10
0.000000
20
0.000000
30
0.000000
71
119
72
33
73
34
0
VERTEX
8
0
6
CONTINUOUS
62
252
70
128
10
0.000000
20
0.000000
30
0.000000
71
119
72
34
73
118
0
VERTEX
8
0
6
CONTINUOUS
62
252
70
128
10
0.000000
20
0.000000
30
0.000000
71
118
72
34
73
35
0
VERTEX
8
0
6
CONTINUOUS
62
252
70
128
10
0.000000
20
0.000000
30
0.000000
71
118
72
35
73
117
0
VERTEX
8
0
6
CONTINUOUS
62
252
70
128
10
0.000000
20
0.000000
30
0.000000
71
117
72
35
73
36
0
VERTEX
8
0
6
CONTINUOUS
62
252
70
128
10
0.000000
20
0.000000
30
0.000000
71
117
72
36
73
116
0
VERTEX
8
0
6
CONTINUOUS
62
252
70
128
10
0.000000
20
0.000000
30
0.000000
71
116
72
36
73
37
0
VERTEX
8
0
6
CONTINUOUS
62
252
70
128
10
0.000000
20
0.000000
30
0.000000
71
116
72
37
73
115
0
VERTEX
8
0
6
CONTINUOUS
62
252
70
128
10
0.000000
20
0.000000
30
0.000000
71
115
72
37
73
38
0
VERTEX
8
0
6
CONTINUOUS
62
252
70
128
10
0.000000
20
0.000000
30
0.000000
71
115
72
38
73
114
0
VERTEX
8
0
6
CONTINUOUS
62
252
70
128
10
0.000000
20
0.000000
30
0.000000
71
114
72
38
73
39
0
VERTEX
8
0
6
CONTINUOUS
62
252
70
128
10
0.000000
20
0.000000
30
0.000000
71
114
72
39
73
113
0
VERTEX
8
0
6
CONTINUOUS
62
252
70
128
10
0.000000
20
0.000000
30
0.000000
71
113
72
39
73
40
0
VERTEX
8
0
6
CONTINUOUS
62
252
70
128
10
0.000000
20
0.000000
30
0.000000
71
113
72
40
73
112
0
VERTEX
8
0
6
CONTINUOUS
62
252
70
128
10
0.000000
20
0.000000
30
0.000000
71
112
72
40
73
41
0
VERTEX
8
0
6
CONTINUOUS
62
252
70
128
10
0.000000
20
0.000000
30
0.000000
71
112
72
41
73
111
0
VERTEX
8
0
6
CONTINUOUS
62
252
70
128
10
0.000000
20
0.000000
30
0.000000
71
111
72
41
73
42
0
VERTEX
8
0
6
CONTINUOUS
62
252
70
128
10
0.000000
20
0.000000
30
0.000000
71
111
72
42
73
110
0
VERTEX
8
0
6
CONTINUOUS
62
252
70
128
10
0.000000
20
0.000000
30
0.000000
71
110
72
42
73
43
0
VERTEX
8
0
6
CONTINUOUS
62
252
70
128
10
0.000000
20
0.000000
30
0.000000
71
110
72
43
73
109
0
VERTEX
8
0
6
CONTINUOUS
62
252
70
128
10
0.000000
20
0.000000
30
0.000000
71
109
72
43
73
44
0
VERTEX
8
0
6
CONTINUOUS
62
252
70
128
10
0.000000
20
0.000000
30
0.000000
71
109
72
44
73
108
0
VERTEX
8
0
6
CONTINUOUS
62
252
70
128
10
0.000000
20
0.000000
30
0.000000
71
108
72
44
73
45
0
VERTEX
8
0
6
CONTINUOUS
62
252
70
128
10
0.000000
20
0.000000
30
0.000000
71
108
72
45
73
107
0
VERTEX
8
0
6
CONTINUOUS
62
252
70
128
10
0.000000
20
0.000000
30
0.000000
71
107
72
45
73
46
0
VERTEX
8
0
6
CONTINUOUS
62
252
70
128
10
0.000000
20
0.000000
30
0.000000
71
107
72
46
73
106
0
VERTEX
8
0
6
CONTINUOUS
62
252
70
128
10
0.000000
20
0.000000
30
0.000000
71
106
72
46
73
105
0
VERTEX
8
0
6
CONTINUOUS
62
252
70
128
10
0.000000
20
0.000000
30
0.000000
71
105
72
46
73
47
0
VERTEX
8
0
6
CONTINUOUS
62
252
70
128
10
0.000000
20
0.000000
30
0.000000
71
105
72
47
73
104
0
VERTEX
8
0
6
CONTINUOUS
62
252
70
128
10
0.000000
20
0.000000
30
0.000000
71
104
72
47
73
48
0
VERTEX
8
0
6
CONTINUOUS
62
252
70
128
10
0.000000
20
0.000000
30
0.000000
71
104
72
48
73
103
0
VERTEX
8
0
6
CONTINUOUS
62
252
70
128
10
0.000000
20
0.000000
30
0.000000
71
103
72
48
73
49
0
VERTEX
8
0
6
CONTINUOUS
62
252
70
128
10
0.000000
20
0.000000
30
0.000000
71
103
72
49
73
102
0
VERTEX
8
0
6
CONTINUOUS
62
252
70
128
10
0.000000
20
0.000000
30
0.000000
71
102
72
49
73
50
0
VERTEX
8
0
6
CONTINUOUS
62
252
70
128
10
0.000000
20
0.000000
30
0.000000
71
102
72
50
73
101
0
VERTEX
8
0
6
CONTINUOUS
62
252
70
128
10
0.000000
20
0.000000
30
0.000000
71
101
72
50
73
51
0
VERTEX
8
0
6
CONTINUOUS
62
252
70
128
10
0.000000
20
0.000000
30
0.000000
71
101
72
51
73
100
0
VERTEX
8
0
6
CONTINUOUS
62
252
70
128
10
0.000000
20
0.000000
30
0.000000
71
100
72
51
73
52
0
VERTEX
8
0
6
CONTINUOUS
62
252
70
128
10
0.000000
20
0.000000
30
0.000000
71
100
72
52
73
99
0
VERTEX
8
0
6
CONTINUOUS
62
252
70
128
10
0.000000
20
0.000000
30
0.000000
71
99
72
52
73
53
0
VERTEX
8
0
6
CONTINUOUS
62
252
70
128
10
0.000000
20
0.000000
30
0.000000
71
99
72
53
73
98
0
VERTEX
8
0
6
CONTINUOUS
62
252
70
128
10
0.000000
20
0.000000
30
0.000000
71
98
72
53
73
54
0
VERTEX
8
0
6
CONTINUOUS
62
252
70
128
10
0.000000
20
0.000000
30
0.000000
71
98
72
54
73
97
0
VERTEX
8
0
6
CONTINUOUS
62
252
70
128
10
0.000000
20
0.000000
30
0.000000
71
97
72
54
73
55
0
VERTEX
8
0
6
CONTINUOUS
62
252
70
128
10
0.000000
20
0.000000
30
0.000000
71
97
72
55
73
96
0
VERTEX
8
0
6
CONTINUOUS
62
252
70
128
10
0.000000
20
0.000000
30
0.000000
71
96
72
55
73
56
0
VERTEX
8
0
6
CONTINUOUS
62
252
70
128
10
0.000000
20
0.000000
30
0.000000
71
96
72
56
73
95
0
VERTEX
8
0
6
CONTINUOUS
62
252
70
128
10
0.000000
20
0.000000
30
0.000000
71
95
72
56
73
57
0
VERTEX
8
0
6
CONTINUOUS
62
252
70
128
10
0.000000
20
0.000000
30
0.000000
71
95
72
57
73
94
0
VERTEX
8
0
6
CONTINUOUS
62
252
70
128
10
0.000000
20
0.000000
30
0.000000
71
94
72
57
73
58
0
VERTEX
8
0
6
CONTINUOUS
62
252
70
128
10
0.000000
20
0.000000
30
0.000000
71
94
72
58
73
93
0
VERTEX
8
0
6
CONTINUOUS
62
252
70
128
10
0.000000
20
0.000000
30
0.000000
71
93
72
58
73
59
0
VERTEX
8
0
6
CONTINUOUS
62
252
70
128
10
0.000000
20
0.000000
30
0.000000
71
93
72
59
73
92
0
VERTEX
8
0
6
CONTINUOUS
62
252
70
128
10
0.000000
20
0.000000
30
0.000000
71
92
72
59
73
60
0
VERTEX
8
0
6
CONTINUOUS
62
252
70
128
10
0.000000
20
0.000000
30
0.000000
71
92
72
60
73
91
0
SEQEND
0
POLYLINE
66
1
8
0
6
CONTINUOUS
62
252
70
64
75
0
10
0.000000
20
0.000000
30
0.000000
0
VERTEX
8
0
6
CONTINUOUS
62
252
70
192
10
0.600000
20
0.000000
30
0.187500
0
VERTEX
8
0
6
CONTINUOUS
62
252
70
192
10
0.600000
20
-0.019599
30
0.186473
0
VERTEX
8
0
6
CONTINUOUS
62
252
70
192
10
0.600000
20
-0.038983
30
0.183403
0
VERTEX
8
0
6
CONTINUOUS
62
252
70
192
10
0.600000
20
-0.057941
30
0.178323
0
VERTEX
8
0
6
CONTINUOUS
62
252
70
192
10
0.600000
20
-0.076263
30
0.171290
0
VERTEX
8
0
6
CONTINUOUS
62
252
70
192
10
0.600000
20
-0.093750
30
0.162380
0
VERTEX
8
0
6
CONTINUOUS
62
252
70
192
10
0.600000
20
-0.110210
30
0.151691
0
VERTEX
8
0
6
CONTINUOUS
62
252
70
192
10
0.600000
20
-0.125462
30
0.139340
0
VERTEX
8
0
6
CONTINUOUS
62
252
70
192
10
0.600000
20
-0.139340
30
0.125462
0
VERTEX
8
0
6
CONTINUOUS
62
252
70
192
10
0.600000
20
-0.151691
30
0.110210
0
VERTEX
8
0
6
CONTINUOUS
62
252
70
192
10
0.600000
20
-0.162380
30
0.093750
0
VERTEX
8
0
6
CONTINUOUS
62
252
70
192
10
0.600000
20
-0.171290
30
0.076263
0
VERTEX
8
0
6
CONTINUOUS
62
252
70
192
10
0.600000
20
-0.178323
30
0.057941
0
VERTEX
8
0
6
CONTINUOUS
62
252
70
192
10
0.600000
20
-0.183403
30
0.038983
0
VERTEX
8
0
6
CONTINUOUS
62
252
70
192
10
0.600000
20
-0.186473
30
0.019599
0
VERTEX
8
0
6
CONTINUOUS
62
252
70
192
10
0.600000
20
-0.187500
30
-0.000000
0
VERTEX
8
0
6
CONTINUOUS
62
252
70
192
10
0.600000
20
-0.186473
30
-0.019599
0
VERTEX
8
0
6
CONTINUOUS
62
252
70
192
10
0.600000
20
-0.183403
30
-0.038983
0
VERTEX
8
0
6
CONTINUOUS
62
252
70
192
10
0.600000
20
-0.178323
30
-0.057941
0
VERTEX
8
0
6
CONTINUOUS
62
252
70
192
10
0.600000
20
-0.171290
30
-0.076263
0
VERTEX
8
0
6
CONTINUOUS
62
252
70
192
10
0.600000
20
-0.162380
30
-0.093750
0
VERTEX
8
0
6
CONTINUOUS
62
252
70
192
10
0.600000
20
-0.151691
30
-0.110210
0
VERTEX
8
0
6
CONTINUOUS
62
252
70
192
10
0.600000
20
-0.139340
30
-0.125462
0
VERTEX
8
0
6
CONTINUOUS
62
252
70
192
10
0.600000
20
-0.125462
30
-0.139340
0
VERTEX
8
0
6
CONTINUOUS
62
252
70
192
10
0.600000
20
-0.110210
30
-0.151691
0
VERTEX
8
0
6
CONTINUOUS
62
252
70
192
10
0.600000
20
-0.093750
30
-0.162380
0
VERTEX
8
0
6
CONTINUOUS
62
252
70
192
10
0.600000
20
-0.076263
30
-0.171290
0
VERTEX
8
0
6
CONTINUOUS
62
252
70
192
10
0.600000
20
-0.057941
30
-0.178323
0
VERTEX
8
0
6
CONTINUOUS
62
252
70
192
10
0.600000
20
-0.038983
30
-0.183403
0
VERTEX
8
0
6
CONTINUOUS
62
252
70
192
10
0.600000
20
-0.019599
30
-0.186473
0
VERTEX
8
0
6
CONTINUOUS
62
252
70
192
10
0.600000
20
0.000000
30
-0.187500
0
VERTEX
8
0
6
CONTINUOUS
62
252
70
192
10
0.600000
20
0.019599
30
-0.186473
0
VERTEX
8
0
6
CONTINUOUS
62
252
70
192
10
0.600000
20
0.038983
30
-0.183403
0
VERTEX
8
0
6
CONTINUOUS
62
252
70
192
10
0.600000
20
0.057941
30
-0.178323
0
VERTEX
8
0
6
CONTINUOUS
62
252
70
192
10
0.600000
20
0.076263
30
-0.171290
0
VERTEX
8
0
6
CONTINUOUS
62
252
70
192
10
0.600000
20
0.093750
30
-0.162380
0
VERTEX
8
0
6
CONTINUOUS
62
252
70
192
10
0.600000
20
0.110210
30
-0.151691
0
VERTEX
8
0
6
CONTINUOUS
62
252
70
192
10
0.600000
20
0.125462
30
-0.139340
0
VERTEX
8
0
6
CONTINUOUS
62
252
70
192
10
0.600000
20
0.139340
30
-0.125462
0
VERTEX
8
0
6
CONTINUOUS
62
252
70
192
10
0.600000
20
0.151691
30
-0.110210
0
VERTEX
8
0
6
CONTINUOUS
62
252
70
192
10
0.600000
20
0.162380
30
-0.093750
0
VERTEX
8
0
6
CONTINUOUS
62
252
70
192
10
0.600000
20
0.171290
30
-0.076263
0
VERTEX
8
0
6
CONTINUOUS
62
252
70
192
10
0.600000
20
0.178323
30
-0.057941
0
VERTEX
8
0
6
CONTINUOUS
62
252
70
192
10
0.600000
20
0.183403
30
-0.038983
0
VERTEX
8
0
6
CONTINUOUS
62
252
70
192
10
0.600000
20
0.186473
30
-0.019599
0
VERTEX
8
0
6
CONTINUOUS
62
252
70
192
10
0.600000
20
0.187500
30
0.000000
0
VERTEX
8
0
6
CONTINUOUS
62
252
70
192
10
0.600000
20
0.186473
30
0.019599
0
VERTEX
8
0
6
CONTINUOUS
62
252
70
192
10
0.600000
20
0.183403
30
0.038983
0
VERTEX
8
0
6
CONTINUOUS
62
252
70
192
10
0.600000
20
0.178323
30
0.057941
0
VERTEX
8
0
6
CONTINUOUS
62
252
70
192
10
0.600000
20
0.171290
30
0.076263
0
VERTEX
8
0
6
CONTINUOUS
62
252
70
192
10
0.600000
20
0.162380
30
0.093750
0
VERTEX
8
0
6
CONTINUOUS
62
252
70
192
10
0.600000
20
0.151691
30
0.110210
0
VERTEX
8
0
6
CONTINUOUS
62
252
70
192
10
0.600000
20
0.139340
30
0.125462
0
VERTEX
8
0
6
CONTINUOUS
62
252
70
192
10
0.600000
20
0.125462
30
0.139340
0
VERTEX
8
0
6
CONTINUOUS
62
252
70
192
10
0.600000
20
0.110210
30
0.151691
0
VERTEX
8
0
6
CONTINUOUS
62
252
70
192
10
0.600000
20
0.093750
30
0.162380
0
VERTEX
8
0
6
CONTINUOUS
62
252
70
192
10
0.600000
20
0.076263
30
0.171290
0
VERTEX
8
0
6
CONTINUOUS
62
252
70
192
10
0.600000
20
0.057941
30
0.178323
0
VERTEX
8
0
6
CONTINUOUS
62
252
70
192
10
0.600000
20
0.038983
30
0.183403
0
VERTEX
8
0
6
CONTINUOUS
62
252
70
192
10
0.600000
20
0.019599
30
0.186473
0
VERTEX
8
0
6
CONTINUOUS
62
252
70
192
10
1.380000
20
-0.000000
30
0.187500
0
VERTEX
8
0
6
CONTINUOUS
62
252
70
192
10
1.380000
20
0.019599
30
0.186473
0
VERTEX
8
0
6
CONTINUOUS
62
252
70
192
10
1.380000
20
0.038983
30
0.183403
0
VERTEX
8
0
6
CONTINUOUS
62
252
70
192
10
1.380000
20
0.057941
30
0.178323
0
VERTEX
8
0
6
CONTINUOUS
62
252
70
192
10
1.380000
20
0.076263
30
0.171290
0
VERTEX
8
0
6
CONTINUOUS
62
252
70
192
10
1.380000
20
0.093750
30
0.162380
0
VERTEX
8
0
6
CONTINUOUS
62
252
70
192
10
1.380000
20
0.110210
30
0.151691
0
VERTEX
8
0
6
CONTINUOUS
62
252
70
192
10
1.380000
20
0.125462
30
0.139340
0
VERTEX
8
0
6
CONTINUOUS
62
252
70
192
10
1.380000
20
0.139340
30
0.125462
0
VERTEX
8
0
6
CONTINUOUS
62
252
70
192
10
1.380000
20
0.151691
30
0.110210
0
VERTEX
8
0
6
CONTINUOUS
62
252
70
192
10
1.380000
20
0.162380
30
0.093750
0
VERTEX
8
0
6
CONTINUOUS
62
252
70
192
10
1.380000
20
0.171290
30
0.076263
0
VERTEX
8
0
6
CONTINUOUS
62
252
70
192
10
1.380000
20
0.178323
30
0.057941
0
VERTEX
8
0
6
CONTINUOUS
62
252
70
192
10
1.380000
20
0.183403
30
0.038983
0
VERTEX
8
0
6
CONTINUOUS
62
252
70
192
10
1.380000
20
0.186473
30
0.019599
0
VERTEX
8
0
6
CONTINUOUS
62
252
70
192
10
1.380000
20
0.187500
30
-0.000000
0
VERTEX
8
0
6
CONTINUOUS
62
252
70
192
10
1.380000
20
0.186473
30
-0.019599
0
VERTEX
8
0
6
CONTINUOUS
62
252
70
192
10
1.380000
20
0.183403
30
-0.038983
0
VERTEX
8
0
6
CONTINUOUS
62
252
70
192
10
1.380000
20
0.178323
30
-0.057941
0
VERTEX
8
0
6
CONTINUOUS
62
252
70
192
10
1.380000
20
0.171290
30
-0.076263
0
VERTEX
8
0
6
CONTINUOUS
62
252
70
192
10
1.380000
20
0.162380
30
-0.093750
0
VERTEX
8
0
6
CONTINUOUS
62
252
70
192
10
1.380000
20
0.151691
30
-0.110210
0
VERTEX
8
0
6
CONTINUOUS
62
252
70
192
10
1.380000
20
0.139340
30
-0.125462
0
VERTEX
8
0
6
CONTINUOUS
62
252
70
192
10
1.380000
20
0.125462
30
-0.139340
0
VERTEX
8
0
6
CONTINUOUS
62
252
70
192
10
1.380000
20
0.110210
30
-0.151691
0
VERTEX
8
0
6
CONTINUOUS
62
252
70
192
10
1.380000
20
0.093750
30
-0.162380
0
VERTEX
8
0
6
CONTINUOUS
62
252
70
192
10
1.380000
20
0.076263
30
-0.171290
0
VERTEX
8
0
6
CONTINUOUS
62
252
70
192
10
1.380000
20
0.057941
30
-0.178323
0
VERTEX
8
0
6
CONTINUOUS
62
252
70
192
10
1.380000
20
0.038983
30
-0.183403
0
VERTEX
8
0
6
CONTINUOUS
62
252
70
192
10
1.380000
20
0.019599
30
-0.186473
0
VERTEX
8
0
6
CONTINUOUS
62
252
70
192
10
1.380000
20
0.000000
30
-0.187500
0
VERTEX
8
0
6
CONTINUOUS
62
252
70
192
10
1.380000
20
-0.019599
30
-0.186473
0
VERTEX
8
0
6
CONTINUOUS
62
252
70
192
10
1.380000
20
-0.038983
30
-0.183403
0
VERTEX
8
0
6
CONTINUOUS
62
252
70
192
10
1.380000
20
-0.057941
30
-0.178323
0
VERTEX
8
0
6
CONTINUOUS
62
252
70
192
10
1.380000
20
-0.076263
30
-0.171290
0
VERTEX
8
0
6
CONTINUOUS
62
252
70
192
10
1.380000
20
-0.093750
30
-0.162380
0
VERTEX
8
0
6
CONTINUOUS
62
252
70
192
10
1.380000
20
-0.110210
30
-0.151691
0
VERTEX
8
0
6
CONTINUOUS
62
252
70
192
10
1.380000
20
-0.125462
30
-0.139340
0
VERTEX
8
0
6
CONTINUOUS
62
252
70
192
10
1.380000
20
-0.139340
30
-0.125462
0
VERTEX
8
0
6
CONTINUOUS
62
252
70
192
10
1.380000
20
-0.151691
30
-0.110210
0
VERTEX
8
0
6
CONTINUOUS
62
252
70
192
10
1.380000
20
-0.162380
30
-0.093750
0
VERTEX
8
0
6
CONTINUOUS
62
252
70
192
10
1.380000
20
-0.171290
30
-0.076263
0
VERTEX
8
0
6
CONTINUOUS
62
252
70
192
10
1.380000
20
-0.178323
30
-0.057941
0
VERTEX
8
0
6
CONTINUOUS
62
252
70
192
10
1.380000
20
-0.183403
30
-0.038983
0
VERTEX
8
0
6
CONTINUOUS
62
252
70
192
10
1.380000
20
-0.186473
30
-0.019599
0
VERTEX
8
0
6
CONTINUOUS
62
252
70
192
10
1.380000
20
-0.187500
30
-0.000000
0
VERTEX
8
0
6
CONTINUOUS
62
252
70
192
10
1.380000
20
-0.186473
30
0.019599
0
VERTEX
8
0
6
CONTINUOUS
62
252
70
192
10
1.380000
20
-0.183403
30
0.038983
0
VERTEX
8
0
6
CONTINUOUS
62
252
70
192
10
1.380000
20
-0.178323
30
0.057941
0
VERTEX
8
0
6
CONTINUOUS
62
252
70
192
10
1.380000
20
-0.171290
30
0.076263
0
VERTEX
8
0
6
CONTINUOUS
62
252
70
192
10
1.380000
20
-0.162380
30
0.093750
0
VERTEX
8
0
6
CONTINUOUS
62
252
70
192
10
1.380000
20
-0.151691
30
0.110210
0
VERTEX
8
0
6
CONTINUOUS
62
252
70
192
10
1.380000
20
-0.139340
30
0.125462
0
VERTEX
8
0
6
CONTINUOUS
62
252
70
192
10
1.380000
20
-0.125462
30
0.139340
0
VERTEX
8
0
6
CONTINUOUS
62
252
70
192
10
1.380000
20
-0.110210
30
0.151691
0
VERTEX
8
0
6
CONTINUOUS
62
252
70
192
10
1.380000
20
-0.093750
30
0.162380
0
VERTEX
8
0
6
CONTINUOUS
62
252
70
192
10
1.380000
20
-0.076263
30
0.171290
0
VERTEX
8
0
6
CONTINUOUS
62
252
70
192
10
1.380000
20
-0.057941
30
0.178323
0
VERTEX
8
0
6
CONTINUOUS
62
252
70
192
10
1.380000
20
-0.038983
30
0.183403
0
VERTEX
8
0
6
CONTINUOUS
62
252
70
192
10
1.380000
20
-0.019599
30
0.186473
0
VERTEX
8
0
6
CONTINUOUS
62
252
70
128
10
0.000000
20
0.000000
30
0.000000
71
2
72
61
73
1
0
VERTEX
8
0
6
CONTINUOUS
62
252
70
128
10
0.000000
20
0.000000
30
0.000000
71
1
72
61
73
62
0
VERTEX
8
0
6
CONTINUOUS
62
252
70
128
10
0.000000
20
0.000000
30
0.000000
71
1
72
62
73
60
0
VERTEX
8
0
6
CONTINUOUS
62
252
70
128
10
0.000000
20
0.000000
30
0.000000
71
60
72
62
73
63
0
VERTEX
8
0
6
CONTINUOUS
62
252
70
128
10
0.000000
20
0.000000
30
0.000000
71
60
72
63
73
59
0
VERTEX
8
0
6
CONTINUOUS
62
252
70
128
10
0.000000
20
0.000000
30
0.000000
71
59
72
63
73
64
0
VERTEX
8
0
6
CONTINUOUS
62
252
70
128
10
0.000000
20
0.000000
30
0.000000
71
59
72
64
73
58
0
VERTEX
8
0
6
CONTINUOUS
62
252
70
128
10
0.000000
20
0.000000
30
0.000000
71
58
72
64
73
65
0
VERTEX
8
0
6
CONTINUOUS
62
252
70
128
10
0.000000
20
0.000000
30
0.000000
71
58
72
65
73
57
0
VERTEX
8
0
6
CONTINUOUS
62
252
70
128
10
0.000000
20
0.000000
30
0.000000
71
57
72
65
73
66
0
VERTEX
8
0
6
CONTINUOUS
62
252
70
128
10
0.000000
20
0.000000
30
0.000000
71
57
72
66
73
56
0
VERTEX
8
0
6
CONTINUOUS
62
252
70
128
10
0.000000
20
0.000000
30
0.000000
71
56
72
66
73
67
0
VERTEX
8
0
6
CONTINUOUS
62
252
70
128
10
0.000000
20
0.000000
30
0.000000
71
56
72
67
73
55
0
VERTEX
8
0
6
CONTINUOUS
62
252
70
128
10
0.000000
20
0.000000
30
0.000000
71
55
72
67
73
68
0
VERTEX
8
0
6
CONTINUOUS
62
252
70
128
10
0.000000
20
0.000000
30
0.000000
71
55
72
68
73
54
0
VERTEX
8
0
6
CONTINUOUS
62
252
70
128
10
0.000000
20
0.000000
30
0.000000
71
54
72
68
73
69
0
VERTEX
8
0
6
CONTINUOUS
62
252
70
128
10
0.000000
20
0.000000
30
0.000000
71
54
72
69
73
53
0
VERTEX
8
0
6
CONTINUOUS
62
252
70
128
10
0.000000
20
0.000000
30
0.000000
71
53
72
69
73
70
0
VERTEX
8
0
6
CONTINUOUS
62
252
70
128
10
0.000000
20
0.000000
30
0.000000
71
53
72
70
73
52
0
VERTEX
8
0
6
CONTINUOUS
62
252
70
128
10
0.000000
20
0.000000
30
0.000000
71
52
72
70
73
71
0
VERTEX
8
0
6
CONTINUOUS
62
252
70
128
10
0.000000
20
0.000000
30
0.000000
71
52
72
71
73
51
0
VERTEX
8
0
6
CONTINUOUS
62
252
70
128
10
0.000000
20
0.000000
30
0.000000
71
51
72
71
73
72
0
VERTEX
8
0
6
CONTINUOUS
62
252
70
128
10
0.000000
20
0.000000
30
0.000000
71
51
72
72
73
50
0
VERTEX
8
0
6
CONTINUOUS
62
252
70
128
10
0.000000
20
0.000000
30
0.000000
71
50
72
72
73
73
0
VERTEX
8
0
6
CONTINUOUS
62
252
70
128
10
0.000000
20
0.000000
30
0.000000
71
50
72
73
73
49
0
VERTEX
8
0
6
CONTINUOUS
62
252
70
128
10
0.000000
20
0.000000
30
0.000000
71
49
72
73
73
74
0
VERTEX
8
0
6
CONTINUOUS
62
252
70
128
10
0.000000
20
0.000000
30
0.000000
71
49
72
74
73
48
0
VERTEX
8
0
6
CONTINUOUS
62
252
70
128
10
0.000000
20
0.000000
30
0.000000
71
48
72
74
73
75
0
VERTEX
8
0
6
CONTINUOUS
62
252
70
128
10
0.000000
20
0.000000
30
0.000000
71
48
72
75
73
47
0
VERTEX
8
0
6
CONTINUOUS
62
252
70
128
10
0.000000
20
0.000000
30
0.000000
71
47
72
75
73
76
0
VERTEX
8
0
6
CONTINUOUS
62
252
70
128
10
0.000000
20
0.000000
30
0.000000
71
47
72
76
73
46
0
VERTEX
8
0
6
CONTINUOUS
62
252
70
128
10
0.000000
20
0.000000
30
0.000000
71
46
72
76
73
77
0
VERTEX
8
0
6
CONTINUOUS
62
252
70
128
10
0.000000
20
0.000000
30
0.000000
71
46
72
77
73
45
0
VERTEX
8
0
6
CONTINUOUS
62
252
70
128
10
0.000000
20
0.000000
30
0.000000
71
45
72
77
73
78
0
VERTEX
8
0
6
CONTINUOUS
62
252
70
128
10
0.000000
20
0.000000
30
0.000000
71
45
72
78
73
44
0
VERTEX
8
0
6
CONTINUOUS
62
252
70
128
10
0.000000
20
0.000000
30
0.000000
71
44
72
78
73
79
0
VERTEX
8
0
6
CONTINUOUS
62
252
70
128
10
0.000000
20
0.000000
30
0.000000
71
44
72
79
73
43
0
VERTEX
8
0
6
CONTINUOUS
62
252
70
128
10
0.000000
20
0.000000
30
0.000000
71
43
72
79
73
80
0
VERTEX
8
0
6
CONTINUOUS
62
252
70
128
10
0.000000
20
0.000000
30
0.000000
71
43
72
80
73
42
0
VERTEX
8
0
6
CONTINUOUS
62
252
70
128
10
0.000000
20
0.000000
30
0.000000
71
42
72
80
73
81
0
VERTEX
8
0
6
CONTINUOUS
62
252
70
128
10
0.000000
20
0.000000
30
0.000000
71
42
72
81
73
41
0
VERTEX
8
0
6
CONTINUOUS
62
252
70
128
10
0.000000
20
0.000000
30
0.000000
71
41
72
81
73
82
0
VERTEX
8
0
6
CONTINUOUS
62
252
70
128
10
0.000000
20
0.000000
30
0.000000
71
41
72
82
73
40
0
VERTEX
8
0
6
CONTINUOUS
62
252
70
128
10
0.000000
20
0.000000
30
0.000000
71
40
72
82
73
83
0
VERTEX
8
0
6
CONTINUOUS
62
252
70
128
10
0.000000
20
0.000000
30
0.000000
71
40
72
83
73
39
0
VERTEX
8
0
6
CONTINUOUS
62
252
70
128
10
0.000000
20
0.000000
30
0.000000
71
39
72
83
73
84
0
VERTEX
8
0
6
CONTINUOUS
62
252
70
128
10
0.000000
20
0.000000
30
0.000000
71
39
72
84
73
38
0
VERTEX
8
0
6
CONTINUOUS
62
252
70
128
10
0.000000
20
0.000000
30
0.000000
71
38
72
84
73
85
0
VERTEX
8
0
6
CONTINUOUS
62
252
70
128
10
0.000000
20
0.000000
30
0.000000
71
38
72
85
73
37
0
VERTEX
8
0
6
CONTINUOUS
62
252
70
128
10
0.000000
20
0.000000
30
0.000000
71
37
72
85
73
86
0
VERTEX
8
0
6
CONTINUOUS
62
252
70
128
10
0.000000
20
0.000000
30
0.000000
71
37
72
86
73
36
0
VERTEX
8
0
6
CONTINUOUS
62
252
70
128
10
0.000000
20
0.000000
30
0.000000
71
36
72
86
73
87
0
VERTEX
8
0
6
CONTINUOUS
62
252
70
128
10
0.000000
20
0.000000
30
0.000000
71
36
72
87
73
35
0
VERTEX
8
0
6
CONTINUOUS
62
252
70
128
10
0.000000
20
0.000000
30
0.000000
71
35
72
87
73
88
0
VERTEX
8
0
6
CONTINUOUS
62
252
70
128
10
0.000000
20
0.000000
30
0.000000
71
35
72
88
73
34
0
VERTEX
8
0
6
CONTINUOUS
62
252
70
128
10
0.000000
20
0.000000
30
0.000000
71
34
72
88
73
89
0
VERTEX
8
0
6
CONTINUOUS
62
252
70
128
10
0.000000
20
0.000000
30
0.000000
71
34
72
89
73
33
0
VERTEX
8
0
6
CONTINUOUS
62
252
70
128
10
0.000000
20
0.000000
30
0.000000
71
33
72
89
73
90
0
VERTEX
8
0
6
CONTINUOUS
62
252
70
128
10
0.000000
20
0.000000
30
0.000000
71
33
72
90
73
32
0
VERTEX
8
0
6
CONTINUOUS
62
252
70
128
10
0.000000
20
0.000000
30
0.000000
71
32
72
90
73
91
0
VERTEX
8
0
6
CONTINUOUS
62
252
70
128
10
0.000000
20
0.000000
30
0.000000
71
32
72
91
73
31
0
VERTEX
8
0
6
CONTINUOUS
62
252
70
128
10
0.000000
20
0.000000
30
0.000000
71
31
72
91
73
30
0
VERTEX
8
0
6
CONTINUOUS
62
252
70
128
10
0.000000
20
0.000000
30
0.000000
71
30
72
91
73
92
0
VERTEX
8
0
6
CONTINUOUS
62
252
70
128
10
0.000000
20
0.000000
30
0.000000
71
30
72
92
73
93
0
VERTEX
8
0
6
CONTINUOUS
62
252
70
128
10
0.000000
20
0.000000
30
0.000000
71
61
72
2
73
120
0
VERTEX
8
0
6
CONTINUOUS
62
252
70
128
10
0.000000
20
0.000000
30
0.000000
71
120
72
2
73
3
0
VERTEX
8
0
6
CONTINUOUS
62
252
70
128
10
0.000000
20
0.000000
30
0.000000
71
120
72
3
73
119
0
VERTEX
8
0
6
CONTINUOUS
62
252
70
128
10
0.000000
20
0.000000
30
0.000000
71
119
72
3
73
4
0
VERTEX
8
0
6
CONTINUOUS
62
252
70
128
10
0.000000
20
0.000000
30
0.000000
71
119
72
4
73
118
0
VERTEX
8
0
6
CONTINUOUS
62
252
70
128
10
0.000000
20
0.000000
30
0.000000
71
118
72
4
73
117
0
VERTEX
8
0
6
CONTINUOUS
62
252
70
128
10
0.000000
20
0.000000
30
0.000000
71
117
72
4
73
5
0
VERTEX
8
0
6
CONTINUOUS
62
252
70
128
10
0.000000
20
0.000000
30
0.000000
71
117
72
5
73
116
0
VERTEX
8
0
6
CONTINUOUS
62
252
70
128
10
0.000000
20
0.000000
30
0.000000
71
116
72
5
73
6
0
VERTEX
8
0
6
CONTINUOUS
62
252
70
128
10
0.000000
20
0.000000
30
0.000000
71
116
72
6
73
115
0
VERTEX
8
0
6
CONTINUOUS
62
252
70
128
10
0.000000
20
0.000000
30
0.000000
71
115
72
6
73
7
0
VERTEX
8
0
6
CONTINUOUS
62
252
70
128
10
0.000000
20
0.000000
30
0.000000
71
115
72
7
73
114
0
VERTEX
8
0
6
CONTINUOUS
62
252
70
128
10
0.000000
20
0.000000
30
0.000000
71
114
72
7
73
8
0
VERTEX
8
0
6
CONTINUOUS
62
252
70
128
10
0.000000
20
0.000000
30
0.000000
71
114
72
8
73
113
0
VERTEX
8
0
6
CONTINUOUS
62
252
70
128
10
0.000000
20
0.000000
30
0.000000
71
113
72
8
73
9
0
VERTEX
8
0
6
CONTINUOUS
62
252
70
128
10
0.000000
20
0.000000
30
0.000000
71
113
72
9
73
112
0
VERTEX
8
0
6
CONTINUOUS
62
252
70
128
10
0.000000
20
0.000000
30
0.000000
71
112
72
9
73
10
0
VERTEX
8
0
6
CONTINUOUS
62
252
70
128
10
0.000000
20
0.000000
30
0.000000
71
112
72
10
73
111
0
VERTEX
8
0
6
CONTINUOUS
62
252
70
128
10
0.000000
20
0.000000
30
0.000000
71
111
72
10
73
11
0
VERTEX
8
0
6
CONTINUOUS
62
252
70
128
10
0.000000
20
0.000000
30
0.000000
71
111
72
11
73
110
0
VERTEX
8
0
6
CONTINUOUS
62
252
70
128
10
0.000000
20
0.000000
30
0.000000
71
110
72
11
73
12
0
VERTEX
8
0
6
CONTINUOUS
62
252
70
128
10
0.000000
20
0.000000
30
0.000000
71
110
72
12
73
109
0
VERTEX
8
0
6
CONTINUOUS
62
252
70
128
10
0.000000
20
0.000000
30
0.000000
71
109
72
12
73
13
0
VERTEX
8
0
6
CONTINUOUS
62
252
70
128
10
0.000000
20
0.000000
30
0.000000
71
109
72
13
73
108
0
VERTEX
8
0
6
CONTINUOUS
62
252
70
128
10
0.000000
20
0.000000
30
0.000000
71
108
72
13
73
14
0
VERTEX
8
0
6
CONTINUOUS
62
252
70
128
10
0.000000
20
0.000000
30
0.000000
71
108
72
14
73
107
0
VERTEX
8
0
6
CONTINUOUS
62
252
70
128
10
0.000000
20
0.000000
30
0.000000
71
107
72
14
73
15
0
VERTEX
8
0
6
CONTINUOUS
62
252
70
128
10
0.000000
20
0.000000
30
0.000000
71
107
72
15
73
106
0
VERTEX
8
0
6
CONTINUOUS
62
252
70
128
10
0.000000
20
0.000000
30
0.000000
71
106
72
15
73
16
0
VERTEX
8
0
6
CONTINUOUS
62
252
70
128
10
0.000000
20
0.000000
30
0.000000
71
106
72
16
73
105
0
VERTEX
8
0
6
CONTINUOUS
62
252
70
128
10
0.000000
20
0.000000
30
0.000000
71
105
72
16
73
17
0
VERTEX
8
0
6
CONTINUOUS
62
252
70
128
10
0.000000
20
0.000000
30
0.000000
71
105
72
17
73
104
0
VERTEX
8
0
6
CONTINUOUS
62
252
70
128
10
0.000000
20
0.000000
30
0.000000
71
104
72
17
73
18
0
VERTEX
8
0
6
CONTINUOUS
62
252
70
128
10
0.000000
20
0.000000
30
0.000000
71
104
72
18
73
103
0
VERTEX
8
0
6
CONTINUOUS
62
252
70
128
10
0.000000
20
0.000000
30
0.000000
71
103
72
18
73
19
0
VERTEX
8
0
6
CONTINUOUS
62
252
70
128
10
0.000000
20
0.000000
30
0.000000
71
103
72
19
73
102
0
VERTEX
8
0
6
CONTINUOUS
62
252
70
128
10
0.000000
20
0.000000
30
0.000000
71
102
72
19
73
20
0
VERTEX
8
0
6
CONTINUOUS
62
252
70
128
10
0.000000
20
0.000000
30
0.000000
71
102
72
20
73
101
0
VERTEX
8
0
6
CONTINUOUS
62
252
70
128
10
0.000000
20
0.000000
30
0.000000
71
101
72
20
73
21
0
VERTEX
8
0
6
CONTINUOUS
62
252
70
128
10
0.000000
20
0.000000
30
0.000000
71
101
72
21
73
22
0
VERTEX
8
0
6
CONTINUOUS
62
252
70
128
10
0.000000
20
0.000000
30
0.000000
71
101
72
22
73
100
0
VERTEX
8
0
6
CONTINUOUS
62
252
70
128
10
0.000000
20
0.000000
30
0.000000
71
100
72
22
73
23
0
VERTEX
8
0
6
CONTINUOUS
62
252
70
128
10
0.000000
20
0.000000
30
0.000000
71
100
72
23
73
99
0
VERTEX
8
0
6
CONTINUOUS
62
252
70
128
10
0.000000
20
0.000000
30
0.000000
71
99
72
23
73
24
0
VERTEX
8
0
6
CONTINUOUS
62
252
70
128
10
0.000000
20
0.000000
30
0.000000
71
99
72
24
73
98
0
VERTEX
8
0
6
CONTINUOUS
62
252
70
128
10
0.000000
20
0.000000
30
0.000000
71
98
72
24
73
25
0
VERTEX
8
0
6
CONTINUOUS
62
252
70
128
10
0.000000
20
0.000000
30
0.000000
71
98
72
25
73
97
0
VERTEX
8
0
6
CONTINUOUS
62
252
70
128
10
0.000000
20
0.000000
30
0.000000
71
97
72
25
73
96
0
VERTEX
8
0
6
CONTINUOUS
62
252
70
128
10
0.000000
20
0.000000
30
0.000000
71
96
72
25
73
26
0
VERTEX
8
0
6
CONTINUOUS
62
252
70
128
10
0.000000
20
0.000000
30
0.000000
71
96
72
26
73
27
0
VERTEX
8
0
6
CONTINUOUS
62
252
70
128
10
0.000000
20
0.000000
30
0.000000
71
96
72
27
73
95
0
VERTEX
8
0
6
CONTINUOUS
62
252
70
128
10
0.000000
20
0.000000
30
0.000000
71
95
72
27
73
28
0
VERTEX
8
0
6
CONTINUOUS
62
252
70
128
10
0.000000
20
0.000000
30
0.000000
71
95
72
28
73
94
0
VERTEX
8
0
6
CONTINUOUS
62
252
70
128
10
0.000000
20
0.000000
30
0.000000
71
94
72
28
73
29
0
VERTEX
8
0
6
CONTINUOUS
62
252
70
128
10
0.000000
20
0.000000
30
0.000000
71
94
72
29
73
93
0
VERTEX
8
0
6
CONTINUOUS
62
252
70
128
10
0.000000
20
0.000000
30
0.000000
71
93
72
29
73
30
0
SEQEND
0
ENDSEC
0
EOF
