0
SECTION
2
HEADER
9
$ACADVER
1
AC1009
9
$INSBASE
10
0.0
20
0.0
30
0.0
9
$EXTMIN
10
0.000000
20
0.000000
30
0.000000
9
$EXTMAX
10
0.000000
20
0.000000
30
0.000000
9
$UCSORG
10
0.0
20
0.0
30
0.0
9
$UCSXDIR
10
1.0
20
0.0
30
0.0
9
$UCSYDIR
10
0.0
20
1.0
30
0.0
9
$CLAYER
8
0
9
$SHADEDGE
70
3
0
ENDSEC
0
SECTION
2
TABLES
0
TABLE
2
LTYPE
70
2
0
LTYPE
2
CONTINUOUS
70
0
3
Solid line
72
65
73
0
40
0.0
0
ENDTAB
0
TABLE
2
LAYER
70
5
0
LAYER
2
0
70
0
62
7
6
CONTINUOUS
0
ENDTAB
0
TABLE
2
APPID
70
1
0
APPID
2
ACAD
70
64
0
ENDTAB
0
ENDSEC
0
SECTION
2
BLOCKS
0
ENDSEC
0
SECTION
2
ENTITIES
0
POLYLINE
66
1
8
0
6
CONTINUOUS
62
252
70
64
75
0
10
0.000000
20
0.000000
30
0.000000
0
VERTEX
8
0
6
CONTINUOUS
62
252
70
192
10
0.042359
20
0.000000
30
0.258809
0
VERTEX
8
0
6
CONTINUOUS
62
252
70
192
10
0.042359
20
0.027053
30
0.257391
0
VERTEX
8
0
6
CONTINUOUS
62
252
70
192
10
0.042359
20
0.053809
30
0.253153
0
VERTEX
8
0
6
CONTINUOUS
62
252
70
192
10
0.042359
20
0.079976
30
0.246142
0
VERTEX
8
0
6
CONTINUOUS
62
252
70
192
10
0.042359
20
0.105267
30
0.236434
0
VERTEX
8
0
6
CONTINUOUS
62
252
70
192
10
0.042359
20
0.129404
30
0.224135
0
VERTEX
8
0
6
CONTINUOUS
62
252
70
192
10
0.042359
20
0.152124
30
0.209381
0
VERTEX
8
0
6
CONTINUOUS
62
252
70
192
10
0.042359
20
0.173177
30
0.192332
0
VERTEX
8
0
6
CONTINUOUS
62
252
70
192
10
0.042359
20
0.192332
30
0.173177
0
VERTEX
8
0
6
CONTINUOUS
62
252
70
192
10
0.042359
20
0.209381
30
0.152124
0
VERTEX
8
0
6
CONTINUOUS
62
252
70
192
10
0.042359
20
0.224135
30
0.129404
0
VERTEX
8
0
6
CONTINUOUS
62
252
70
192
10
0.042359
20
0.236434
30
0.105267
0
VERTEX
8
0
6
CONTINUOUS
62
252
70
192
10
0.042359
20
0.246142
30
0.079976
0
VERTEX
8
0
6
CONTINUOUS
62
252
70
192
10
0.042359
20
0.253153
30
0.053809
0
VERTEX
8
0
6
CONTINUOUS
62
252
70
192
10
0.042359
20
0.257391
30
0.027053
0
VERTEX
8
0
6
CONTINUOUS
62
252
70
192
10
0.042359
20
0.258809
30
0.000000
0
VERTEX
8
0
6
CONTINUOUS
62
252
70
192
10
0.042359
20
0.257391
30
-0.027053
0
VERTEX
8
0
6
CONTINUOUS
62
252
70
192
10
0.042359
20
0.253153
30
-0.053809
0
VERTEX
8
0
6
CONTINUOUS
62
252
70
192
10
0.042359
20
0.246142
30
-0.079976
0
VERTEX
8
0
6
CONTINUOUS
62
252
70
192
10
0.042359
20
0.236434
30
-0.105267
0
VERTEX
8
0
6
CONTINUOUS
62
252
70
192
10
0.042359
20
0.224135
30
-0.129404
0
VERTEX
8
0
6
CONTINUOUS
62
252
70
192
10
0.042359
20
0.209381
30
-0.152124
0
VERTEX
8
0
6
CONTINUOUS
62
252
70
192
10
0.042359
20
0.192332
30
-0.173177
0
VERTEX
8
0
6
CONTINUOUS
62
252
70
192
10
0.042359
20
0.173177
30
-0.192332
0
VERTEX
8
0
6
CONTINUOUS
62
252
70
192
10
0.042359
20
0.152124
30
-0.209381
0
VERTEX
8
0
6
CONTINUOUS
62
252
70
192
10
0.042359
20
0.129404
30
-0.224135
0
VERTEX
8
0
6
CONTINUOUS
62
252
70
192
10
0.042359
20
0.105267
30
-0.236434
0
VERTEX
8
0
6
CONTINUOUS
62
252
70
192
10
0.042359
20
0.079976
30
-0.246142
0
VERTEX
8
0
6
CONTINUOUS
62
252
70
192
10
0.042359
20
0.053809
30
-0.253153
0
VERTEX
8
0
6
CONTINUOUS
62
252
70
192
10
0.042359
20
0.027053
30
-0.257391
0
VERTEX
8
0
6
CONTINUOUS
62
252
70
192
10
0.042359
20
0.000000
30
-0.258809
0
VERTEX
8
0
6
CONTINUOUS
62
252
70
192
10
0.042359
20
-0.027053
30
-0.257391
0
VERTEX
8
0
6
CONTINUOUS
62
252
70
192
10
0.042359
20
-0.053809
30
-0.253153
0
VERTEX
8
0
6
CONTINUOUS
62
252
70
192
10
0.042359
20
-0.079976
30
-0.246142
0
VERTEX
8
0
6
CONTINUOUS
62
252
70
192
10
0.042359
20
-0.105267
30
-0.236434
0
VERTEX
8
0
6
CONTINUOUS
62
252
70
192
10
0.042359
20
-0.129404
30
-0.224135
0
VERTEX
8
0
6
CONTINUOUS
62
252
70
192
10
0.042359
20
-0.152124
30
-0.209381
0
VERTEX
8
0
6
CONTINUOUS
62
252
70
192
10
0.042359
20
-0.173177
30
-0.192332
0
VERTEX
8
0
6
CONTINUOUS
62
252
70
192
10
0.042359
20
-0.192332
30
-0.173177
0
VERTEX
8
0
6
CONTINUOUS
62
252
70
192
10
0.042359
20
-0.209381
30
-0.152124
0
VERTEX
8
0
6
CONTINUOUS
62
252
70
192
10
0.042359
20
-0.224135
30
-0.129404
0
VERTEX
8
0
6
CONTINUOUS
62
252
70
192
10
0.042359
20
-0.236434
30
-0.105267
0
VERTEX
8
0
6
CONTINUOUS
62
252
70
192
10
0.042359
20
-0.246142
30
-0.079976
0
VERTEX
8
0
6
CONTINUOUS
62
252
70
192
10
0.042359
20
-0.253153
30
-0.053809
0
VERTEX
8
0
6
CONTINUOUS
62
252
70
192
10
0.042359
20
-0.257391
30
-0.027053
0
VERTEX
8
0
6
CONTINUOUS
62
252
70
192
10
0.042359
20
-0.258809
30
0.000000
0
VERTEX
8
0
6
CONTINUOUS
62
252
70
192
10
0.042359
20
-0.257391
30
0.027053
0
VERTEX
8
0
6
CONTINUOUS
62
252
70
192
10
0.042359
20
-0.253153
30
0.053809
0
VERTEX
8
0
6
CONTINUOUS
62
252
70
192
10
0.042359
20
-0.246142
30
0.079976
0
VERTEX
8
0
6
CONTINUOUS
62
252
70
192
10
0.042359
20
-0.236434
30
0.105267
0
VERTEX
8
0
6
CONTINUOUS
62
252
70
192
10
0.042359
20
-0.224135
30
0.129404
0
VERTEX
8
0
6
CONTINUOUS
62
252
70
192
10
0.042359
20
-0.209381
30
0.152124
0
VERTEX
8
0
6
CONTINUOUS
62
252
70
192
10
0.042359
20
-0.192332
30
0.173177
0
VERTEX
8
0
6
CONTINUOUS
62
252
70
192
10
0.042359
20
-0.173177
30
0.192332
0
VERTEX
8
0
6
CONTINUOUS
62
252
70
192
10
0.042359
20
-0.152124
30
0.209381
0
VERTEX
8
0
6
CONTINUOUS
62
252
70
192
10
0.042359
20
-0.129404
30
0.224135
0
VERTEX
8
0
6
CONTINUOUS
62
252
70
192
10
0.042359
20
-0.105267
30
0.236434
0
VERTEX
8
0
6
CONTINUOUS
62
252
70
192
10
0.042359
20
-0.079976
30
0.246142
0
VERTEX
8
0
6
CONTINUOUS
62
252
70
192
10
0.042359
20
-0.053809
30
0.253153
0
VERTEX
8
0
6
CONTINUOUS
62
252
70
192
10
0.042359
20
-0.027053
30
0.257391
0
VERTEX
8
0
6
CONTINUOUS
62
252
70
192
10
0.000000
20
0.000000
30
-0.216450
0
VERTEX
8
0
6
CONTINUOUS
62
252
70
192
10
-0.000000
20
0.022625
30
-0.215264
0
VERTEX
8
0
6
CONTINUOUS
62
252
70
192
10
-0.000000
20
0.045002
30
-0.211720
0
VERTEX
8
0
6
CONTINUOUS
62
252
70
192
10
-0.000000
20
0.066887
30
-0.205856
0
VERTEX
8
0
6
CONTINUOUS
62
252
70
192
10
0.000000
20
0.088038
30
-0.197737
0
VERTEX
8
0
6
CONTINUOUS
62
252
70
192
10
0.000000
20
0.108225
30
-0.187451
0
VERTEX
8
0
6
CONTINUOUS
62
252
70
192
10
0.000000
20
0.127226
30
-0.175112
0
VERTEX
8
0
6
CONTINUOUS
62
252
70
192
10
0.000000
20
0.144833
30
-0.160854
0
VERTEX
8
0
6
CONTINUOUS
62
252
70
192
10
0.000000
20
0.160854
30
-0.144833
0
VERTEX
8
0
6
CONTINUOUS
62
252
70
192
10
0.000000
20
0.175112
30
-0.127226
0
VERTEX
8
0
6
CONTINUOUS
62
252
70
192
10
0.000000
20
0.187451
30
-0.108225
0
VERTEX
8
0
6
CONTINUOUS
62
252
70
192
10
0.000000
20
0.197737
30
-0.088038
0
VERTEX
8
0
6
CONTINUOUS
62
252
70
192
10
0.000000
20
0.205856
30
-0.066887
0
VERTEX
8
0
6
CONTINUOUS
62
252
70
192
10
0.000000
20
0.211720
30
-0.045002
0
VERTEX
8
0
6
CONTINUOUS
62
252
70
192
10
0.000000
20
0.215264
30
-0.022625
0
VERTEX
8
0
6
CONTINUOUS
62
252
70
192
10
0.000000
20
0.216450
30
0.000000
0
VERTEX
8
0
6
CONTINUOUS
62
252
70
192
10
0.000000
20
0.215264
30
0.022625
0
VERTEX
8
0
6
CONTINUOUS
62
252
70
192
10
0.000000
20
0.211720
30
0.045002
0
VERTEX
8
0
6
CONTINUOUS
62
252
70
192
10
0.000000
20
0.205856
30
0.066887
0
VERTEX
8
0
6
CONTINUOUS
62
252
70
192
10
0.000000
20
0.197737
30
0.088038
0
VERTEX
8
0
6
CONTINUOUS
62
252
70
192
10
0.000000
20
0.187451
30
0.108225
0
VERTEX
8
0
6
CONTINUOUS
62
252
70
192
10
0.000000
20
0.175112
30
0.127226
0
VERTEX
8
0
6
CONTINUOUS
62
252
70
192
10
0.000000
20
0.160854
30
0.144833
0
VERTEX
8
0
6
CONTINUOUS
62
252
70
192
10
0.000000
20
0.144833
30
0.160854
0
VERTEX
8
0
6
CONTINUOUS
62
252
70
192
10
0.000000
20
0.127226
30
0.175112
0
VERTEX
8
0
6
CONTINUOUS
62
252
70
192
10
0.000000
20
0.108225
30
0.187451
0
VERTEX
8
0
6
CONTINUOUS
62
252
70
192
10
0.000000
20
0.088038
30
0.197737
0
VERTEX
8
0
6
CONTINUOUS
62
252
70
192
10
0.000000
20
0.066887
30
0.205856
0
VERTEX
8
0
6
CONTINUOUS
62
252
70
192
10
0.000000
20
0.045002
30
0.211720
0
VERTEX
8
0
6
CONTINUOUS
62
252
70
192
10
0.000000
20
0.022625
30
0.215264
0
VERTEX
8
0
6
CONTINUOUS
62
252
70
192
10
0.000000
20
0.000000
30
0.216450
0
VERTEX
8
0
6
CONTINUOUS
62
252
70
192
10
0.000000
20
-0.022625
30
0.215264
0
VERTEX
8
0
6
CONTINUOUS
62
252
70
192
10
0.000000
20
-0.045002
30
0.211720
0
VERTEX
8
0
6
CONTINUOUS
62
252
70
192
10
0.000000
20
-0.066887
30
0.205856
0
VERTEX
8
0
6
CONTINUOUS
62
252
70
192
10
0.000000
20
-0.088038
30
0.197737
0
VERTEX
8
0
6
CONTINUOUS
62
252
70
192
10
0.000000
20
-0.108225
30
0.187451
0
VERTEX
8
0
6
CONTINUOUS
62
252
70
192
10
0.000000
20
-0.127226
30
0.175112
0
VERTEX
8
0
6
CONTINUOUS
62
252
70
192
10
0.000000
20
-0.144833
30
0.160854
0
VERTEX
8
0
6
CONTINUOUS
62
252
70
192
10
0.000000
20
-0.160854
30
0.144833
0
VERTEX
8
0
6
CONTINUOUS
62
252
70
192
10
0.000000
20
-0.175112
30
0.127226
0
VERTEX
8
0
6
CONTINUOUS
62
252
70
192
10
0.000000
20
-0.187451
30
0.108225
0
VERTEX
8
0
6
CONTINUOUS
62
252
70
192
10
0.000000
20
-0.197737
30
0.088038
0
VERTEX
8
0
6
CONTINUOUS
62
252
70
192
10
-0.000000
20
-0.205856
30
0.066887
0
VERTEX
8
0
6
CONTINUOUS
62
252
70
192
10
-0.000000
20
-0.211720
30
0.045002
0
VERTEX
8
0
6
CONTINUOUS
62
252
70
192
10
-0.000000
20
-0.215264
30
0.022625
0
VERTEX
8
0
6
CONTINUOUS
62
252
70
192
10
-0.000000
20
-0.216450
30
0.000000
0
VERTEX
8
0
6
CONTINUOUS
62
252
70
192
10
-0.000000
20
-0.215264
30
-0.022625
0
VERTEX
8
0
6
CONTINUOUS
62
252
70
192
10
-0.000000
20
-0.211720
30
-0.045002
0
VERTEX
8
0
6
CONTINUOUS
62
252
70
192
10
-0.000000
20
-0.205856
30
-0.066887
0
VERTEX
8
0
6
CONTINUOUS
62
252
70
192
10
-0.000000
20
-0.197737
30
-0.088038
0
VERTEX
8
0
6
CONTINUOUS
62
252
70
192
10
-0.000000
20
-0.187451
30
-0.108225
0
VERTEX
8
0
6
CONTINUOUS
62
252
70
192
10
-0.000000
20
-0.175112
30
-0.127226
0
VERTEX
8
0
6
CONTINUOUS
62
252
70
192
10
-0.000000
20
-0.160854
30
-0.144833
0
VERTEX
8
0
6
CONTINUOUS
62
252
70
192
10
-0.000000
20
-0.144833
30
-0.160854
0
VERTEX
8
0
6
CONTINUOUS
62
252
70
192
10
-0.000000
20
-0.127226
30
-0.175112
0
VERTEX
8
0
6
CONTINUOUS
62
252
70
192
10
-0.000000
20
-0.108225
30
-0.187451
0
VERTEX
8
0
6
CONTINUOUS
62
252
70
192
10
-0.000000
20
-0.088038
30
-0.197737
0
VERTEX
8
0
6
CONTINUOUS
62
252
70
192
10
-0.000000
20
-0.066887
30
-0.205856
0
VERTEX
8
0
6
CONTINUOUS
62
252
70
192
10
-0.000000
20
-0.045002
30
-0.211720
0
VERTEX
8
0
6
CONTINUOUS
62
252
70
192
10
-0.000000
20
-0.022625
30
-0.215264
0
VERTEX
8
0
6
CONTINUOUS
62
252
70
128
10
0.000000
20
0.000000
30
0.000000
71
2
72
90
73
1
0
VERTEX
8
0
6
CONTINUOUS
62
252
70
128
10
0.000000
20
0.000000
30
0.000000
71
1
72
90
73
91
0
VERTEX
8
0
6
CONTINUOUS
62
252
70
128
10
0.000000
20
0.000000
30
0.000000
71
1
72
91
73
60
0
VERTEX
8
0
6
CONTINUOUS
62
252
70
128
10
0.000000
20
0.000000
30
0.000000
71
60
72
91
73
92
0
VERTEX
8
0
6
CONTINUOUS
62
252
70
128
10
0.000000
20
0.000000
30
0.000000
71
60
72
92
73
59
0
VERTEX
8
0
6
CONTINUOUS
62
252
70
128
10
0.000000
20
0.000000
30
0.000000
71
59
72
92
73
93
0
VERTEX
8
0
6
CONTINUOUS
62
252
70
128
10
0.000000
20
0.000000
30
0.000000
71
59
72
93
73
58
0
VERTEX
8
0
6
CONTINUOUS
62
252
70
128
10
0.000000
20
0.000000
30
0.000000
71
58
72
93
73
94
0
VERTEX
8
0
6
CONTINUOUS
62
252
70
128
10
0.000000
20
0.000000
30
0.000000
71
58
72
94
73
57
0
VERTEX
8
0
6
CONTINUOUS
62
252
70
128
10
0.000000
20
0.000000
30
0.000000
71
57
72
94
73
95
0
VERTEX
8
0
6
CONTINUOUS
62
252
70
128
10
0.000000
20
0.000000
30
0.000000
71
57
72
95
73
56
0
VERTEX
8
0
6
CONTINUOUS
62
252
70
128
10
0.000000
20
0.000000
30
0.000000
71
56
72
95
73
96
0
VERTEX
8
0
6
CONTINUOUS
62
252
70
128
10
0.000000
20
0.000000
30
0.000000
71
56
72
96
73
97
0
VERTEX
8
0
6
CONTINUOUS
62
252
70
128
10
0.000000
20
0.000000
30
0.000000
71
90
72
2
73
89
0
VERTEX
8
0
6
CONTINUOUS
62
252
70
128
10
0.000000
20
0.000000
30
0.000000
71
89
72
2
73
3
0
VERTEX
8
0
6
CONTINUOUS
62
252
70
128
10
0.000000
20
0.000000
30
0.000000
71
89
72
3
73
88
0
VERTEX
8
0
6
CONTINUOUS
62
252
70
128
10
0.000000
20
0.000000
30
0.000000
71
88
72
3
73
4
0
VERTEX
8
0
6
CONTINUOUS
62
252
70
128
10
0.000000
20
0.000000
30
0.000000
71
88
72
4
73
87
0
VERTEX
8
0
6
CONTINUOUS
62
252
70
128
10
0.000000
20
0.000000
30
0.000000
71
87
72
4
73
5
0
VERTEX
8
0
6
CONTINUOUS
62
252
70
128
10
0.000000
20
0.000000
30
0.000000
71
87
72
5
73
86
0
VERTEX
8
0
6
CONTINUOUS
62
252
70
128
10
0.000000
20
0.000000
30
0.000000
71
86
72
5
73
6
0
VERTEX
8
0
6
CONTINUOUS
62
252
70
128
10
0.000000
20
0.000000
30
0.000000
71
86
72
6
73
85
0
VERTEX
8
0
6
CONTINUOUS
62
252
70
128
10
0.000000
20
0.000000
30
0.000000
71
85
72
6
73
7
0
VERTEX
8
0
6
CONTINUOUS
62
252
70
128
10
0.000000
20
0.000000
30
0.000000
71
85
72
7
73
84
0
VERTEX
8
0
6
CONTINUOUS
62
252
70
128
10
0.000000
20
0.000000
30
0.000000
71
84
72
7
73
8
0
VERTEX
8
0
6
CONTINUOUS
62
252
70
128
10
0.000000
20
0.000000
30
0.000000
71
84
72
8
73
83
0
VERTEX
8
0
6
CONTINUOUS
62
252
70
128
10
0.000000
20
0.000000
30
0.000000
71
83
72
8
73
9
0
VERTEX
8
0
6
CONTINUOUS
62
252
70
128
10
0.000000
20
0.000000
30
0.000000
71
83
72
9
73
82
0
VERTEX
8
0
6
CONTINUOUS
62
252
70
128
10
0.000000
20
0.000000
30
0.000000
71
82
72
9
73
10
0
VERTEX
8
0
6
CONTINUOUS
62
252
70
128
10
0.000000
20
0.000000
30
0.000000
71
82
72
10
73
81
0
VERTEX
8
0
6
CONTINUOUS
62
252
70
128
10
0.000000
20
0.000000
30
0.000000
71
81
72
10
73
11
0
VERTEX
8
0
6
CONTINUOUS
62
252
70
128
10
0.000000
20
0.000000
30
0.000000
71
81
72
11
73
80
0
VERTEX
8
0
6
CONTINUOUS
62
252
70
128
10
0.000000
20
0.000000
30
0.000000
71
80
72
11
73
12
0
VERTEX
8
0
6
CONTINUOUS
62
252
70
128
10
0.000000
20
0.000000
30
0.000000
71
80
72
12
73
79
0
VERTEX
8
0
6
CONTINUOUS
62
252
70
128
10
0.000000
20
0.000000
30
0.000000
71
79
72
12
73
13
0
VERTEX
8
0
6
CONTINUOUS
62
252
70
128
10
0.000000
20
0.000000
30
0.000000
71
79
72
13
73
78
0
VERTEX
8
0
6
CONTINUOUS
62
252
70
128
10
0.000000
20
0.000000
30
0.000000
71
78
72
13
73
14
0
VERTEX
8
0
6
CONTINUOUS
62
252
70
128
10
0.000000
20
0.000000
30
0.000000
71
78
72
14
73
77
0
VERTEX
8
0
6
CONTINUOUS
62
252
70
128
10
0.000000
20
0.000000
30
0.000000
71
77
72
14
73
15
0
VERTEX
8
0
6
CONTINUOUS
62
252
70
128
10
0.000000
20
0.000000
30
0.000000
71
77
72
15
73
76
0
VERTEX
8
0
6
CONTINUOUS
62
252
70
128
10
0.000000
20
0.000000
30
0.000000
71
76
72
15
73
16
0
VERTEX
8
0
6
CONTINUOUS
62
252
70
128
10
0.000000
20
0.000000
30
0.000000
71
76
72
16
73
75
0
VERTEX
8
0
6
CONTINUOUS
62
252
70
128
10
0.000000
20
0.000000
30
0.000000
71
75
72
16
73
17
0
VERTEX
8
0
6
CONTINUOUS
62
252
70
128
10
0.000000
20
0.000000
30
0.000000
71
75
72
17
73
74
0
VERTEX
8
0
6
CONTINUOUS
62
252
70
128
10
0.000000
20
0.000000
30
0.000000
71
74
72
17
73
18
0
VERTEX
8
0
6
CONTINUOUS
62
252
70
128
10
0.000000
20
0.000000
30
0.000000
71
74
72
18
73
73
0
VERTEX
8
0
6
CONTINUOUS
62
252
70
128
10
0.000000
20
0.000000
30
0.000000
71
73
72
18
73
19
0
VERTEX
8
0
6
CONTINUOUS
62
252
70
128
10
0.000000
20
0.000000
30
0.000000
71
73
72
19
73
72
0
VERTEX
8
0
6
CONTINUOUS
62
252
70
128
10
0.000000
20
0.000000
30
0.000000
71
72
72
19
73
20
0
VERTEX
8
0
6
CONTINUOUS
62
252
70
128
10
0.000000
20
0.000000
30
0.000000
71
72
72
20
73
71
0
VERTEX
8
0
6
CONTINUOUS
62
252
70
128
10
0.000000
20
0.000000
30
0.000000
71
71
72
20
73
21
0
VERTEX
8
0
6
CONTINUOUS
62
252
70
128
10
0.000000
20
0.000000
30
0.000000
71
71
72
21
73
70
0
VERTEX
8
0
6
CONTINUOUS
62
252
70
128
10
0.000000
20
0.000000
30
0.000000
71
70
72
21
73
22
0
VERTEX
8
0
6
CONTINUOUS
62
252
70
128
10
0.000000
20
0.000000
30
0.000000
71
70
72
22
73
69
0
VERTEX
8
0
6
CONTINUOUS
62
252
70
128
10
0.000000
20
0.000000
30
0.000000
71
69
72
22
73
23
0
VERTEX
8
0
6
CONTINUOUS
62
252
70
128
10
0.000000
20
0.000000
30
0.000000
71
69
72
23
73
68
0
VERTEX
8
0
6
CONTINUOUS
62
252
70
128
10
0.000000
20
0.000000
30
0.000000
71
68
72
23
73
24
0
VERTEX
8
0
6
CONTINUOUS
62
252
70
128
10
0.000000
20
0.000000
30
0.000000
71
68
72
24
73
67
0
VERTEX
8
0
6
CONTINUOUS
62
252
70
128
10
0.000000
20
0.000000
30
0.000000
71
67
72
24
73
25
0
VERTEX
8
0
6
CONTINUOUS
62
252
70
128
10
0.000000
20
0.000000
30
0.000000
71
67
72
25
73
66
0
VERTEX
8
0
6
CONTINUOUS
62
252
70
128
10
0.000000
20
0.000000
30
0.000000
71
66
72
25
73
26
0
VERTEX
8
0
6
CONTINUOUS
62
252
70
128
10
0.000000
20
0.000000
30
0.000000
71
66
72
26
73
65
0
VERTEX
8
0
6
CONTINUOUS
62
252
70
128
10
0.000000
20
0.000000
30
0.000000
71
65
72
26
73
27
0
VERTEX
8
0
6
CONTINUOUS
62
252
70
128
10
0.000000
20
0.000000
30
0.000000
71
65
72
27
73
64
0
VERTEX
8
0
6
CONTINUOUS
62
252
70
128
10
0.000000
20
0.000000
30
0.000000
71
64
72
27
73
28
0
VERTEX
8
0
6
CONTINUOUS
62
252
70
128
10
0.000000
20
0.000000
30
0.000000
71
64
72
28
73
63
0
VERTEX
8
0
6
CONTINUOUS
62
252
70
128
10
0.000000
20
0.000000
30
0.000000
71
63
72
28
73
29
0
VERTEX
8
0
6
CONTINUOUS
62
252
70
128
10
0.000000
20
0.000000
30
0.000000
71
63
72
29
73
62
0
VERTEX
8
0
6
CONTINUOUS
62
252
70
128
10
0.000000
20
0.000000
30
0.000000
71
62
72
29
73
30
0
VERTEX
8
0
6
CONTINUOUS
62
252
70
128
10
0.000000
20
0.000000
30
0.000000
71
62
72
30
73
61
0
VERTEX
8
0
6
CONTINUOUS
62
252
70
128
10
0.000000
20
0.000000
30
0.000000
71
61
72
30
73
31
0
VERTEX
8
0
6
CONTINUOUS
62
252
70
128
10
0.000000
20
0.000000
30
0.000000
71
61
72
31
73
32
0
VERTEX
8
0
6
CONTINUOUS
62
252
70
128
10
0.000000
20
0.000000
30
0.000000
71
33
72
119
73
32
0
VERTEX
8
0
6
CONTINUOUS
62
252
70
128
10
0.000000
20
0.000000
30
0.000000
71
32
72
119
73
120
0
VERTEX
8
0
6
CONTINUOUS
62
252
70
128
10
0.000000
20
0.000000
30
0.000000
71
32
72
120
73
61
0
VERTEX
8
0
6
CONTINUOUS
62
252
70
128
10
0.000000
20
0.000000
30
0.000000
71
33
72
34
73
119
0
VERTEX
8
0
6
CONTINUOUS
62
252
70
128
10
0.000000
20
0.000000
30
0.000000
71
119
72
34
73
118
0
VERTEX
8
0
6
CONTINUOUS
62
252
70
128
10
0.000000
20
0.000000
30
0.000000
71
118
72
34
73
35
0
VERTEX
8
0
6
CONTINUOUS
62
252
70
128
10
0.000000
20
0.000000
30
0.000000
71
118
72
35
73
117
0
VERTEX
8
0
6
CONTINUOUS
62
252
70
128
10
0.000000
20
0.000000
30
0.000000
71
117
72
35
73
36
0
VERTEX
8
0
6
CONTINUOUS
62
252
70
128
10
0.000000
20
0.000000
30
0.000000
71
117
72
36
73
116
0
VERTEX
8
0
6
CONTINUOUS
62
252
70
128
10
0.000000
20
0.000000
30
0.000000
71
116
72
36
73
37
0
VERTEX
8
0
6
CONTINUOUS
62
252
70
128
10
0.000000
20
0.000000
30
0.000000
71
116
72
37
73
115
0
VERTEX
8
0
6
CONTINUOUS
62
252
70
128
10
0.000000
20
0.000000
30
0.000000
71
115
72
37
73
114
0
VERTEX
8
0
6
CONTINUOUS
62
252
70
128
10
0.000000
20
0.000000
30
0.000000
71
114
72
37
73
38
0
VERTEX
8
0
6
CONTINUOUS
62
252
70
128
10
0.000000
20
0.000000
30
0.000000
71
114
72
38
73
113
0
VERTEX
8
0
6
CONTINUOUS
62
252
70
128
10
0.000000
20
0.000000
30
0.000000
71
113
72
38
73
39
0
VERTEX
8
0
6
CONTINUOUS
62
252
70
128
10
0.000000
20
0.000000
30
0.000000
71
113
72
39
73
112
0
VERTEX
8
0
6
CONTINUOUS
62
252
70
128
10
0.000000
20
0.000000
30
0.000000
71
112
72
39
73
40
0
VERTEX
8
0
6
CONTINUOUS
62
252
70
128
10
0.000000
20
0.000000
30
0.000000
71
112
72
40
73
111
0
VERTEX
8
0
6
CONTINUOUS
62
252
70
128
10
0.000000
20
0.000000
30
0.000000
71
111
72
40
73
41
0
VERTEX
8
0
6
CONTINUOUS
62
252
70
128
10
0.000000
20
0.000000
30
0.000000
71
111
72
41
73
110
0
VERTEX
8
0
6
CONTINUOUS
62
252
70
128
10
0.000000
20
0.000000
30
0.000000
71
110
72
41
73
42
0
VERTEX
8
0
6
CONTINUOUS
62
252
70
128
10
0.000000
20
0.000000
30
0.000000
71
110
72
42
73
43
0
VERTEX
8
0
6
CONTINUOUS
62
252
70
128
10
0.000000
20
0.000000
30
0.000000
71
110
72
43
73
109
0
VERTEX
8
0
6
CONTINUOUS
62
252
70
128
10
0.000000
20
0.000000
30
0.000000
71
109
72
43
73
44
0
VERTEX
8
0
6
CONTINUOUS
62
252
70
128
10
0.000000
20
0.000000
30
0.000000
71
109
72
44
73
108
0
VERTEX
8
0
6
CONTINUOUS
62
252
70
128
10
0.000000
20
0.000000
30
0.000000
71
108
72
44
73
45
0
VERTEX
8
0
6
CONTINUOUS
62
252
70
128
10
0.000000
20
0.000000
30
0.000000
71
108
72
45
73
107
0
VERTEX
8
0
6
CONTINUOUS
62
252
70
128
10
0.000000
20
0.000000
30
0.000000
71
107
72
45
73
46
0
VERTEX
8
0
6
CONTINUOUS
62
252
70
128
10
0.000000
20
0.000000
30
0.000000
71
107
72
46
73
106
0
VERTEX
8
0
6
CONTINUOUS
62
252
70
128
10
0.000000
20
0.000000
30
0.000000
71
106
72
46
73
47
0
VERTEX
8
0
6
CONTINUOUS
62
252
70
128
10
0.000000
20
0.000000
30
0.000000
71
106
72
47
73
105
0
VERTEX
8
0
6
CONTINUOUS
62
252
70
128
10
0.000000
20
0.000000
30
0.000000
71
105
72
47
73
48
0
VERTEX
8
0
6
CONTINUOUS
62
252
70
128
10
0.000000
20
0.000000
30
0.000000
71
105
72
48
73
104
0
VERTEX
8
0
6
CONTINUOUS
62
252
70
128
10
0.000000
20
0.000000
30
0.000000
71
104
72
48
73
49
0
VERTEX
8
0
6
CONTINUOUS
62
252
70
128
10
0.000000
20
0.000000
30
0.000000
71
104
72
49
73
103
0
VERTEX
8
0
6
CONTINUOUS
62
252
70
128
10
0.000000
20
0.000000
30
0.000000
71
103
72
49
73
50
0
VERTEX
8
0
6
CONTINUOUS
62
252
70
128
10
0.000000
20
0.000000
30
0.000000
71
103
72
50
73
102
0
VERTEX
8
0
6
CONTINUOUS
62
252
70
128
10
0.000000
20
0.000000
30
0.000000
71
102
72
50
73
51
0
VERTEX
8
0
6
CONTINUOUS
62
252
70
128
10
0.000000
20
0.000000
30
0.000000
71
102
72
51
73
101
0
VERTEX
8
0
6
CONTINUOUS
62
252
70
128
10
0.000000
20
0.000000
30
0.000000
71
101
72
51
73
100
0
VERTEX
8
0
6
CONTINUOUS
62
252
70
128
10
0.000000
20
0.000000
30
0.000000
71
100
72
51
73
52
0
VERTEX
8
0
6
CONTINUOUS
62
252
70
128
10
0.000000
20
0.000000
30
0.000000
71
100
72
52
73
53
0
VERTEX
8
0
6
CONTINUOUS
62
252
70
128
10
0.000000
20
0.000000
30
0.000000
71
54
72
98
73
53
0
VERTEX
8
0
6
CONTINUOUS
62
252
70
128
10
0.000000
20
0.000000
30
0.000000
71
53
72
98
73
99
0
VERTEX
8
0
6
CONTINUOUS
62
252
70
128
10
0.000000
20
0.000000
30
0.000000
71
53
72
99
73
100
0
VERTEX
8
0
6
CONTINUOUS
62
252
70
128
10
0.000000
20
0.000000
30
0.000000
71
54
72
55
73
98
0
VERTEX
8
0
6
CONTINUOUS
62
252
70
128
10
0.000000
20
0.000000
30
0.000000
71
98
72
55
73
97
0
VERTEX
8
0
6
CONTINUOUS
62
252
70
128
10
0.000000
20
0.000000
30
0.000000
71
97
72
55
73
56
0
SEQEND
0
POLYLINE
66
1
8
0
6
CONTINUOUS
62
252
70
64
75
0
10
0.000000
20
0.000000
30
0.000000
0
VERTEX
8
0
6
CONTINUOUS
62
252
70
192
10
0.594600
20
0.000000
30
-0.270000
0
VERTEX
8
0
6
CONTINUOUS
62
252
70
192
10
0.594600
20
-0.028223
30
-0.268521
0
VERTEX
8
0
6
CONTINUOUS
62
252
70
192
10
0.594600
20
-0.056136
30
-0.264100
0
VERTEX
8
0
6
CONTINUOUS
62
252
70
192
10
0.594600
20
-0.083435
30
-0.256785
0
VERTEX
8
0
6
CONTINUOUS
62
252
70
192
10
0.594600
20
-0.109819
30
-0.246657
0
VERTEX
8
0
6
CONTINUOUS
62
252
70
192
10
0.594600
20
-0.135000
30
-0.233827
0
VERTEX
8
0
6
CONTINUOUS
62
252
70
192
10
0.594600
20
-0.158702
30
-0.218435
0
VERTEX
8
0
6
CONTINUOUS
62
252
70
192
10
0.594600
20
-0.180665
30
-0.200649
0
VERTEX
8
0
6
CONTINUOUS
62
252
70
192
10
0.594600
20
-0.200649
30
-0.180665
0
VERTEX
8
0
6
CONTINUOUS
62
252
70
192
10
0.594600
20
-0.218435
30
-0.158702
0
VERTEX
8
0
6
CONTINUOUS
62
252
70
192
10
0.594600
20
-0.233827
30
-0.135000
0
VERTEX
8
0
6
CONTINUOUS
62
252
70
192
10
0.594600
20
-0.246657
30
-0.109819
0
VERTEX
8
0
6
CONTINUOUS
62
252
70
192
10
0.594600
20
-0.256785
30
-0.083435
0
VERTEX
8
0
6
CONTINUOUS
62
252
70
192
10
0.594600
20
-0.264100
30
-0.056136
0
VERTEX
8
0
6
CONTINUOUS
62
252
70
192
10
0.594600
20
-0.268521
30
-0.028223
0
VERTEX
8
0
6
CONTINUOUS
62
252
70
192
10
0.594600
20
-0.270000
30
0.000000
0
VERTEX
8
0
6
CONTINUOUS
62
252
70
192
10
0.594600
20
-0.268521
30
0.028223
0
VERTEX
8
0
6
CONTINUOUS
62
252
70
192
10
0.594600
20
-0.264100
30
0.056136
0
VERTEX
8
0
6
CONTINUOUS
62
252
70
192
10
0.594600
20
-0.256785
30
0.083435
0
VERTEX
8
0
6
CONTINUOUS
62
252
70
192
10
0.594600
20
-0.246657
30
0.109819
0
VERTEX
8
0
6
CONTINUOUS
62
252
70
192
10
0.594600
20
-0.233827
30
0.135000
0
VERTEX
8
0
6
CONTINUOUS
62
252
70
192
10
0.594600
20
-0.218435
30
0.158702
0
VERTEX
8
0
6
CONTINUOUS
62
252
70
192
10
0.594600
20
-0.200649
30
0.180665
0
VERTEX
8
0
6
CONTINUOUS
62
252
70
192
10
0.594600
20
-0.180665
30
0.200649
0
VERTEX
8
0
6
CONTINUOUS
62
252
70
192
10
0.594600
20
-0.158702
30
0.218435
0
VERTEX
8
0
6
CONTINUOUS
62
252
70
192
10
0.594600
20
-0.135000
30
0.233827
0
VERTEX
8
0
6
CONTINUOUS
62
252
70
192
10
0.594600
20
-0.109819
30
0.246657
0
VERTEX
8
0
6
CONTINUOUS
62
252
70
192
10
0.594600
20
-0.083435
30
0.256785
0
VERTEX
8
0
6
CONTINUOUS
62
252
70
192
10
0.594600
20
-0.056136
30
0.264100
0
VERTEX
8
0
6
CONTINUOUS
62
252
70
192
10
0.594600
20
-0.028223
30
0.268521
0
VERTEX
8
0
6
CONTINUOUS
62
252
70
192
10
0.594600
20
0.000000
30
0.270000
0
VERTEX
8
0
6
CONTINUOUS
62
252
70
192
10
0.594600
20
0.028223
30
0.268521
0
VERTEX
8
0
6
CONTINUOUS
62
252
70
192
10
0.594600
20
0.056136
30
0.264100
0
VERTEX
8
0
6
CONTINUOUS
62
252
70
192
10
0.594600
20
0.083435
30
0.256785
0
VERTEX
8
0
6
CONTINUOUS
62
252
70
192
10
0.594600
20
0.109819
30
0.246657
0
VERTEX
8
0
6
CONTINUOUS
62
252
70
192
10
0.594600
20
0.135000
30
0.233827
0
VERTEX
8
0
6
CONTINUOUS
62
252
70
192
10
0.594600
20
0.158702
30
0.218435
0
VERTEX
8
0
6
CONTINUOUS
62
252
70
192
10
0.594600
20
0.180665
30
0.200649
0
VERTEX
8
0
6
CONTINUOUS
62
252
70
192
10
0.594600
20
0.200649
30
0.180665
0
VERTEX
8
0
6
CONTINUOUS
62
252
70
192
10
0.594600
20
0.218435
30
0.158702
0
VERTEX
8
0
6
CONTINUOUS
62
252
70
192
10
0.594600
20
0.233827
30
0.135000
0
VERTEX
8
0
6
CONTINUOUS
62
252
70
192
10
0.594600
20
0.246657
30
0.109819
0
VERTEX
8
0
6
CONTINUOUS
62
252
70
192
10
0.594600
20
0.256785
30
0.083435
0
VERTEX
8
0
6
CONTINUOUS
62
252
70
192
10
0.594600
20
0.264100
30
0.056136
0
VERTEX
8
0
6
CONTINUOUS
62
252
70
192
10
0.594600
20
0.268521
30
0.028223
0
VERTEX
8
0
6
CONTINUOUS
62
252
70
192
10
0.594600
20
0.270000
30
-0.000000
0
VERTEX
8
0
6
CONTINUOUS
62
252
70
192
10
0.594600
20
0.268521
30
-0.028223
0
VERTEX
8
0
6
CONTINUOUS
62
252
70
192
10
0.594600
20
0.264100
30
-0.056136
0
VERTEX
8
0
6
CONTINUOUS
62
252
70
192
10
0.594600
20
0.256785
30
-0.083435
0
VERTEX
8
0
6
CONTINUOUS
62
252
70
192
10
0.594600
20
0.246657
30
-0.109819
0
VERTEX
8
0
6
CONTINUOUS
62
252
70
192
10
0.594600
20
0.233827
30
-0.135000
0
VERTEX
8
0
6
CONTINUOUS
62
252
70
192
10
0.594600
20
0.218435
30
-0.158702
0
VERTEX
8
0
6
CONTINUOUS
62
252
70
192
10
0.594600
20
0.200649
30
-0.180665
0
VERTEX
8
0
6
CONTINUOUS
62
252
70
192
10
0.594600
20
0.180665
30
-0.200649
0
VERTEX
8
0
6
CONTINUOUS
62
252
70
192
10
0.594600
20
0.158702
30
-0.218435
0
VERTEX
8
0
6
CONTINUOUS
62
252
70
192
10
0.594600
20
0.135000
30
-0.233827
0
VERTEX
8
0
6
CONTINUOUS
62
252
70
192
10
0.594600
20
0.109819
30
-0.246657
0
VERTEX
8
0
6
CONTINUOUS
62
252
70
192
10
0.594600
20
0.083435
30
-0.256785
0
VERTEX
8
0
6
CONTINUOUS
62
252
70
192
10
0.594600
20
0.056136
30
-0.264100
0
VERTEX
8
0
6
CONTINUOUS
62
252
70
192
10
0.594600
20
0.028223
30
-0.268521
0
VERTEX
8
0
6
CONTINUOUS
62
252
70
192
10
0.401800
20
0.000000
30
-0.270000
0
VERTEX
8
0
6
CONTINUOUS
62
252
70
192
10
0.401800
20
0.028223
30
-0.268521
0
VERTEX
8
0
6
CONTINUOUS
62
252
70
192
10
0.401800
20
0.056136
30
-0.264100
0
VERTEX
8
0
6
CONTINUOUS
62
252
70
192
10
0.401800
20
0.083435
30
-0.256785
0
VERTEX
8
0
6
CONTINUOUS
62
252
70
192
10
0.401800
20
0.109819
30
-0.246657
0
VERTEX
8
0
6
CONTINUOUS
62
252
70
192
10
0.401800
20
0.135000
30
-0.233827
0
VERTEX
8
0
6
CONTINUOUS
62
252
70
192
10
0.401800
20
0.158702
30
-0.218435
0
VERTEX
8
0
6
CONTINUOUS
62
252
70
192
10
0.401800
20
0.180665
30
-0.200649
0
VERTEX
8
0
6
CONTINUOUS
62
252
70
192
10
0.401800
20
0.200649
30
-0.180665
0
VERTEX
8
0
6
CONTINUOUS
62
252
70
192
10
0.401800
20
0.218435
30
-0.158702
0
VERTEX
8
0
6
CONTINUOUS
62
252
70
192
10
0.401800
20
0.233827
30
-0.135000
0
VERTEX
8
0
6
CONTINUOUS
62
252
70
192
10
0.401800
20
0.246657
30
-0.109819
0
VERTEX
8
0
6
CONTINUOUS
62
252
70
192
10
0.401800
20
0.256785
30
-0.083435
0
VERTEX
8
0
6
CONTINUOUS
62
252
70
192
10
0.401800
20
0.264100
30
-0.056136
0
VERTEX
8
0
6
CONTINUOUS
62
252
70
192
10
0.401800
20
0.268521
30
-0.028223
0
VERTEX
8
0
6
CONTINUOUS
62
252
70
192
10
0.401800
20
0.270000
30
-0.000000
0
VERTEX
8
0
6
CONTINUOUS
62
252
70
192
10
0.401800
20
0.268521
30
0.028223
0
VERTEX
8
0
6
CONTINUOUS
62
252
70
192
10
0.401800
20
0.264100
30
0.056136
0
VERTEX
8
0
6
CONTINUOUS
62
252
70
192
10
0.401800
20
0.256785
30
0.083435
0
VERTEX
8
0
6
CONTINUOUS
62
252
70
192
10
0.401800
20
0.246657
30
0.109819
0
VERTEX
8
0
6
CONTINUOUS
62
252
70
192
10
0.401800
20
0.233827
30
0.135000
0
VERTEX
8
0
6
CONTINUOUS
62
252
70
192
10
0.401800
20
0.218435
30
0.158702
0
VERTEX
8
0
6
CONTINUOUS
62
252
70
192
10
0.401800
20
0.200649
30
0.180665
0
VERTEX
8
0
6
CONTINUOUS
62
252
70
192
10
0.401800
20
0.180665
30
0.200649
0
VERTEX
8
0
6
CONTINUOUS
62
252
70
192
10
0.401800
20
0.158702
30
0.218435
0
VERTEX
8
0
6
CONTINUOUS
62
252
70
192
10
0.401800
20
0.135000
30
0.233827
0
VERTEX
8
0
6
CONTINUOUS
62
252
70
192
10
0.401800
20
0.109819
30
0.246657
0
VERTEX
8
0
6
CONTINUOUS
62
252
70
192
10
0.401800
20
0.083435
30
0.256785
0
VERTEX
8
0
6
CONTINUOUS
62
252
70
192
10
0.401800
20
0.056136
30
0.264100
0
VERTEX
8
0
6
CONTINUOUS
62
252
70
192
10
0.401800
20
0.028223
30
0.268521
0
VERTEX
8
0
6
CONTINUOUS
62
252
70
192
10
0.401800
20
0.000000
30
0.270000
0
VERTEX
8
0
6
CONTINUOUS
62
252
70
192
10
0.401800
20
-0.028223
30
0.268521
0
VERTEX
8
0
6
CONTINUOUS
62
252
70
192
10
0.401800
20
-0.056136
30
0.264100
0
VERTEX
8
0
6
CONTINUOUS
62
252
70
192
10
0.401800
20
-0.083435
30
0.256785
0
VERTEX
8
0
6
CONTINUOUS
62
252
70
192
10
0.401800
20
-0.109819
30
0.246657
0
VERTEX
8
0
6
CONTINUOUS
62
252
70
192
10
0.401800
20
-0.135000
30
0.233827
0
VERTEX
8
0
6
CONTINUOUS
62
252
70
192
10
0.401800
20
-0.158702
30
0.218435
0
VERTEX
8
0
6
CONTINUOUS
62
252
70
192
10
0.401800
20
-0.180665
30
0.200649
0
VERTEX
8
0
6
CONTINUOUS
62
252
70
192
10
0.401800
20
-0.200649
30
0.180665
0
VERTEX
8
0
6
CONTINUOUS
62
252
70
192
10
0.401800
20
-0.218435
30
0.158702
0
VERTEX
8
0
6
CONTINUOUS
62
252
70
192
10
0.401800
20
-0.233827
30
0.135000
0
VERTEX
8
0
6
CONTINUOUS
62
252
70
192
10
0.401800
20
-0.246657
30
0.109819
0
VERTEX
8
0
6
CONTINUOUS
62
252
70
192
10
0.401800
20
-0.256785
30
0.083435
0
VERTEX
8
0
6
CONTINUOUS
62
252
70
192
10
0.401800
20
-0.264100
30
0.056136
0
VERTEX
8
0
6
CONTINUOUS
62
252
70
192
10
0.401800
20
-0.268521
30
0.028223
0
VERTEX
8
0
6
CONTINUOUS
62
252
70
192
10
0.401800
20
-0.270000
30
0.000000
0
VERTEX
8
0
6
CONTINUOUS
62
252
70
192
10
0.401800
20
-0.268521
30
-0.028223
0
VERTEX
8
0
6
CONTINUOUS
62
252
70
192
10
0.401800
20
-0.264100
30
-0.056136
0
VERTEX
8
0
6
CONTINUOUS
62
252
70
192
10
0.401800
20
-0.256785
30
-0.083435
0
VERTEX
8
0
6
CONTINUOUS
62
252
70
192
10
0.401800
20
-0.246657
30
-0.109819
0
VERTEX
8
0
6
CONTINUOUS
62
252
70
192
10
0.401800
20
-0.233827
30
-0.135000
0
VERTEX
8
0
6
CONTINUOUS
62
252
70
192
10
0.401800
20
-0.218435
30
-0.158702
0
VERTEX
8
0
6
CONTINUOUS
62
252
70
192
10
0.401800
20
-0.200649
30
-0.180665
0
VERTEX
8
0
6
CONTINUOUS
62
252
70
192
10
0.401800
20
-0.180665
30
-0.200649
0
VERTEX
8
0
6
CONTINUOUS
62
252
70
192
10
0.401800
20
-0.158702
30
-0.218435
0
VERTEX
8
0
6
CONTINUOUS
62
252
70
192
10
0.401800
20
-0.135000
30
-0.233827
0
VERTEX
8
0
6
CONTINUOUS
62
252
70
192
10
0.401800
20
-0.109819
30
-0.246657
0
VERTEX
8
0
6
CONTINUOUS
62
252
70
192
10
0.401800
20
-0.083435
30
-0.256785
0
VERTEX
8
0
6
CONTINUOUS
62
252
70
192
10
0.401800
20
-0.056136
30
-0.264100
0
VERTEX
8
0
6
CONTINUOUS
62
252
70
192
10
0.401800
20
-0.028223
30
-0.268521
0
VERTEX
8
0
6
CONTINUOUS
62
252
70
128
10
0.000000
20
0.000000
30
0.000000
71
2
72
120
73
1
0
VERTEX
8
0
6
CONTINUOUS
62
252
70
128
10
0.000000
20
0.000000
30
0.000000
71
1
72
120
73
61
0
VERTEX
8
0
6
CONTINUOUS
62
252
70
128
10
0.000000
20
0.000000
30
0.000000
71
1
72
61
73
60
0
VERTEX
8
0
6
CONTINUOUS
62
252
70
128
10
0.000000
20
0.000000
30
0.000000
71
60
72
61
73
62
0
VERTEX
8
0
6
CONTINUOUS
62
252
70
128
10
0.000000
20
0.000000
30
0.000000
71
60
72
62
73
59
0
VERTEX
8
0
6
CONTINUOUS
62
252
70
128
10
0.000000
20
0.000000
30
0.000000
71
59
72
62
73
63
0
VERTEX
8
0
6
CONTINUOUS
62
252
70
128
10
0.000000
20
0.000000
30
0.000000
71
59
72
63
73
64
0
VERTEX
8
0
6
CONTINUOUS
62
252
70
128
10
0.000000
20
0.000000
30
0.000000
71
2
72
3
73
120
0
VERTEX
8
0
6
CONTINUOUS
62
252
70
128
10
0.000000
20
0.000000
30
0.000000
71
120
72
3
73
119
0
VERTEX
8
0
6
CONTINUOUS
62
252
70
128
10
0.000000
20
0.000000
30
0.000000
71
119
72
3
73
4
0
VERTEX
8
0
6
CONTINUOUS
62
252
70
128
10
0.000000
20
0.000000
30
0.000000
71
119
72
4
73
118
0
VERTEX
8
0
6
CONTINUOUS
62
252
70
128
10
0.000000
20
0.000000
30
0.000000
71
118
72
4
73
117
0
VERTEX
8
0
6
CONTINUOUS
62
252
70
128
10
0.000000
20
0.000000
30
0.000000
71
117
72
4
73
5
0
VERTEX
8
0
6
CONTINUOUS
62
252
70
128
10
0.000000
20
0.000000
30
0.000000
71
117
72
5
73
116
0
VERTEX
8
0
6
CONTINUOUS
62
252
70
128
10
0.000000
20
0.000000
30
0.000000
71
116
72
5
73
6
0
VERTEX
8
0
6
CONTINUOUS
62
252
70
128
10
0.000000
20
0.000000
30
0.000000
71
116
72
6
73
115
0
VERTEX
8
0
6
CONTINUOUS
62
252
70
128
10
0.000000
20
0.000000
30
0.000000
71
115
72
6
73
7
0
VERTEX
8
0
6
CONTINUOUS
62
252
70
128
10
0.000000
20
0.000000
30
0.000000
71
115
72
7
73
114
0
VERTEX
8
0
6
CONTINUOUS
62
252
70
128
10
0.000000
20
0.000000
30
0.000000
71
114
72
7
73
8
0
VERTEX
8
0
6
CONTINUOUS
62
252
70
128
10
0.000000
20
0.000000
30
0.000000
71
114
72
8
73
113
0
VERTEX
8
0
6
CONTINUOUS
62
252
70
128
10
0.000000
20
0.000000
30
0.000000
71
113
72
8
73
9
0
VERTEX
8
0
6
CONTINUOUS
62
252
70
128
10
0.000000
20
0.000000
30
0.000000
71
113
72
9
73
112
0
VERTEX
8
0
6
CONTINUOUS
62
252
70
128
10
0.000000
20
0.000000
30
0.000000
71
112
72
9
73
10
0
VERTEX
8
0
6
CONTINUOUS
62
252
70
128
10
0.000000
20
0.000000
30
0.000000
71
112
72
10
73
111
0
VERTEX
8
0
6
CONTINUOUS
62
252
70
128
10
0.000000
20
0.000000
30
0.000000
71
111
72
10
73
11
0
VERTEX
8
0
6
CONTINUOUS
62
252
70
128
10
0.000000
20
0.000000
30
0.000000
71
111
72
11
73
110
0
VERTEX
8
0
6
CONTINUOUS
62
252
70
128
10
0.000000
20
0.000000
30
0.000000
71
110
72
11
73
12
0
VERTEX
8
0
6
CONTINUOUS
62
252
70
128
10
0.000000
20
0.000000
30
0.000000
71
110
72
12
73
109
0
VERTEX
8
0
6
CONTINUOUS
62
252
70
128
10
0.000000
20
0.000000
30
0.000000
71
109
72
12
73
13
0
VERTEX
8
0
6
CONTINUOUS
62
252
70
128
10
0.000000
20
0.000000
30
0.000000
71
109
72
13
73
108
0
VERTEX
8
0
6
CONTINUOUS
62
252
70
128
10
0.000000
20
0.000000
30
0.000000
71
108
72
13
73
14
0
VERTEX
8
0
6
CONTINUOUS
62
252
70
128
10
0.000000
20
0.000000
30
0.000000
71
108
72
14
73
15
0
VERTEX
8
0
6
CONTINUOUS
62
252
70
128
10
0.000000
20
0.000000
30
0.000000
71
16
72
106
73
15
0
VERTEX
8
0
6
CONTINUOUS
62
252
70
128
10
0.000000
20
0.000000
30
0.000000
71
15
72
106
73
107
0
VERTEX
8
0
6
CONTINUOUS
62
252
70
128
10
0.000000
20
0.000000
30
0.000000
71
15
72
107
73
108
0
VERTEX
8
0
6
CONTINUOUS
62
252
70
128
10
0.000000
20
0.000000
30
0.000000
71
106
72
16
73
105
0
VERTEX
8
0
6
CONTINUOUS
62
252
70
128
10
0.000000
20
0.000000
30
0.000000
71
105
72
16
73
17
0
VERTEX
8
0
6
CONTINUOUS
62
252
70
128
10
0.000000
20
0.000000
30
0.000000
71
105
72
17
73
104
0
VERTEX
8
0
6
CONTINUOUS
62
252
70
128
10
0.000000
20
0.000000
30
0.000000
71
104
72
17
73
18
0
VERTEX
8
0
6
CONTINUOUS
62
252
70
128
10
0.000000
20
0.000000
30
0.000000
71
104
72
18
73
19
0
VERTEX
8
0
6
CONTINUOUS
62
252
70
128
10
0.000000
20
0.000000
30
0.000000
71
20
72
102
73
19
0
VERTEX
8
0
6
CONTINUOUS
62
252
70
128
10
0.000000
20
0.000000
30
0.000000
71
19
72
102
73
103
0
VERTEX
8
0
6
CONTINUOUS
62
252
70
128
10
0.000000
20
0.000000
30
0.000000
71
19
72
103
73
104
0
VERTEX
8
0
6
CONTINUOUS
62
252
70
128
10
0.000000
20
0.000000
30
0.000000
71
102
72
20
73
101
0
VERTEX
8
0
6
CONTINUOUS
62
252
70
128
10
0.000000
20
0.000000
30
0.000000
71
101
72
20
73
21
0
VERTEX
8
0
6
CONTINUOUS
62
252
70
128
10
0.000000
20
0.000000
30
0.000000
71
101
72
21
73
100
0
VERTEX
8
0
6
CONTINUOUS
62
252
70
128
10
0.000000
20
0.000000
30
0.000000
71
100
72
21
73
22
0
VERTEX
8
0
6
CONTINUOUS
62
252
70
128
10
0.000000
20
0.000000
30
0.000000
71
100
72
22
73
99
0
VERTEX
8
0
6
CONTINUOUS
62
252
70
128
10
0.000000
20
0.000000
30
0.000000
71
99
72
22
73
23
0
VERTEX
8
0
6
CONTINUOUS
62
252
70
128
10
0.000000
20
0.000000
30
0.000000
71
99
72
23
73
98
0
VERTEX
8
0
6
CONTINUOUS
62
252
70
128
10
0.000000
20
0.000000
30
0.000000
71
98
72
23
73
24
0
VERTEX
8
0
6
CONTINUOUS
62
252
70
128
10
0.000000
20
0.000000
30
0.000000
71
98
72
24
73
97
0
VERTEX
8
0
6
CONTINUOUS
62
252
70
128
10
0.000000
20
0.000000
30
0.000000
71
97
72
24
73
25
0
VERTEX
8
0
6
CONTINUOUS
62
252
70
128
10
0.000000
20
0.000000
30
0.000000
71
97
72
25
73
96
0
VERTEX
8
0
6
CONTINUOUS
62
252
70
128
10
0.000000
20
0.000000
30
0.000000
71
96
72
25
73
26
0
VERTEX
8
0
6
CONTINUOUS
62
252
70
128
10
0.000000
20
0.000000
30
0.000000
71
96
72
26
73
95
0
VERTEX
8
0
6
CONTINUOUS
62
252
70
128
10
0.000000
20
0.000000
30
0.000000
71
95
72
26
73
27
0
VERTEX
8
0
6
CONTINUOUS
62
252
70
128
10
0.000000
20
0.000000
30
0.000000
71
95
72
27
73
94
0
VERTEX
8
0
6
CONTINUOUS
62
252
70
128
10
0.000000
20
0.000000
30
0.000000
71
94
72
27
73
28
0
VERTEX
8
0
6
CONTINUOUS
62
252
70
128
10
0.000000
20
0.000000
30
0.000000
71
94
72
28
73
93
0
VERTEX
8
0
6
CONTINUOUS
62
252
70
128
10
0.000000
20
0.000000
30
0.000000
71
93
72
28
73
29
0
VERTEX
8
0
6
CONTINUOUS
62
252
70
128
10
0.000000
20
0.000000
30
0.000000
71
93
72
29
73
92
0
VERTEX
8
0
6
CONTINUOUS
62
252
70
128
10
0.000000
20
0.000000
30
0.000000
71
92
72
29
73
30
0
VERTEX
8
0
6
CONTINUOUS
62
252
70
128
10
0.000000
20
0.000000
30
0.000000
71
92
72
30
73
91
0
VERTEX
8
0
6
CONTINUOUS
62
252
70
128
10
0.000000
20
0.000000
30
0.000000
71
91
72
30
73
31
0
VERTEX
8
0
6
CONTINUOUS
62
252
70
128
10
0.000000
20
0.000000
30
0.000000
71
91
72
31
73
90
0
VERTEX
8
0
6
CONTINUOUS
62
252
70
128
10
0.000000
20
0.000000
30
0.000000
71
90
72
31
73
32
0
VERTEX
8
0
6
CONTINUOUS
62
252
70
128
10
0.000000
20
0.000000
30
0.000000
71
90
72
32
73
89
0
VERTEX
8
0
6
CONTINUOUS
62
252
70
128
10
0.000000
20
0.000000
30
0.000000
71
89
72
32
73
33
0
VERTEX
8
0
6
CONTINUOUS
62
252
70
128
10
0.000000
20
0.000000
30
0.000000
71
89
72
33
73
88
0
VERTEX
8
0
6
CONTINUOUS
62
252
70
128
10
0.000000
20
0.000000
30
0.000000
71
88
72
33
73
34
0
VERTEX
8
0
6
CONTINUOUS
62
252
70
128
10
0.000000
20
0.000000
30
0.000000
71
88
72
34
73
87
0
VERTEX
8
0
6
CONTINUOUS
62
252
70
128
10
0.000000
20
0.000000
30
0.000000
71
87
72
34
73
35
0
VERTEX
8
0
6
CONTINUOUS
62
252
70
128
10
0.000000
20
0.000000
30
0.000000
71
87
72
35
73
86
0
VERTEX
8
0
6
CONTINUOUS
62
252
70
128
10
0.000000
20
0.000000
30
0.000000
71
86
72
35
73
36
0
VERTEX
8
0
6
CONTINUOUS
62
252
70
128
10
0.000000
20
0.000000
30
0.000000
71
86
72
36
73
85
0
VERTEX
8
0
6
CONTINUOUS
62
252
70
128
10
0.000000
20
0.000000
30
0.000000
71
85
72
36
73
37
0
VERTEX
8
0
6
CONTINUOUS
62
252
70
128
10
0.000000
20
0.000000
30
0.000000
71
85
72
37
73
84
0
VERTEX
8
0
6
CONTINUOUS
62
252
70
128
10
0.000000
20
0.000000
30
0.000000
71
84
72
37
73
38
0
VERTEX
8
0
6
CONTINUOUS
62
252
70
128
10
0.000000
20
0.000000
30
0.000000
71
84
72
38
73
83
0
VERTEX
8
0
6
CONTINUOUS
62
252
70
128
10
0.000000
20
0.000000
30
0.000000
71
83
72
38
73
39
0
VERTEX
8
0
6
CONTINUOUS
62
252
70
128
10
0.000000
20
0.000000
30
0.000000
71
83
72
39
73
82
0
VERTEX
8
0
6
CONTINUOUS
62
252
70
128
10
0.000000
20
0.000000
30
0.000000
71
82
72
39
73
40
0
VERTEX
8
0
6
CONTINUOUS
62
252
70
128
10
0.000000
20
0.000000
30
0.000000
71
82
72
40
73
81
0
VERTEX
8
0
6
CONTINUOUS
62
252
70
128
10
0.000000
20
0.000000
30
0.000000
71
81
72
40
73
41
0
VERTEX
8
0
6
CONTINUOUS
62
252
70
128
10
0.000000
20
0.000000
30
0.000000
71
81
72
41
73
80
0
VERTEX
8
0
6
CONTINUOUS
62
252
70
128
10
0.000000
20
0.000000
30
0.000000
71
80
72
41
73
42
0
VERTEX
8
0
6
CONTINUOUS
62
252
70
128
10
0.000000
20
0.000000
30
0.000000
71
80
72
42
73
79
0
VERTEX
8
0
6
CONTINUOUS
62
252
70
128
10
0.000000
20
0.000000
30
0.000000
71
79
72
42
73
43
0
VERTEX
8
0
6
CONTINUOUS
62
252
70
128
10
0.000000
20
0.000000
30
0.000000
71
79
72
43
73
78
0
VERTEX
8
0
6
CONTINUOUS
62
252
70
128
10
0.000000
20
0.000000
30
0.000000
71
78
72
43
73
44
0
VERTEX
8
0
6
CONTINUOUS
62
252
70
128
10
0.000000
20
0.000000
30
0.000000
71
78
72
44
73
77
0
VERTEX
8
0
6
CONTINUOUS
62
252
70
128
10
0.000000
20
0.000000
30
0.000000
71
77
72
44
73
45
0
VERTEX
8
0
6
CONTINUOUS
62
252
70
128
10
0.000000
20
0.000000
30
0.000000
71
77
72
45
73
76
0
VERTEX
8
0
6
CONTINUOUS
62
252
70
128
10
0.000000
20
0.000000
30
0.000000
71
76
72
45
73
46
0
VERTEX
8
0
6
CONTINUOUS
62
252
70
128
10
0.000000
20
0.000000
30
0.000000
71
76
72
46
73
47
0
VERTEX
8
0
6
CONTINUOUS
62
252
70
128
10
0.000000
20
0.000000
30
0.000000
71
76
72
47
73
75
0
VERTEX
8
0
6
CONTINUOUS
62
252
70
128
10
0.000000
20
0.000000
30
0.000000
71
75
72
47
73
48
0
VERTEX
8
0
6
CONTINUOUS
62
252
70
128
10
0.000000
20
0.000000
30
0.000000
71
75
72
48
73
74
0
VERTEX
8
0
6
CONTINUOUS
62
252
70
128
10
0.000000
20
0.000000
30
0.000000
71
74
72
48
73
49
0
VERTEX
8
0
6
CONTINUOUS
62
252
70
128
10
0.000000
20
0.000000
30
0.000000
71
74
72
49
73
73
0
VERTEX
8
0
6
CONTINUOUS
62
252
70
128
10
0.000000
20
0.000000
30
0.000000
71
73
72
49
73
72
0
VERTEX
8
0
6
CONTINUOUS
62
252
70
128
10
0.000000
20
0.000000
30
0.000000
71
72
72
49
73
50
0
VERTEX
8
0
6
CONTINUOUS
62
252
70
128
10
0.000000
20
0.000000
30
0.000000
71
72
72
50
73
71
0
VERTEX
8
0
6
CONTINUOUS
62
252
70
128
10
0.000000
20
0.000000
30
0.000000
71
71
72
50
73
51
0
VERTEX
8
0
6
CONTINUOUS
62
252
70
128
10
0.000000
20
0.000000
30
0.000000
71
71
72
51
73
70
0
VERTEX
8
0
6
CONTINUOUS
62
252
70
128
10
0.000000
20
0.000000
30
0.000000
71
70
72
51
73
52
0
VERTEX
8
0
6
CONTINUOUS
62
252
70
128
10
0.000000
20
0.000000
30
0.000000
71
70
72
52
73
69
0
VERTEX
8
0
6
CONTINUOUS
62
252
70
128
10
0.000000
20
0.000000
30
0.000000
71
69
72
52
73
53
0
VERTEX
8
0
6
CONTINUOUS
62
252
70
128
10
0.000000
20
0.000000
30
0.000000
71
69
72
53
73
68
0
VERTEX
8
0
6
CONTINUOUS
62
252
70
128
10
0.000000
20
0.000000
30
0.000000
71
68
72
53
73
54
0
VERTEX
8
0
6
CONTINUOUS
62
252
70
128
10
0.000000
20
0.000000
30
0.000000
71
68
72
54
73
67
0
VERTEX
8
0
6
CONTINUOUS
62
252
70
128
10
0.000000
20
0.000000
30
0.000000
71
67
72
54
73
55
0
VERTEX
8
0
6
CONTINUOUS
62
252
70
128
10
0.000000
20
0.000000
30
0.000000
71
67
72
55
73
66
0
VERTEX
8
0
6
CONTINUOUS
62
252
70
128
10
0.000000
20
0.000000
30
0.000000
71
66
72
55
73
56
0
VERTEX
8
0
6
CONTINUOUS
62
252
70
128
10
0.000000
20
0.000000
30
0.000000
71
66
72
56
73
65
0
VERTEX
8
0
6
CONTINUOUS
62
252
70
128
10
0.000000
20
0.000000
30
0.000000
71
65
72
56
73
57
0
VERTEX
8
0
6
CONTINUOUS
62
252
70
128
10
0.000000
20
0.000000
30
0.000000
71
65
72
57
73
64
0
VERTEX
8
0
6
CONTINUOUS
62
252
70
128
10
0.000000
20
0.000000
30
0.000000
71
64
72
57
73
58
0
VERTEX
8
0
6
CONTINUOUS
62
252
70
128
10
0.000000
20
0.000000
30
0.000000
71
64
72
58
73
59
0
SEQEND
0
POLYLINE
66
1
8
0
6
CONTINUOUS
62
252
70
64
75
0
10
0.000000
20
0.000000
30
0.000000
0
VERTEX
8
0
6
CONTINUOUS
62
252
70
192
10
0.000000
20
0.000000
30
-0.095000
0
VERTEX
8
0
6
CONTINUOUS
62
252
70
192
10
-0.000000
20
0.009930
30
-0.094480
0
VERTEX
8
0
6
CONTINUOUS
62
252
70
192
10
-0.000000
20
0.019752
30
-0.092924
0
VERTEX
8
0
6
CONTINUOUS
62
252
70
192
10
-0.000000
20
0.029357
30
-0.090350
0
VERTEX
8
0
6
CONTINUOUS
62
252
70
192
10
-0.000000
20
0.038640
30
-0.086787
0
VERTEX
8
0
6
CONTINUOUS
62
252
70
192
10
-0.000000
20
0.047500
30
-0.082272
0
VERTEX
8
0
6
CONTINUOUS
62
252
70
192
10
-0.000000
20
0.055840
30
-0.076857
0
VERTEX
8
0
6
CONTINUOUS
62
252
70
192
10
-0.000000
20
0.063567
30
-0.070599
0
VERTEX
8
0
6
CONTINUOUS
62
252
70
192
10
0.000000
20
0.070599
30
-0.063567
0
VERTEX
8
0
6
CONTINUOUS
62
252
70
192
10
0.000000
20
0.076857
30
-0.055840
0
VERTEX
8
0
6
CONTINUOUS
62
252
70
192
10
0.000000
20
0.082272
30
-0.047500
0
VERTEX
8
0
6
CONTINUOUS
62
252
70
192
10
0.000000
20
0.086787
30
-0.038640
0
VERTEX
8
0
6
CONTINUOUS
62
252
70
192
10
0.000000
20
0.090350
30
-0.029357
0
VERTEX
8
0
6
CONTINUOUS
62
252
70
192
10
0.000000
20
0.092924
30
-0.019752
0
VERTEX
8
0
6
CONTINUOUS
62
252
70
192
10
0.000000
20
0.094480
30
-0.009930
0
VERTEX
8
0
6
CONTINUOUS
62
252
70
192
10
0.000000
20
0.095000
30
0.000000
0
VERTEX
8
0
6
CONTINUOUS
62
252
70
192
10
0.000000
20
0.094480
30
0.009930
0
VERTEX
8
0
6
CONTINUOUS
62
252
70
192
10
0.000000
20
0.092924
30
0.019752
0
VERTEX
8
0
6
CONTINUOUS
62
252
70
192
10
0.000000
20
0.090350
30
0.029357
0
VERTEX
8
0
6
CONTINUOUS
62
252
70
192
10
0.000000
20
0.086787
30
0.038640
0
VERTEX
8
0
6
CONTINUOUS
62
252
70
192
10
0.000000
20
0.082272
30
0.047500
0
VERTEX
8
0
6
CONTINUOUS
62
252
70
192
10
0.000000
20
0.076857
30
0.055840
0
VERTEX
8
0
6
CONTINUOUS
62
252
70
192
10
0.000000
20
0.070599
30
0.063567
0
VERTEX
8
0
6
CONTINUOUS
62
252
70
192
10
0.000000
20
0.063567
30
0.070599
0
VERTEX
8
0
6
CONTINUOUS
62
252
70
192
10
0.000000
20
0.055840
30
0.076857
0
VERTEX
8
0
6
CONTINUOUS
62
252
70
192
10
0.000000
20
0.047500
30
0.082272
0
VERTEX
8
0
6
CONTINUOUS
62
252
70
192
10
0.000000
20
0.038640
30
0.086787
0
VERTEX
8
0
6
CONTINUOUS
62
252
70
192
10
0.000000
20
0.029357
30
0.090350
0
VERTEX
8
0
6
CONTINUOUS
62
252
70
192
10
0.000000
20
0.019752
30
0.092924
0
VERTEX
8
0
6
CONTINUOUS
62
252
70
192
10
0.000000
20
0.009930
30
0.094480
0
VERTEX
8
0
6
CONTINUOUS
62
252
70
192
10
0.000000
20
0.000000
30
0.095000
0
VERTEX
8
0
6
CONTINUOUS
62
252
70
192
10
0.000000
20
-0.009930
30
0.094480
0
VERTEX
8
0
6
CONTINUOUS
62
252
70
192
10
0.000000
20
-0.019752
30
0.092924
0
VERTEX
8
0
6
CONTINUOUS
62
252
70
192
10
0.000000
20
-0.029357
30
0.090350
0
VERTEX
8
0
6
CONTINUOUS
62
252
70
192
10
0.000000
20
-0.038640
30
0.086787
0
VERTEX
8
0
6
CONTINUOUS
62
252
70
192
10
0.000000
20
-0.047500
30
0.082272
0
VERTEX
8
0
6
CONTINUOUS
62
252
70
192
10
0.000000
20
-0.055840
30
0.076857
0
VERTEX
8
0
6
CONTINUOUS
62
252
70
192
10
0.000000
20
-0.063567
30
0.070599
0
VERTEX
8
0
6
CONTINUOUS
62
252
70
192
10
-0.000000
20
-0.070599
30
0.063567
0
VERTEX
8
0
6
CONTINUOUS
62
252
70
192
10
-0.000000
20
-0.076857
30
0.055840
0
VERTEX
8
0
6
CONTINUOUS
62
252
70
192
10
-0.000000
20
-0.082272
30
0.047500
0
VERTEX
8
0
6
CONTINUOUS
62
252
70
192
10
-0.000000
20
-0.086787
30
0.038640
0
VERTEX
8
0
6
CONTINUOUS
62
252
70
192
10
-0.000000
20
-0.090350
30
0.029357
0
VERTEX
8
0
6
CONTINUOUS
62
252
70
192
10
-0.000000
20
-0.092924
30
0.019752
0
VERTEX
8
0
6
CONTINUOUS
62
252
70
192
10
-0.000000
20
-0.094480
30
0.009930
0
VERTEX
8
0
6
CONTINUOUS
62
252
70
192
10
-0.000000
20
-0.095000
30
0.000000
0
VERTEX
8
0
6
CONTINUOUS
62
252
70
192
10
-0.000000
20
-0.094480
30
-0.009930
0
VERTEX
8
0
6
CONTINUOUS
62
252
70
192
10
-0.000000
20
-0.092924
30
-0.019752
0
VERTEX
8
0
6
CONTINUOUS
62
252
70
192
10
-0.000000
20
-0.090350
30
-0.029357
0
VERTEX
8
0
6
CONTINUOUS
62
252
70
192
10
-0.000000
20
-0.086787
30
-0.038640
0
VERTEX
8
0
6
CONTINUOUS
62
252
70
192
10
-0.000000
20
-0.082272
30
-0.047500
0
VERTEX
8
0
6
CONTINUOUS
62
252
70
192
10
-0.000000
20
-0.076857
30
-0.055840
0
VERTEX
8
0
6
CONTINUOUS
62
252
70
192
10
-0.000000
20
-0.070599
30
-0.063567
0
VERTEX
8
0
6
CONTINUOUS
62
252
70
192
10
-0.000000
20
-0.063567
30
-0.070599
0
VERTEX
8
0
6
CONTINUOUS
62
252
70
192
10
-0.000000
20
-0.055840
30
-0.076857
0
VERTEX
8
0
6
CONTINUOUS
62
252
70
192
10
-0.000000
20
-0.047500
30
-0.082272
0
VERTEX
8
0
6
CONTINUOUS
62
252
70
192
10
-0.000000
20
-0.038640
30
-0.086787
0
VERTEX
8
0
6
CONTINUOUS
62
252
70
192
10
-0.000000
20
-0.029357
30
-0.090350
0
VERTEX
8
0
6
CONTINUOUS
62
252
70
192
10
-0.000000
20
-0.019752
30
-0.092924
0
VERTEX
8
0
6
CONTINUOUS
62
252
70
192
10
-0.000000
20
-0.009930
30
-0.094480
0
VERTEX
8
0
6
CONTINUOUS
62
252
70
192
10
0.000000
20
0.000000
30
-0.216450
0
VERTEX
8
0
6
CONTINUOUS
62
252
70
192
10
-0.000000
20
-0.022625
30
-0.215264
0
VERTEX
8
0
6
CONTINUOUS
62
252
70
192
10
-0.000000
20
-0.045002
30
-0.211720
0
VERTEX
8
0
6
CONTINUOUS
62
252
70
192
10
-0.000000
20
-0.066887
30
-0.205856
0
VERTEX
8
0
6
CONTINUOUS
62
252
70
192
10
-0.000000
20
-0.088038
30
-0.197737
0
VERTEX
8
0
6
CONTINUOUS
62
252
70
192
10
-0.000000
20
-0.108225
30
-0.187451
0
VERTEX
8
0
6
CONTINUOUS
62
252
70
192
10
-0.000000
20
-0.127226
30
-0.175112
0
VERTEX
8
0
6
CONTINUOUS
62
252
70
192
10
-0.000000
20
-0.144833
30
-0.160854
0
VERTEX
8
0
6
CONTINUOUS
62
252
70
192
10
-0.000000
20
-0.160854
30
-0.144833
0
VERTEX
8
0
6
CONTINUOUS
62
252
70
192
10
-0.000000
20
-0.175112
30
-0.127226
0
VERTEX
8
0
6
CONTINUOUS
62
252
70
192
10
-0.000000
20
-0.187451
30
-0.108225
0
VERTEX
8
0
6
CONTINUOUS
62
252
70
192
10
-0.000000
20
-0.197737
30
-0.088038
0
VERTEX
8
0
6
CONTINUOUS
62
252
70
192
10
-0.000000
20
-0.205856
30
-0.066887
0
VERTEX
8
0
6
CONTINUOUS
62
252
70
192
10
-0.000000
20
-0.211720
30
-0.045002
0
VERTEX
8
0
6
CONTINUOUS
62
252
70
192
10
-0.000000
20
-0.215264
30
-0.022625
0
VERTEX
8
0
6
CONTINUOUS
62
252
70
192
10
-0.000000
20
-0.216450
30
0.000000
0
VERTEX
8
0
6
CONTINUOUS
62
252
70
192
10
-0.000000
20
-0.215264
30
0.022625
0
VERTEX
8
0
6
CONTINUOUS
62
252
70
192
10
-0.000000
20
-0.211720
30
0.045002
0
VERTEX
8
0
6
CONTINUOUS
62
252
70
192
10
-0.000000
20
-0.205856
30
0.066887
0
VERTEX
8
0
6
CONTINUOUS
62
252
70
192
10
0.000000
20
-0.197737
30
0.088038
0
VERTEX
8
0
6
CONTINUOUS
62
252
70
192
10
0.000000
20
-0.187451
30
0.108225
0
VERTEX
8
0
6
CONTINUOUS
62
252
70
192
10
0.000000
20
-0.175112
30
0.127226
0
VERTEX
8
0
6
CONTINUOUS
62
252
70
192
10
0.000000
20
-0.160854
30
0.144833
0
VERTEX
8
0
6
CONTINUOUS
62
252
70
192
10
0.000000
20
-0.144833
30
0.160854
0
VERTEX
8
0
6
CONTINUOUS
62
252
70
192
10
0.000000
20
-0.127226
30
0.175112
0
VERTEX
8
0
6
CONTINUOUS
62
252
70
192
10
0.000000
20
-0.108225
30
0.187451
0
VERTEX
8
0
6
CONTINUOUS
62
252
70
192
10
0.000000
20
-0.088038
30
0.197737
0
VERTEX
8
0
6
CONTINUOUS
62
252
70
192
10
0.000000
20
-0.066887
30
0.205856
0
VERTEX
8
0
6
CONTINUOUS
62
252
70
192
10
0.000000
20
-0.045002
30
0.211720
0
VERTEX
8
0
6
CONTINUOUS
62
252
70
192
10
0.000000
20
-0.022625
30
0.215264
0
VERTEX
8
0
6
CONTINUOUS
62
252
70
192
10
0.000000
20
0.000000
30
0.216450
0
VERTEX
8
0
6
CONTINUOUS
62
252
70
192
10
0.000000
20
0.022625
30
0.215264
0
VERTEX
8
0
6
CONTINUOUS
62
252
70
192
10
0.000000
20
0.045002
30
0.211720
0
VERTEX
8
0
6
CONTINUOUS
62
252
70
192
10
0.000000
20
0.066887
30
0.205856
0
VERTEX
8
0
6
CONTINUOUS
62
252
70
192
10
0.000000
20
0.088038
30
0.197737
0
VERTEX
8
0
6
CONTINUOUS
62
252
70
192
10
0.000000
20
0.108225
30
0.187451
0
VERTEX
8
0
6
CONTINUOUS
62
252
70
192
10
0.000000
20
0.127226
30
0.175112
0
VERTEX
8
0
6
CONTINUOUS
62
252
70
192
10
0.000000
20
0.144833
30
0.160854
0
VERTEX
8
0
6
CONTINUOUS
62
252
70
192
10
0.000000
20
0.160854
30
0.144833
0
VERTEX
8
0
6
CONTINUOUS
62
252
70
192
10
0.000000
20
0.175112
30
0.127226
0
VERTEX
8
0
6
CONTINUOUS
62
252
70
192
10
0.000000
20
0.187451
30
0.108225
0
VERTEX
8
0
6
CONTINUOUS
62
252
70
192
10
0.000000
20
0.197737
30
0.088038
0
VERTEX
8
0
6
CONTINUOUS
62
252
70
192
10
0.000000
20
0.205856
30
0.066887
0
VERTEX
8
0
6
CONTINUOUS
62
252
70
192
10
0.000000
20
0.211720
30
0.045002
0
VERTEX
8
0
6
CONTINUOUS
62
252
70
192
10
0.000000
20
0.215264
30
0.022625
0
VERTEX
8
0
6
CONTINUOUS
62
252
70
192
10
0.000000
20
0.216450
30
0.000000
0
VERTEX
8
0
6
CONTINUOUS
62
252
70
192
10
0.000000
20
0.215264
30
-0.022625
0
VERTEX
8
0
6
CONTINUOUS
62
252
70
192
10
0.000000
20
0.211720
30
-0.045002
0
VERTEX
8
0
6
CONTINUOUS
62
252
70
192
10
0.000000
20
0.205856
30
-0.066887
0
VERTEX
8
0
6
CONTINUOUS
62
252
70
192
10
0.000000
20
0.197737
30
-0.088038
0
VERTEX
8
0
6
CONTINUOUS
62
252
70
192
10
0.000000
20
0.187451
30
-0.108225
0
VERTEX
8
0
6
CONTINUOUS
62
252
70
192
10
0.000000
20
0.175112
30
-0.127226
0
VERTEX
8
0
6
CONTINUOUS
62
252
70
192
10
0.000000
20
0.160854
30
-0.144833
0
VERTEX
8
0
6
CONTINUOUS
62
252
70
192
10
0.000000
20
0.144833
30
-0.160854
0
VERTEX
8
0
6
CONTINUOUS
62
252
70
192
10
0.000000
20
0.127226
30
-0.175112
0
VERTEX
8
0
6
CONTINUOUS
62
252
70
192
10
0.000000
20
0.108225
30
-0.187451
0
VERTEX
8
0
6
CONTINUOUS
62
252
70
192
10
0.000000
20
0.088038
30
-0.197737
0
VERTEX
8
0
6
CONTINUOUS
62
252
70
192
10
-0.000000
20
0.066887
30
-0.205856
0
VERTEX
8
0
6
CONTINUOUS
62
252
70
192
10
-0.000000
20
0.045002
30
-0.211720
0
VERTEX
8
0
6
CONTINUOUS
62
252
70
192
10
-0.000000
20
0.022625
30
-0.215264
0
VERTEX
8
0
6
CONTINUOUS
62
252
70
128
10
0.000000
20
0.000000
30
0.000000
71
60
72
1
73
61
0
VERTEX
8
0
6
CONTINUOUS
62
252
70
128
10
0.000000
20
0.000000
30
0.000000
71
61
72
1
73
2
0
VERTEX
8
0
6
CONTINUOUS
62
252
70
128
10
0.000000
20
0.000000
30
0.000000
71
61
72
2
73
120
0
VERTEX
8
0
6
CONTINUOUS
62
252
70
128
10
0.000000
20
0.000000
30
0.000000
71
120
72
2
73
3
0
VERTEX
8
0
6
CONTINUOUS
62
252
70
128
10
0.000000
20
0.000000
30
0.000000
71
120
72
3
73
119
0
VERTEX
8
0
6
CONTINUOUS
62
252
70
128
10
0.000000
20
0.000000
30
0.000000
71
119
72
3
73
4
0
VERTEX
8
0
6
CONTINUOUS
62
252
70
128
10
0.000000
20
0.000000
30
0.000000
71
119
72
4
73
118
0
VERTEX
8
0
6
CONTINUOUS
62
252
70
128
10
0.000000
20
0.000000
30
0.000000
71
118
72
4
73
5
0
VERTEX
8
0
6
CONTINUOUS
62
252
70
128
10
0.000000
20
0.000000
30
0.000000
71
118
72
5
73
117
0
VERTEX
8
0
6
CONTINUOUS
62
252
70
128
10
0.000000
20
0.000000
30
0.000000
71
117
72
5
73
6
0
VERTEX
8
0
6
CONTINUOUS
62
252
70
128
10
0.000000
20
0.000000
30
0.000000
71
117
72
6
73
116
0
VERTEX
8
0
6
CONTINUOUS
62
252
70
128
10
0.000000
20
0.000000
30
0.000000
71
116
72
6
73
7
0
VERTEX
8
0
6
CONTINUOUS
62
252
70
128
10
0.000000
20
0.000000
30
0.000000
71
116
72
7
73
115
0
VERTEX
8
0
6
CONTINUOUS
62
252
70
128
10
0.000000
20
0.000000
30
0.000000
71
115
72
7
73
8
0
VERTEX
8
0
6
CONTINUOUS
62
252
70
128
10
0.000000
20
0.000000
30
0.000000
71
115
72
8
73
114
0
VERTEX
8
0
6
CONTINUOUS
62
252
70
128
10
0.000000
20
0.000000
30
0.000000
71
114
72
8
73
9
0
VERTEX
8
0
6
CONTINUOUS
62
252
70
128
10
0.000000
20
0.000000
30
0.000000
71
114
72
9
73
113
0
VERTEX
8
0
6
CONTINUOUS
62
252
70
128
10
0.000000
20
0.000000
30
0.000000
71
113
72
9
73
10
0
VERTEX
8
0
6
CONTINUOUS
62
252
70
128
10
0.000000
20
0.000000
30
0.000000
71
113
72
10
73
112
0
VERTEX
8
0
6
CONTINUOUS
62
252
70
128
10
0.000000
20
0.000000
30
0.000000
71
112
72
10
73
11
0
VERTEX
8
0
6
CONTINUOUS
62
252
70
128
10
0.000000
20
0.000000
30
0.000000
71
112
72
11
73
111
0
VERTEX
8
0
6
CONTINUOUS
62
252
70
128
10
0.000000
20
0.000000
30
0.000000
71
111
72
11
73
12
0
VERTEX
8
0
6
CONTINUOUS
62
252
70
128
10
0.000000
20
0.000000
30
0.000000
71
111
72
12
73
110
0
VERTEX
8
0
6
CONTINUOUS
62
252
70
128
10
0.000000
20
0.000000
30
0.000000
71
110
72
12
73
13
0
VERTEX
8
0
6
CONTINUOUS
62
252
70
128
10
0.000000
20
0.000000
30
0.000000
71
110
72
13
73
109
0
VERTEX
8
0
6
CONTINUOUS
62
252
70
128
10
0.000000
20
0.000000
30
0.000000
71
109
72
13
73
14
0
VERTEX
8
0
6
CONTINUOUS
62
252
70
128
10
0.000000
20
0.000000
30
0.000000
71
109
72
14
73
108
0
VERTEX
8
0
6
CONTINUOUS
62
252
70
128
10
0.000000
20
0.000000
30
0.000000
71
108
72
14
73
15
0
VERTEX
8
0
6
CONTINUOUS
62
252
70
128
10
0.000000
20
0.000000
30
0.000000
71
108
72
15
73
107
0
VERTEX
8
0
6
CONTINUOUS
62
252
70
128
10
0.000000
20
0.000000
30
0.000000
71
107
72
15
73
16
0
VERTEX
8
0
6
CONTINUOUS
62
252
70
128
10
0.000000
20
0.000000
30
0.000000
71
107
72
16
73
106
0
VERTEX
8
0
6
CONTINUOUS
62
252
70
128
10
0.000000
20
0.000000
30
0.000000
71
106
72
16
73
105
0
VERTEX
8
0
6
CONTINUOUS
62
252
70
128
10
0.000000
20
0.000000
30
0.000000
71
105
72
16
73
17
0
VERTEX
8
0
6
CONTINUOUS
62
252
70
128
10
0.000000
20
0.000000
30
0.000000
71
105
72
17
73
104
0
VERTEX
8
0
6
CONTINUOUS
62
252
70
128
10
0.000000
20
0.000000
30
0.000000
71
104
72
17
73
18
0
VERTEX
8
0
6
CONTINUOUS
62
252
70
128
10
0.000000
20
0.000000
30
0.000000
71
104
72
18
73
103
0
VERTEX
8
0
6
CONTINUOUS
62
252
70
128
10
0.000000
20
0.000000
30
0.000000
71
103
72
18
73
19
0
VERTEX
8
0
6
CONTINUOUS
62
252
70
128
10
0.000000
20
0.000000
30
0.000000
71
103
72
19
73
102
0
VERTEX
8
0
6
CONTINUOUS
62
252
70
128
10
0.000000
20
0.000000
30
0.000000
71
102
72
19
73
20
0
VERTEX
8
0
6
CONTINUOUS
62
252
70
128
10
0.000000
20
0.000000
30
0.000000
71
102
72
20
73
101
0
VERTEX
8
0
6
CONTINUOUS
62
252
70
128
10
0.000000
20
0.000000
30
0.000000
71
101
72
20
73
21
0
VERTEX
8
0
6
CONTINUOUS
62
252
70
128
10
0.000000
20
0.000000
30
0.000000
71
101
72
21
73
100
0
VERTEX
8
0
6
CONTINUOUS
62
252
70
128
10
0.000000
20
0.000000
30
0.000000
71
100
72
21
73
22
0
VERTEX
8
0
6
CONTINUOUS
62
252
70
128
10
0.000000
20
0.000000
30
0.000000
71
100
72
22
73
99
0
VERTEX
8
0
6
CONTINUOUS
62
252
70
128
10
0.000000
20
0.000000
30
0.000000
71
99
72
22
73
23
0
VERTEX
8
0
6
CONTINUOUS
62
252
70
128
10
0.000000
20
0.000000
30
0.000000
71
99
72
23
73
98
0
VERTEX
8
0
6
CONTINUOUS
62
252
70
128
10
0.000000
20
0.000000
30
0.000000
71
98
72
23
73
24
0
VERTEX
8
0
6
CONTINUOUS
62
252
70
128
10
0.000000
20
0.000000
30
0.000000
71
98
72
24
73
97
0
VERTEX
8
0
6
CONTINUOUS
62
252
70
128
10
0.000000
20
0.000000
30
0.000000
71
97
72
24
73
25
0
VERTEX
8
0
6
CONTINUOUS
62
252
70
128
10
0.000000
20
0.000000
30
0.000000
71
97
72
25
73
96
0
VERTEX
8
0
6
CONTINUOUS
62
252
70
128
10
0.000000
20
0.000000
30
0.000000
71
96
72
25
73
26
0
VERTEX
8
0
6
CONTINUOUS
62
252
70
128
10
0.000000
20
0.000000
30
0.000000
71
96
72
26
73
95
0
VERTEX
8
0
6
CONTINUOUS
62
252
70
128
10
0.000000
20
0.000000
30
0.000000
71
95
72
26
73
27
0
VERTEX
8
0
6
CONTINUOUS
62
252
70
128
10
0.000000
20
0.000000
30
0.000000
71
95
72
27
73
94
0
VERTEX
8
0
6
CONTINUOUS
62
252
70
128
10
0.000000
20
0.000000
30
0.000000
71
94
72
27
73
28
0
VERTEX
8
0
6
CONTINUOUS
62
252
70
128
10
0.000000
20
0.000000
30
0.000000
71
94
72
28
73
93
0
VERTEX
8
0
6
CONTINUOUS
62
252
70
128
10
0.000000
20
0.000000
30
0.000000
71
93
72
28
73
29
0
VERTEX
8
0
6
CONTINUOUS
62
252
70
128
10
0.000000
20
0.000000
30
0.000000
71
93
72
29
73
92
0
VERTEX
8
0
6
CONTINUOUS
62
252
70
128
10
0.000000
20
0.000000
30
0.000000
71
92
72
29
73
30
0
VERTEX
8
0
6
CONTINUOUS
62
252
70
128
10
0.000000
20
0.000000
30
0.000000
71
92
72
30
73
91
0
VERTEX
8
0
6
CONTINUOUS
62
252
70
128
10
0.000000
20
0.000000
30
0.000000
71
91
72
30
73
31
0
VERTEX
8
0
6
CONTINUOUS
62
252
70
128
10
0.000000
20
0.000000
30
0.000000
71
91
72
31
73
32
0
VERTEX
8
0
6
CONTINUOUS
62
252
70
128
10
0.000000
20
0.000000
30
0.000000
71
91
72
32
73
90
0
VERTEX
8
0
6
CONTINUOUS
62
252
70
128
10
0.000000
20
0.000000
30
0.000000
71
90
72
32
73
33
0
VERTEX
8
0
6
CONTINUOUS
62
252
70
128
10
0.000000
20
0.000000
30
0.000000
71
90
72
33
73
89
0
VERTEX
8
0
6
CONTINUOUS
62
252
70
128
10
0.000000
20
0.000000
30
0.000000
71
89
72
33
73
34
0
VERTEX
8
0
6
CONTINUOUS
62
252
70
128
10
0.000000
20
0.000000
30
0.000000
71
89
72
34
73
88
0
VERTEX
8
0
6
CONTINUOUS
62
252
70
128
10
0.000000
20
0.000000
30
0.000000
71
88
72
34
73
35
0
VERTEX
8
0
6
CONTINUOUS
62
252
70
128
10
0.000000
20
0.000000
30
0.000000
71
88
72
35
73
87
0
VERTEX
8
0
6
CONTINUOUS
62
252
70
128
10
0.000000
20
0.000000
30
0.000000
71
87
72
35
73
36
0
VERTEX
8
0
6
CONTINUOUS
62
252
70
128
10
0.000000
20
0.000000
30
0.000000
71
87
72
36
73
86
0
VERTEX
8
0
6
CONTINUOUS
62
252
70
128
10
0.000000
20
0.000000
30
0.000000
71
86
72
36
73
37
0
VERTEX
8
0
6
CONTINUOUS
62
252
70
128
10
0.000000
20
0.000000
30
0.000000
71
86
72
37
73
85
0
VERTEX
8
0
6
CONTINUOUS
62
252
70
128
10
0.000000
20
0.000000
30
0.000000
71
85
72
37
73
38
0
VERTEX
8
0
6
CONTINUOUS
62
252
70
128
10
0.000000
20
0.000000
30
0.000000
71
85
72
38
73
84
0
VERTEX
8
0
6
CONTINUOUS
62
252
70
128
10
0.000000
20
0.000000
30
0.000000
71
84
72
38
73
39
0
VERTEX
8
0
6
CONTINUOUS
62
252
70
128
10
0.000000
20
0.000000
30
0.000000
71
84
72
39
73
83
0
VERTEX
8
0
6
CONTINUOUS
62
252
70
128
10
0.000000
20
0.000000
30
0.000000
71
83
72
39
73
40
0
VERTEX
8
0
6
CONTINUOUS
62
252
70
128
10
0.000000
20
0.000000
30
0.000000
71
83
72
40
73
82
0
VERTEX
8
0
6
CONTINUOUS
62
252
70
128
10
0.000000
20
0.000000
30
0.000000
71
82
72
40
73
41
0
VERTEX
8
0
6
CONTINUOUS
62
252
70
128
10
0.000000
20
0.000000
30
0.000000
71
82
72
41
73
81
0
VERTEX
8
0
6
CONTINUOUS
62
252
70
128
10
0.000000
20
0.000000
30
0.000000
71
81
72
41
73
42
0
VERTEX
8
0
6
CONTINUOUS
62
252
70
128
10
0.000000
20
0.000000
30
0.000000
71
81
72
42
73
80
0
VERTEX
8
0
6
CONTINUOUS
62
252
70
128
10
0.000000
20
0.000000
30
0.000000
71
80
72
42
73
43
0
VERTEX
8
0
6
CONTINUOUS
62
252
70
128
10
0.000000
20
0.000000
30
0.000000
71
80
72
43
73
79
0
VERTEX
8
0
6
CONTINUOUS
62
252
70
128
10
0.000000
20
0.000000
30
0.000000
71
79
72
43
73
44
0
VERTEX
8
0
6
CONTINUOUS
62
252
70
128
10
0.000000
20
0.000000
30
0.000000
71
79
72
44
73
78
0
VERTEX
8
0
6
CONTINUOUS
62
252
70
128
10
0.000000
20
0.000000
30
0.000000
71
78
72
44
73
45
0
VERTEX
8
0
6
CONTINUOUS
62
252
70
128
10
0.000000
20
0.000000
30
0.000000
71
78
72
45
73
77
0
VERTEX
8
0
6
CONTINUOUS
62
252
70
128
10
0.000000
20
0.000000
30
0.000000
71
77
72
45
73
46
0
VERTEX
8
0
6
CONTINUOUS
62
252
70
128
10
0.000000
20
0.000000
30
0.000000
71
77
72
46
73
76
0
VERTEX
8
0
6
CONTINUOUS
62
252
70
128
10
0.000000
20
0.000000
30
0.000000
71
76
72
46
73
75
0
VERTEX
8
0
6
CONTINUOUS
62
252
70
128
10
0.000000
20
0.000000
30
0.000000
71
75
72
46
73
47
0
VERTEX
8
0
6
CONTINUOUS
62
252
70
128
10
0.000000
20
0.000000
30
0.000000
71
75
72
47
73
74
0
VERTEX
8
0
6
CONTINUOUS
62
252
70
128
10
0.000000
20
0.000000
30
0.000000
71
74
72
47
73
48
0
VERTEX
8
0
6
CONTINUOUS
62
252
70
128
10
0.000000
20
0.000000
30
0.000000
71
74
72
48
73
73
0
VERTEX
8
0
6
CONTINUOUS
62
252
70
128
10
0.000000
20
0.000000
30
0.000000
71
73
72
48
73
49
0
VERTEX
8
0
6
CONTINUOUS
62
252
70
128
10
0.000000
20
0.000000
30
0.000000
71
73
72
49
73
72
0
VERTEX
8
0
6
CONTINUOUS
62
252
70
128
10
0.000000
20
0.000000
30
0.000000
71
72
72
49
73
50
0
VERTEX
8
0
6
CONTINUOUS
62
252
70
128
10
0.000000
20
0.000000
30
0.000000
71
72
72
50
73
71
0
VERTEX
8
0
6
CONTINUOUS
62
252
70
128
10
0.000000
20
0.000000
30
0.000000
71
71
72
50
73
51
0
VERTEX
8
0
6
CONTINUOUS
62
252
70
128
10
0.000000
20
0.000000
30
0.000000
71
71
72
51
73
70
0
VERTEX
8
0
6
CONTINUOUS
62
252
70
128
10
0.000000
20
0.000000
30
0.000000
71
70
72
51
73
52
0
VERTEX
8
0
6
CONTINUOUS
62
252
70
128
10
0.000000
20
0.000000
30
0.000000
71
70
72
52
73
69
0
VERTEX
8
0
6
CONTINUOUS
62
252
70
128
10
0.000000
20
0.000000
30
0.000000
71
69
72
52
73
53
0
VERTEX
8
0
6
CONTINUOUS
62
252
70
128
10
0.000000
20
0.000000
30
0.000000
71
69
72
53
73
68
0
VERTEX
8
0
6
CONTINUOUS
62
252
70
128
10
0.000000
20
0.000000
30
0.000000
71
68
72
53
73
54
0
VERTEX
8
0
6
CONTINUOUS
62
252
70
128
10
0.000000
20
0.000000
30
0.000000
71
68
72
54
73
67
0
VERTEX
8
0
6
CONTINUOUS
62
252
70
128
10
0.000000
20
0.000000
30
0.000000
71
67
72
54
73
55
0
VERTEX
8
0
6
CONTINUOUS
62
252
70
128
10
0.000000
20
0.000000
30
0.000000
71
67
72
55
73
66
0
VERTEX
8
0
6
CONTINUOUS
62
252
70
128
10
0.000000
20
0.000000
30
0.000000
71
66
72
55
73
56
0
VERTEX
8
0
6
CONTINUOUS
62
252
70
128
10
0.000000
20
0.000000
30
0.000000
71
66
72
56
73
65
0
VERTEX
8
0
6
CONTINUOUS
62
252
70
128
10
0.000000
20
0.000000
30
0.000000
71
65
72
56
73
57
0
VERTEX
8
0
6
CONTINUOUS
62
252
70
128
10
0.000000
20
0.000000
30
0.000000
71
65
72
57
73
64
0
VERTEX
8
0
6
CONTINUOUS
62
252
70
128
10
0.000000
20
0.000000
30
0.000000
71
64
72
57
73
58
0
VERTEX
8
0
6
CONTINUOUS
62
252
70
128
10
0.000000
20
0.000000
30
0.000000
71
64
72
58
73
63
0
VERTEX
8
0
6
CONTINUOUS
62
252
70
128
10
0.000000
20
0.000000
30
0.000000
71
63
72
58
73
59
0
VERTEX
8
0
6
CONTINUOUS
62
252
70
128
10
0.000000
20
0.000000
30
0.000000
71
63
72
59
73
62
0
VERTEX
8
0
6
CONTINUOUS
62
252
70
128
10
0.000000
20
0.000000
30
0.000000
71
62
72
59
73
60
0
VERTEX
8
0
6
CONTINUOUS
62
252
70
128
10
0.000000
20
0.000000
30
0.000000
71
62
72
60
73
61
0
SEQEND
0
POLYLINE
66
1
8
0
6
CONTINUOUS
62
252
70
64
75
0
10
0.000000
20
0.000000
30
0.000000
0
VERTEX
8
0
6
CONTINUOUS
62
252
70
192
10
0.042359
20
0.000000
30
0.258809
0
VERTEX
8
0
6
CONTINUOUS
62
252
70
192
10
0.042359
20
-0.027053
30
0.257391
0
VERTEX
8
0
6
CONTINUOUS
62
252
70
192
10
0.042359
20
-0.053809
30
0.253153
0
VERTEX
8
0
6
CONTINUOUS
62
252
70
192
10
0.042359
20
-0.079976
30
0.246142
0
VERTEX
8
0
6
CONTINUOUS
62
252
70
192
10
0.042359
20
-0.105267
30
0.236434
0
VERTEX
8
0
6
CONTINUOUS
62
252
70
192
10
0.042359
20
-0.129404
30
0.224135
0
VERTEX
8
0
6
CONTINUOUS
62
252
70
192
10
0.042359
20
-0.152124
30
0.209381
0
VERTEX
8
0
6
CONTINUOUS
62
252
70
192
10
0.042359
20
-0.173177
30
0.192332
0
VERTEX
8
0
6
CONTINUOUS
62
252
70
192
10
0.042359
20
-0.192332
30
0.173177
0
VERTEX
8
0
6
CONTINUOUS
62
252
70
192
10
0.042359
20
-0.209381
30
0.152124
0
VERTEX
8
0
6
CONTINUOUS
62
252
70
192
10
0.042359
20
-0.224135
30
0.129404
0
VERTEX
8
0
6
CONTINUOUS
62
252
70
192
10
0.042359
20
-0.236434
30
0.105267
0
VERTEX
8
0
6
CONTINUOUS
62
252
70
192
10
0.042359
20
-0.246142
30
0.079976
0
VERTEX
8
0
6
CONTINUOUS
62
252
70
192
10
0.042359
20
-0.253153
30
0.053809
0
VERTEX
8
0
6
CONTINUOUS
62
252
70
192
10
0.042359
20
-0.257391
30
0.027053
0
VERTEX
8
0
6
CONTINUOUS
62
252
70
192
10
0.042359
20
-0.258809
30
0.000000
0
VERTEX
8
0
6
CONTINUOUS
62
252
70
192
10
0.042359
20
-0.257391
30
-0.027053
0
VERTEX
8
0
6
CONTINUOUS
62
252
70
192
10
0.042359
20
-0.253153
30
-0.053809
0
VERTEX
8
0
6
CONTINUOUS
62
252
70
192
10
0.042359
20
-0.246142
30
-0.079976
0
VERTEX
8
0
6
CONTINUOUS
62
252
70
192
10
0.042359
20
-0.236434
30
-0.105267
0
VERTEX
8
0
6
CONTINUOUS
62
252
70
192
10
0.042359
20
-0.224135
30
-0.129404
0
VERTEX
8
0
6
CONTINUOUS
62
252
70
192
10
0.042359
20
-0.209381
30
-0.152124
0
VERTEX
8
0
6
CONTINUOUS
62
252
70
192
10
0.042359
20
-0.192332
30
-0.173177
0
VERTEX
8
0
6
CONTINUOUS
62
252
70
192
10
0.042359
20
-0.173177
30
-0.192332
0
VERTEX
8
0
6
CONTINUOUS
62
252
70
192
10
0.042359
20
-0.152124
30
-0.209381
0
VERTEX
8
0
6
CONTINUOUS
62
252
70
192
10
0.042359
20
-0.129404
30
-0.224135
0
VERTEX
8
0
6
CONTINUOUS
62
252
70
192
10
0.042359
20
-0.105267
30
-0.236434
0
VERTEX
8
0
6
CONTINUOUS
62
252
70
192
10
0.042359
20
-0.079976
30
-0.246142
0
VERTEX
8
0
6
CONTINUOUS
62
252
70
192
10
0.042359
20
-0.053809
30
-0.253153
0
VERTEX
8
0
6
CONTINUOUS
62
252
70
192
10
0.042359
20
-0.027053
30
-0.257391
0
VERTEX
8
0
6
CONTINUOUS
62
252
70
192
10
0.042359
20
0.000000
30
-0.258809
0
VERTEX
8
0
6
CONTINUOUS
62
252
70
192
10
0.042359
20
0.027053
30
-0.257391
0
VERTEX
8
0
6
CONTINUOUS
62
252
70
192
10
0.042359
20
0.053809
30
-0.253153
0
VERTEX
8
0
6
CONTINUOUS
62
252
70
192
10
0.042359
20
0.079976
30
-0.246142
0
VERTEX
8
0
6
CONTINUOUS
62
252
70
192
10
0.042359
20
0.105267
30
-0.236434
0
VERTEX
8
0
6
CONTINUOUS
62
252
70
192
10
0.042359
20
0.129404
30
-0.224135
0
VERTEX
8
0
6
CONTINUOUS
62
252
70
192
10
0.042359
20
0.152124
30
-0.209381
0
VERTEX
8
0
6
CONTINUOUS
62
252
70
192
10
0.042359
20
0.173177
30
-0.192332
0
VERTEX
8
0
6
CONTINUOUS
62
252
70
192
10
0.042359
20
0.192332
30
-0.173177
0
VERTEX
8
0
6
CONTINUOUS
62
252
70
192
10
0.042359
20
0.209381
30
-0.152124
0
VERTEX
8
0
6
CONTINUOUS
62
252
70
192
10
0.042359
20
0.224135
30
-0.129404
0
VERTEX
8
0
6
CONTINUOUS
62
252
70
192
10
0.042359
20
0.236434
30
-0.105267
0
VERTEX
8
0
6
CONTINUOUS
62
252
70
192
10
0.042359
20
0.246142
30
-0.079976
0
VERTEX
8
0
6
CONTINUOUS
62
252
70
192
10
0.042359
20
0.253153
30
-0.053809
0
VERTEX
8
0
6
CONTINUOUS
62
252
70
192
10
0.042359
20
0.257391
30
-0.027053
0
VERTEX
8
0
6
CONTINUOUS
62
252
70
192
10
0.042359
20
0.258809
30
0.000000
0
VERTEX
8
0
6
CONTINUOUS
62
252
70
192
10
0.042359
20
0.257391
30
0.027053
0
VERTEX
8
0
6
CONTINUOUS
62
252
70
192
10
0.042359
20
0.253153
30
0.053809
0
VERTEX
8
0
6
CONTINUOUS
62
252
70
192
10
0.042359
20
0.246142
30
0.079976
0
VERTEX
8
0
6
CONTINUOUS
62
252
70
192
10
0.042359
20
0.236434
30
0.105267
0
VERTEX
8
0
6
CONTINUOUS
62
252
70
192
10
0.042359
20
0.224135
30
0.129404
0
VERTEX
8
0
6
CONTINUOUS
62
252
70
192
10
0.042359
20
0.209381
30
0.152124
0
VERTEX
8
0
6
CONTINUOUS
62
252
70
192
10
0.042359
20
0.192332
30
0.173177
0
VERTEX
8
0
6
CONTINUOUS
62
252
70
192
10
0.042359
20
0.173177
30
0.192332
0
VERTEX
8
0
6
CONTINUOUS
62
252
70
192
10
0.042359
20
0.152124
30
0.209381
0
VERTEX
8
0
6
CONTINUOUS
62
252
70
192
10
0.042359
20
0.129404
30
0.224135
0
VERTEX
8
0
6
CONTINUOUS
62
252
70
192
10
0.042359
20
0.105267
30
0.236434
0
VERTEX
8
0
6
CONTINUOUS
62
252
70
192
10
0.042359
20
0.079976
30
0.246142
0
VERTEX
8
0
6
CONTINUOUS
62
252
70
192
10
0.042359
20
0.053809
30
0.253153
0
VERTEX
8
0
6
CONTINUOUS
62
252
70
192
10
0.042359
20
0.027053
30
0.257391
0
VERTEX
8
0
6
CONTINUOUS
62
252
70
192
10
0.401800
20
0.000000
30
-0.270000
0
VERTEX
8
0
6
CONTINUOUS
62
252
70
192
10
0.401800
20
-0.028223
30
-0.268521
0
VERTEX
8
0
6
CONTINUOUS
62
252
70
192
10
0.401800
20
-0.056136
30
-0.264100
0
VERTEX
8
0
6
CONTINUOUS
62
252
70
192
10
0.401800
20
-0.083435
30
-0.256785
0
VERTEX
8
0
6
CONTINUOUS
62
252
70
192
10
0.401800
20
-0.109819
30
-0.246657
0
VERTEX
8
0
6
CONTINUOUS
62
252
70
192
10
0.401800
20
-0.135000
30
-0.233827
0
VERTEX
8
0
6
CONTINUOUS
62
252
70
192
10
0.401800
20
-0.158702
30
-0.218435
0
VERTEX
8
0
6
CONTINUOUS
62
252
70
192
10
0.401800
20
-0.180665
30
-0.200649
0
VERTEX
8
0
6
CONTINUOUS
62
252
70
192
10
0.401800
20
-0.200649
30
-0.180665
0
VERTEX
8
0
6
CONTINUOUS
62
252
70
192
10
0.401800
20
-0.218435
30
-0.158702
0
VERTEX
8
0
6
CONTINUOUS
62
252
70
192
10
0.401800
20
-0.233827
30
-0.135000
0
VERTEX
8
0
6
CONTINUOUS
62
252
70
192
10
0.401800
20
-0.246657
30
-0.109819
0
VERTEX
8
0
6
CONTINUOUS
62
252
70
192
10
0.401800
20
-0.256785
30
-0.083435
0
VERTEX
8
0
6
CONTINUOUS
62
252
70
192
10
0.401800
20
-0.264100
30
-0.056136
0
VERTEX
8
0
6
CONTINUOUS
62
252
70
192
10
0.401800
20
-0.268521
30
-0.028223
0
VERTEX
8
0
6
CONTINUOUS
62
252
70
192
10
0.401800
20
-0.270000
30
0.000000
0
VERTEX
8
0
6
CONTINUOUS
62
252
70
192
10
0.401800
20
-0.268521
30
0.028223
0
VERTEX
8
0
6
CONTINUOUS
62
252
70
192
10
0.401800
20
-0.264100
30
0.056136
0
VERTEX
8
0
6
CONTINUOUS
62
252
70
192
10
0.401800
20
-0.256785
30
0.083435
0
VERTEX
8
0
6
CONTINUOUS
62
252
70
192
10
0.401800
20
-0.246657
30
0.109819
0
VERTEX
8
0
6
CONTINUOUS
62
252
70
192
10
0.401800
20
-0.233827
30
0.135000
0
VERTEX
8
0
6
CONTINUOUS
62
252
70
192
10
0.401800
20
-0.218435
30
0.158702
0
VERTEX
8
0
6
CONTINUOUS
62
252
70
192
10
0.401800
20
-0.200649
30
0.180665
0
VERTEX
8
0
6
CONTINUOUS
62
252
70
192
10
0.401800
20
-0.180665
30
0.200649
0
VERTEX
8
0
6
CONTINUOUS
62
252
70
192
10
0.401800
20
-0.158702
30
0.218435
0
VERTEX
8
0
6
CONTINUOUS
62
252
70
192
10
0.401800
20
-0.135000
30
0.233827
0
VERTEX
8
0
6
CONTINUOUS
62
252
70
192
10
0.401800
20
-0.109819
30
0.246657
0
VERTEX
8
0
6
CONTINUOUS
62
252
70
192
10
0.401800
20
-0.083435
30
0.256785
0
VERTEX
8
0
6
CONTINUOUS
62
252
70
192
10
0.401800
20
-0.056136
30
0.264100
0
VERTEX
8
0
6
CONTINUOUS
62
252
70
192
10
0.401800
20
-0.028223
30
0.268521
0
VERTEX
8
0
6
CONTINUOUS
62
252
70
192
10
0.401800
20
0.000000
30
0.270000
0
VERTEX
8
0
6
CONTINUOUS
62
252
70
192
10
0.401800
20
0.028223
30
0.268521
0
VERTEX
8
0
6
CONTINUOUS
62
252
70
192
10
0.401800
20
0.056136
30
0.264100
0
VERTEX
8
0
6
CONTINUOUS
62
252
70
192
10
0.401800
20
0.083435
30
0.256785
0
VERTEX
8
0
6
CONTINUOUS
62
252
70
192
10
0.401800
20
0.109819
30
0.246657
0
VERTEX
8
0
6
CONTINUOUS
62
252
70
192
10
0.401800
20
0.135000
30
0.233827
0
VERTEX
8
0
6
CONTINUOUS
62
252
70
192
10
0.401800
20
0.158702
30
0.218435
0
VERTEX
8
0
6
CONTINUOUS
62
252
70
192
10
0.401800
20
0.180665
30
0.200649
0
VERTEX
8
0
6
CONTINUOUS
62
252
70
192
10
0.401800
20
0.200649
30
0.180665
0
VERTEX
8
0
6
CONTINUOUS
62
252
70
192
10
0.401800
20
0.218435
30
0.158702
0
VERTEX
8
0
6
CONTINUOUS
62
252
70
192
10
0.401800
20
0.233827
30
0.135000
0
VERTEX
8
0
6
CONTINUOUS
62
252
70
192
10
0.401800
20
0.246657
30
0.109819
0
VERTEX
8
0
6
CONTINUOUS
62
252
70
192
10
0.401800
20
0.256785
30
0.083435
0
VERTEX
8
0
6
CONTINUOUS
62
252
70
192
10
0.401800
20
0.264100
30
0.056136
0
VERTEX
8
0
6
CONTINUOUS
62
252
70
192
10
0.401800
20
0.268521
30
0.028223
0
VERTEX
8
0
6
CONTINUOUS
62
252
70
192
10
0.401800
20
0.270000
30
-0.000000
0
VERTEX
8
0
6
CONTINUOUS
62
252
70
192
10
0.401800
20
0.268521
30
-0.028223
0
VERTEX
8
0
6
CONTINUOUS
62
252
70
192
10
0.401800
20
0.264100
30
-0.056136
0
VERTEX
8
0
6
CONTINUOUS
62
252
70
192
10
0.401800
20
0.256785
30
-0.083435
0
VERTEX
8
0
6
CONTINUOUS
62
252
70
192
10
0.401800
20
0.246657
30
-0.109819
0
VERTEX
8
0
6
CONTINUOUS
62
252
70
192
10
0.401800
20
0.233827
30
-0.135000
0
VERTEX
8
0
6
CONTINUOUS
62
252
70
192
10
0.401800
20
0.218435
30
-0.158702
0
VERTEX
8
0
6
CONTINUOUS
62
252
70
192
10
0.401800
20
0.200649
30
-0.180665
0
VERTEX
8
0
6
CONTINUOUS
62
252
70
192
10
0.401800
20
0.180665
30
-0.200649
0
VERTEX
8
0
6
CONTINUOUS
62
252
70
192
10
0.401800
20
0.158702
30
-0.218435
0
VERTEX
8
0
6
CONTINUOUS
62
252
70
192
10
0.401800
20
0.135000
30
-0.233827
0
VERTEX
8
0
6
CONTINUOUS
62
252
70
192
10
0.401800
20
0.109819
30
-0.246657
0
VERTEX
8
0
6
CONTINUOUS
62
252
70
192
10
0.401800
20
0.083435
30
-0.256785
0
VERTEX
8
0
6
CONTINUOUS
62
252
70
192
10
0.401800
20
0.056136
30
-0.264100
0
VERTEX
8
0
6
CONTINUOUS
62
252
70
192
10
0.401800
20
0.028223
30
-0.268521
0
VERTEX
8
0
6
CONTINUOUS
62
252
70
128
10
0.000000
20
0.000000
30
0.000000
71
2
72
90
73
1
0
VERTEX
8
0
6
CONTINUOUS
62
252
70
128
10
0.000000
20
0.000000
30
0.000000
71
1
72
90
73
91
0
VERTEX
8
0
6
CONTINUOUS
62
252
70
128
10
0.000000
20
0.000000
30
0.000000
71
1
72
91
73
92
0
VERTEX
8
0
6
CONTINUOUS
62
252
70
128
10
0.000000
20
0.000000
30
0.000000
71
90
72
2
73
89
0
VERTEX
8
0
6
CONTINUOUS
62
252
70
128
10
0.000000
20
0.000000
30
0.000000
71
89
72
2
73
3
0
VERTEX
8
0
6
CONTINUOUS
62
252
70
128
10
0.000000
20
0.000000
30
0.000000
71
89
72
3
73
88
0
VERTEX
8
0
6
CONTINUOUS
62
252
70
128
10
0.000000
20
0.000000
30
0.000000
71
88
72
3
73
4
0
VERTEX
8
0
6
CONTINUOUS
62
252
70
128
10
0.000000
20
0.000000
30
0.000000
71
88
72
4
73
87
0
VERTEX
8
0
6
CONTINUOUS
62
252
70
128
10
0.000000
20
0.000000
30
0.000000
71
87
72
4
73
5
0
VERTEX
8
0
6
CONTINUOUS
62
252
70
128
10
0.000000
20
0.000000
30
0.000000
71
87
72
5
73
86
0
VERTEX
8
0
6
CONTINUOUS
62
252
70
128
10
0.000000
20
0.000000
30
0.000000
71
86
72
5
73
6
0
VERTEX
8
0
6
CONTINUOUS
62
252
70
128
10
0.000000
20
0.000000
30
0.000000
71
86
72
6
73
85
0
VERTEX
8
0
6
CONTINUOUS
62
252
70
128
10
0.000000
20
0.000000
30
0.000000
71
85
72
6
73
7
0
VERTEX
8
0
6
CONTINUOUS
62
252
70
128
10
0.000000
20
0.000000
30
0.000000
71
85
72
7
73
84
0
VERTEX
8
0
6
CONTINUOUS
62
252
70
128
10
0.000000
20
0.000000
30
0.000000
71
84
72
7
73
8
0
VERTEX
8
0
6
CONTINUOUS
62
252
70
128
10
0.000000
20
0.000000
30
0.000000
71
84
72
8
73
83
0
VERTEX
8
0
6
CONTINUOUS
62
252
70
128
10
0.000000
20
0.000000
30
0.000000
71
83
72
8
73
9
0
VERTEX
8
0
6
CONTINUOUS
62
252
70
128
10
0.000000
20
0.000000
30
0.000000
71
83
72
9
73
82
0
VERTEX
8
0
6
CONTINUOUS
62
252
70
128
10
0.000000
20
0.000000
30
0.000000
71
82
72
9
73
10
0
VERTEX
8
0
6
CONTINUOUS
62
252
70
128
10
0.000000
20
0.000000
30
0.000000
71
82
72
10
73
81
0
VERTEX
8
0
6
CONTINUOUS
62
252
70
128
10
0.000000
20
0.000000
30
0.000000
71
81
72
10
73
11
0
VERTEX
8
0
6
CONTINUOUS
62
252
70
128
10
0.000000
20
0.000000
30
0.000000
71
81
72
11
73
80
0
VERTEX
8
0
6
CONTINUOUS
62
252
70
128
10
0.000000
20
0.000000
30
0.000000
71
80
72
11
73
12
0
VERTEX
8
0
6
CONTINUOUS
62
252
70
128
10
0.000000
20
0.000000
30
0.000000
71
80
72
12
73
79
0
VERTEX
8
0
6
CONTINUOUS
62
252
70
128
10
0.000000
20
0.000000
30
0.000000
71
79
72
12
73
13
0
VERTEX
8
0
6
CONTINUOUS
62
252
70
128
10
0.000000
20
0.000000
30
0.000000
71
79
72
13
73
78
0
VERTEX
8
0
6
CONTINUOUS
62
252
70
128
10
0.000000
20
0.000000
30
0.000000
71
78
72
13
73
14
0
VERTEX
8
0
6
CONTINUOUS
62
252
70
128
10
0.000000
20
0.000000
30
0.000000
71
78
72
14
73
77
0
VERTEX
8
0
6
CONTINUOUS
62
252
70
128
10
0.000000
20
0.000000
30
0.000000
71
77
72
14
73
15
0
VERTEX
8
0
6
CONTINUOUS
62
252
70
128
10
0.000000
20
0.000000
30
0.000000
71
77
72
15
73
76
0
VERTEX
8
0
6
CONTINUOUS
62
252
70
128
10
0.000000
20
0.000000
30
0.000000
71
76
72
15
73
16
0
VERTEX
8
0
6
CONTINUOUS
62
252
70
128
10
0.000000
20
0.000000
30
0.000000
71
76
72
16
73
75
0
VERTEX
8
0
6
CONTINUOUS
62
252
70
128
10
0.000000
20
0.000000
30
0.000000
71
75
72
16
73
17
0
VERTEX
8
0
6
CONTINUOUS
62
252
70
128
10
0.000000
20
0.000000
30
0.000000
71
75
72
17
73
74
0
VERTEX
8
0
6
CONTINUOUS
62
252
70
128
10
0.000000
20
0.000000
30
0.000000
71
74
72
17
73
18
0
VERTEX
8
0
6
CONTINUOUS
62
252
70
128
10
0.000000
20
0.000000
30
0.000000
71
74
72
18
73
73
0
VERTEX
8
0
6
CONTINUOUS
62
252
70
128
10
0.000000
20
0.000000
30
0.000000
71
73
72
18
73
19
0
VERTEX
8
0
6
CONTINUOUS
62
252
70
128
10
0.000000
20
0.000000
30
0.000000
71
73
72
19
73
72
0
VERTEX
8
0
6
CONTINUOUS
62
252
70
128
10
0.000000
20
0.000000
30
0.000000
71
72
72
19
73
20
0
VERTEX
8
0
6
CONTINUOUS
62
252
70
128
10
0.000000
20
0.000000
30
0.000000
71
72
72
20
73
71
0
VERTEX
8
0
6
CONTINUOUS
62
252
70
128
10
0.000000
20
0.000000
30
0.000000
71
71
72
20
73
21
0
VERTEX
8
0
6
CONTINUOUS
62
252
70
128
10
0.000000
20
0.000000
30
0.000000
71
71
72
21
73
70
0
VERTEX
8
0
6
CONTINUOUS
62
252
70
128
10
0.000000
20
0.000000
30
0.000000
71
70
72
21
73
22
0
VERTEX
8
0
6
CONTINUOUS
62
252
70
128
10
0.000000
20
0.000000
30
0.000000
71
70
72
22
73
23
0
VERTEX
8
0
6
CONTINUOUS
62
252
70
128
10
0.000000
20
0.000000
30
0.000000
71
24
72
68
73
23
0
VERTEX
8
0
6
CONTINUOUS
62
252
70
128
10
0.000000
20
0.000000
30
0.000000
71
23
72
68
73
69
0
VERTEX
8
0
6
CONTINUOUS
62
252
70
128
10
0.000000
20
0.000000
30
0.000000
71
23
72
69
73
70
0
VERTEX
8
0
6
CONTINUOUS
62
252
70
128
10
0.000000
20
0.000000
30
0.000000
71
68
72
24
73
67
0
VERTEX
8
0
6
CONTINUOUS
62
252
70
128
10
0.000000
20
0.000000
30
0.000000
71
67
72
24
73
25
0
VERTEX
8
0
6
CONTINUOUS
62
252
70
128
10
0.000000
20
0.000000
30
0.000000
71
67
72
25
73
66
0
VERTEX
8
0
6
CONTINUOUS
62
252
70
128
10
0.000000
20
0.000000
30
0.000000
71
66
72
25
73
26
0
VERTEX
8
0
6
CONTINUOUS
62
252
70
128
10
0.000000
20
0.000000
30
0.000000
71
66
72
26
73
65
0
VERTEX
8
0
6
CONTINUOUS
62
252
70
128
10
0.000000
20
0.000000
30
0.000000
71
65
72
26
73
27
0
VERTEX
8
0
6
CONTINUOUS
62
252
70
128
10
0.000000
20
0.000000
30
0.000000
71
65
72
27
73
64
0
VERTEX
8
0
6
CONTINUOUS
62
252
70
128
10
0.000000
20
0.000000
30
0.000000
71
64
72
27
73
28
0
VERTEX
8
0
6
CONTINUOUS
62
252
70
128
10
0.000000
20
0.000000
30
0.000000
71
64
72
28
73
63
0
VERTEX
8
0
6
CONTINUOUS
62
252
70
128
10
0.000000
20
0.000000
30
0.000000
71
63
72
28
73
29
0
VERTEX
8
0
6
CONTINUOUS
62
252
70
128
10
0.000000
20
0.000000
30
0.000000
71
63
72
29
73
62
0
VERTEX
8
0
6
CONTINUOUS
62
252
70
128
10
0.000000
20
0.000000
30
0.000000
71
62
72
29
73
30
0
VERTEX
8
0
6
CONTINUOUS
62
252
70
128
10
0.000000
20
0.000000
30
0.000000
71
62
72
30
73
61
0
VERTEX
8
0
6
CONTINUOUS
62
252
70
128
10
0.000000
20
0.000000
30
0.000000
71
61
72
30
73
31
0
VERTEX
8
0
6
CONTINUOUS
62
252
70
128
10
0.000000
20
0.000000
30
0.000000
71
61
72
31
73
32
0
VERTEX
8
0
6
CONTINUOUS
62
252
70
128
10
0.000000
20
0.000000
30
0.000000
71
61
72
32
73
120
0
VERTEX
8
0
6
CONTINUOUS
62
252
70
128
10
0.000000
20
0.000000
30
0.000000
71
120
72
32
73
33
0
VERTEX
8
0
6
CONTINUOUS
62
252
70
128
10
0.000000
20
0.000000
30
0.000000
71
120
72
33
73
119
0
VERTEX
8
0
6
CONTINUOUS
62
252
70
128
10
0.000000
20
0.000000
30
0.000000
71
119
72
33
73
34
0
VERTEX
8
0
6
CONTINUOUS
62
252
70
128
10
0.000000
20
0.000000
30
0.000000
71
119
72
34
73
118
0
VERTEX
8
0
6
CONTINUOUS
62
252
70
128
10
0.000000
20
0.000000
30
0.000000
71
118
72
34
73
35
0
VERTEX
8
0
6
CONTINUOUS
62
252
70
128
10
0.000000
20
0.000000
30
0.000000
71
118
72
35
73
117
0
VERTEX
8
0
6
CONTINUOUS
62
252
70
128
10
0.000000
20
0.000000
30
0.000000
71
117
72
35
73
36
0
VERTEX
8
0
6
CONTINUOUS
62
252
70
128
10
0.000000
20
0.000000
30
0.000000
71
117
72
36
73
116
0
VERTEX
8
0
6
CONTINUOUS
62
252
70
128
10
0.000000
20
0.000000
30
0.000000
71
116
72
36
73
37
0
VERTEX
8
0
6
CONTINUOUS
62
252
70
128
10
0.000000
20
0.000000
30
0.000000
71
116
72
37
73
115
0
VERTEX
8
0
6
CONTINUOUS
62
252
70
128
10
0.000000
20
0.000000
30
0.000000
71
115
72
37
73
38
0
VERTEX
8
0
6
CONTINUOUS
62
252
70
128
10
0.000000
20
0.000000
30
0.000000
71
115
72
38
73
114
0
VERTEX
8
0
6
CONTINUOUS
62
252
70
128
10
0.000000
20
0.000000
30
0.000000
71
114
72
38
73
39
0
VERTEX
8
0
6
CONTINUOUS
62
252
70
128
10
0.000000
20
0.000000
30
0.000000
71
114
72
39
73
113
0
VERTEX
8
0
6
CONTINUOUS
62
252
70
128
10
0.000000
20
0.000000
30
0.000000
71
113
72
39
73
40
0
VERTEX
8
0
6
CONTINUOUS
62
252
70
128
10
0.000000
20
0.000000
30
0.000000
71
113
72
40
73
112
0
VERTEX
8
0
6
CONTINUOUS
62
252
70
128
10
0.000000
20
0.000000
30
0.000000
71
112
72
40
73
41
0
VERTEX
8
0
6
CONTINUOUS
62
252
70
128
10
0.000000
20
0.000000
30
0.000000
71
112
72
41
73
111
0
VERTEX
8
0
6
CONTINUOUS
62
252
70
128
10
0.000000
20
0.000000
30
0.000000
71
111
72
41
73
42
0
VERTEX
8
0
6
CONTINUOUS
62
252
70
128
10
0.000000
20
0.000000
30
0.000000
71
111
72
42
73
110
0
VERTEX
8
0
6
CONTINUOUS
62
252
70
128
10
0.000000
20
0.000000
30
0.000000
71
110
72
42
73
43
0
VERTEX
8
0
6
CONTINUOUS
62
252
70
128
10
0.000000
20
0.000000
30
0.000000
71
110
72
43
73
109
0
VERTEX
8
0
6
CONTINUOUS
62
252
70
128
10
0.000000
20
0.000000
30
0.000000
71
109
72
43
73
44
0
VERTEX
8
0
6
CONTINUOUS
62
252
70
128
10
0.000000
20
0.000000
30
0.000000
71
109
72
44
73
108
0
VERTEX
8
0
6
CONTINUOUS
62
252
70
128
10
0.000000
20
0.000000
30
0.000000
71
108
72
44
73
45
0
VERTEX
8
0
6
CONTINUOUS
62
252
70
128
10
0.000000
20
0.000000
30
0.000000
71
108
72
45
73
107
0
VERTEX
8
0
6
CONTINUOUS
62
252
70
128
10
0.000000
20
0.000000
30
0.000000
71
107
72
45
73
46
0
VERTEX
8
0
6
CONTINUOUS
62
252
70
128
10
0.000000
20
0.000000
30
0.000000
71
107
72
46
73
106
0
VERTEX
8
0
6
CONTINUOUS
62
252
70
128
10
0.000000
20
0.000000
30
0.000000
71
106
72
46
73
47
0
VERTEX
8
0
6
CONTINUOUS
62
252
70
128
10
0.000000
20
0.000000
30
0.000000
71
106
72
47
73
105
0
VERTEX
8
0
6
CONTINUOUS
62
252
70
128
10
0.000000
20
0.000000
30
0.000000
71
105
72
47
73
48
0
VERTEX
8
0
6
CONTINUOUS
62
252
70
128
10
0.000000
20
0.000000
30
0.000000
71
105
72
48
73
104
0
VERTEX
8
0
6
CONTINUOUS
62
252
70
128
10
0.000000
20
0.000000
30
0.000000
71
104
72
48
73
49
0
VERTEX
8
0
6
CONTINUOUS
62
252
70
128
10
0.000000
20
0.000000
30
0.000000
71
104
72
49
73
103
0
VERTEX
8
0
6
CONTINUOUS
62
252
70
128
10
0.000000
20
0.000000
30
0.000000
71
103
72
49
73
102
0
VERTEX
8
0
6
CONTINUOUS
62
252
70
128
10
0.000000
20
0.000000
30
0.000000
71
102
72
49
73
50
0
VERTEX
8
0
6
CONTINUOUS
62
252
70
128
10
0.000000
20
0.000000
30
0.000000
71
102
72
50
73
51
0
VERTEX
8
0
6
CONTINUOUS
62
252
70
128
10
0.000000
20
0.000000
30
0.000000
71
102
72
51
73
101
0
VERTEX
8
0
6
CONTINUOUS
62
252
70
128
10
0.000000
20
0.000000
30
0.000000
71
101
72
51
73
52
0
VERTEX
8
0
6
CONTINUOUS
62
252
70
128
10
0.000000
20
0.000000
30
0.000000
71
101
72
52
73
100
0
VERTEX
8
0
6
CONTINUOUS
62
252
70
128
10
0.000000
20
0.000000
30
0.000000
71
100
72
52
73
99
0
VERTEX
8
0
6
CONTINUOUS
62
252
70
128
10
0.000000
20
0.000000
30
0.000000
71
99
72
52
73
53
0
VERTEX
8
0
6
CONTINUOUS
62
252
70
128
10
0.000000
20
0.000000
30
0.000000
71
99
72
53
73
54
0
VERTEX
8
0
6
CONTINUOUS
62
252
70
128
10
0.000000
20
0.000000
30
0.000000
71
99
72
54
73
98
0
VERTEX
8
0
6
CONTINUOUS
62
252
70
128
10
0.000000
20
0.000000
30
0.000000
71
98
72
54
73
55
0
VERTEX
8
0
6
CONTINUOUS
62
252
70
128
10
0.000000
20
0.000000
30
0.000000
71
98
72
55
73
97
0
VERTEX
8
0
6
CONTINUOUS
62
252
70
128
10
0.000000
20
0.000000
30
0.000000
71
97
72
55
73
96
0
VERTEX
8
0
6
CONTINUOUS
62
252
70
128
10
0.000000
20
0.000000
30
0.000000
71
96
72
55
73
56
0
VERTEX
8
0
6
CONTINUOUS
62
252
70
128
10
0.000000
20
0.000000
30
0.000000
71
96
72
56
73
95
0
VERTEX
8
0
6
CONTINUOUS
62
252
70
128
10
0.000000
20
0.000000
30
0.000000
71
95
72
56
73
57
0
VERTEX
8
0
6
CONTINUOUS
62
252
70
128
10
0.000000
20
0.000000
30
0.000000
71
95
72
57
73
58
0
VERTEX
8
0
6
CONTINUOUS
62
252
70
128
10
0.000000
20
0.000000
30
0.000000
71
59
72
93
73
58
0
VERTEX
8
0
6
CONTINUOUS
62
252
70
128
10
0.000000
20
0.000000
30
0.000000
71
58
72
93
73
94
0
VERTEX
8
0
6
CONTINUOUS
62
252
70
128
10
0.000000
20
0.000000
30
0.000000
71
58
72
94
73
95
0
VERTEX
8
0
6
CONTINUOUS
62
252
70
128
10
0.000000
20
0.000000
30
0.000000
71
59
72
60
73
93
0
VERTEX
8
0
6
CONTINUOUS
62
252
70
128
10
0.000000
20
0.000000
30
0.000000
71
93
72
60
73
92
0
VERTEX
8
0
6
CONTINUOUS
62
252
70
128
10
0.000000
20
0.000000
30
0.000000
71
92
72
60
73
1
0
SEQEND
0
POLYLINE
66
1
8
0
6
CONTINUOUS
62
252
70
64
75
0
10
0.000000
20
0.000000
30
0.000000
0
VERTEX
8
0
6
CONTINUOUS
62
252
70
192
10
0.750000
20
-0.281250
30
0.000000
0
VERTEX
8
0
6
CONTINUOUS
62
252
70
192
10
0.750000
20
-0.279709
30
-0.029399
0
VERTEX
8
0
6
CONTINUOUS
62
252
70
192
10
0.750000
20
-0.275104
30
-0.058475
0
VERTEX
8
0
6
CONTINUOUS
62
252
70
192
10
0.750000
20
-0.267485
30
-0.086911
0
VERTEX
8
0
6
CONTINUOUS
62
252
70
192
10
0.750000
20
-0.256935
30
-0.114395
0
VERTEX
8
0
6
CONTINUOUS
62
252
70
192
10
0.750000
20
-0.243570
30
-0.140625
0
VERTEX
8
0
6
CONTINUOUS
62
252
70
192
10
0.750000
20
-0.227536
30
-0.165315
0
VERTEX
8
0
6
CONTINUOUS
62
252
70
192
10
0.750000
20
-0.209009
30
-0.188193
0
VERTEX
8
0
6
CONTINUOUS
62
252
70
192
10
0.750000
20
-0.188193
30
-0.209009
0
VERTEX
8
0
6
CONTINUOUS
62
252
70
192
10
0.750000
20
-0.165315
30
-0.227536
0
VERTEX
8
0
6
CONTINUOUS
62
252
70
192
10
0.750000
20
-0.140625
30
-0.243570
0
VERTEX
8
0
6
CONTINUOUS
62
252
70
192
10
0.750000
20
-0.114395
30
-0.256935
0
VERTEX
8
0
6
CONTINUOUS
62
252
70
192
10
0.750000
20
-0.086911
30
-0.267485
0
VERTEX
8
0
6
CONTINUOUS
62
252
70
192
10
0.750000
20
-0.058475
30
-0.275104
0
VERTEX
8
0
6
CONTINUOUS
62
252
70
192
10
0.750000
20
-0.029399
30
-0.279709
0
VERTEX
8
0
6
CONTINUOUS
62
252
70
192
10
0.750000
20
-0.000000
30
-0.281250
0
VERTEX
8
0
6
CONTINUOUS
62
252
70
192
10
0.750000
20
0.029399
30
-0.279709
0
VERTEX
8
0
6
CONTINUOUS
62
252
70
192
10
0.750000
20
0.058475
30
-0.275104
0
VERTEX
8
0
6
CONTINUOUS
62
252
70
192
10
0.750000
20
0.086911
30
-0.267485
0
VERTEX
8
0
6
CONTINUOUS
62
252
70
192
10
0.750000
20
0.114395
30
-0.256935
0
VERTEX
8
0
6
CONTINUOUS
62
252
70
192
10
0.750000
20
0.140625
30
-0.243570
0
VERTEX
8
0
6
CONTINUOUS
62
252
70
192
10
0.750000
20
0.165315
30
-0.227536
0
VERTEX
8
0
6
CONTINUOUS
62
252
70
192
10
0.750000
20
0.188193
30
-0.209009
0
VERTEX
8
0
6
CONTINUOUS
62
252
70
192
10
0.750000
20
0.209009
30
-0.188193
0
VERTEX
8
0
6
CONTINUOUS
62
252
70
192
10
0.750000
20
0.227536
30
-0.165315
0
VERTEX
8
0
6
CONTINUOUS
62
252
70
192
10
0.750000
20
0.243570
30
-0.140625
0
VERTEX
8
0
6
CONTINUOUS
62
252
70
192
10
0.750000
20
0.256935
30
-0.114395
0
VERTEX
8
0
6
CONTINUOUS
62
252
70
192
10
0.750000
20
0.267485
30
-0.086911
0
VERTEX
8
0
6
CONTINUOUS
62
252
70
192
10
0.750000
20
0.275104
30
-0.058475
0
VERTEX
8
0
6
CONTINUOUS
62
252
70
192
10
0.750000
20
0.279709
30
-0.029399
0
VERTEX
8
0
6
CONTINUOUS
62
252
70
192
10
0.750000
20
0.281250
30
-0.000000
0
VERTEX
8
0
6
CONTINUOUS
62
252
70
192
10
0.750000
20
0.279709
30
0.029399
0
VERTEX
8
0
6
CONTINUOUS
62
252
70
192
10
0.750000
20
0.275104
30
0.058475
0
VERTEX
8
0
6
CONTINUOUS
62
252
70
192
10
0.750000
20
0.267485
30
0.086911
0
VERTEX
8
0
6
CONTINUOUS
62
252
70
192
10
0.750000
20
0.256935
30
0.114395
0
VERTEX
8
0
6
CONTINUOUS
62
252
70
192
10
0.750000
20
0.243570
30
0.140625
0
VERTEX
8
0
6
CONTINUOUS
62
252
70
192
10
0.750000
20
0.227536
30
0.165315
0
VERTEX
8
0
6
CONTINUOUS
62
252
70
192
10
0.750000
20
0.209009
30
0.188193
0
VERTEX
8
0
6
CONTINUOUS
62
252
70
192
10
0.750000
20
0.188193
30
0.209009
0
VERTEX
8
0
6
CONTINUOUS
62
252
70
192
10
0.750000
20
0.165315
30
0.227536
0
VERTEX
8
0
6
CONTINUOUS
62
252
70
192
10
0.750000
20
0.140625
30
0.243570
0
VERTEX
8
0
6
CONTINUOUS
62
252
70
192
10
0.750000
20
0.114395
30
0.256935
0
VERTEX
8
0
6
CONTINUOUS
62
252
70
192
10
0.750000
20
0.086911
30
0.267485
0
VERTEX
8
0
6
CONTINUOUS
62
252
70
192
10
0.750000
20
0.058475
30
0.275104
0
VERTEX
8
0
6
CONTINUOUS
62
252
70
192
10
0.750000
20
0.029399
30
0.279709
0
VERTEX
8
0
6
CONTINUOUS
62
252
70
192
10
0.750000
20
0.000000
30
0.281250
0
VERTEX
8
0
6
CONTINUOUS
62
252
70
192
10
0.750000
20
-0.029399
30
0.279709
0
VERTEX
8
0
6
CONTINUOUS
62
252
70
192
10
0.750000
20
-0.058475
30
0.275104
0
VERTEX
8
0
6
CONTINUOUS
62
252
70
192
10
0.750000
20
-0.086911
30
0.267485
0
VERTEX
8
0
6
CONTINUOUS
62
252
70
192
10
0.750000
20
-0.114395
30
0.256935
0
VERTEX
8
0
6
CONTINUOUS
62
252
70
192
10
0.750000
20
-0.140625
30
0.243570
0
VERTEX
8
0
6
CONTINUOUS
62
252
70
192
10
0.750000
20
-0.165315
30
0.227536
0
VERTEX
8
0
6
CONTINUOUS
62
252
70
192
10
0.750000
20
-0.188193
30
0.209009
0
VERTEX
8
0
6
CONTINUOUS
62
252
70
192
10
0.750000
20
-0.209009
30
0.188193
0
VERTEX
8
0
6
CONTINUOUS
62
252
70
192
10
0.750000
20
-0.227536
30
0.165315
0
VERTEX
8
0
6
CONTINUOUS
62
252
70
192
10
0.750000
20
-0.243570
30
0.140625
0
VERTEX
8
0
6
CONTINUOUS
62
252
70
192
10
0.750000
20
-0.256935
30
0.114395
0
VERTEX
8
0
6
CONTINUOUS
62
252
70
192
10
0.750000
20
-0.267485
30
0.086911
0
VERTEX
8
0
6
CONTINUOUS
62
252
70
192
10
0.750000
20
-0.275104
30
0.058475
0
VERTEX
8
0
6
CONTINUOUS
62
252
70
192
10
0.750000
20
-0.279709
30
0.029399
0
VERTEX
8
0
6
CONTINUOUS
62
252
70
192
10
0.750000
20
0.000000
30
0.125000
0
VERTEX
8
0
6
CONTINUOUS
62
252
70
192
10
0.750000
20
0.013066
30
0.124315
0
VERTEX
8
0
6
CONTINUOUS
62
252
70
192
10
0.750000
20
0.025989
30
0.122268
0
VERTEX
8
0
6
CONTINUOUS
62
252
70
192
10
0.750000
20
0.038627
30
0.118882
0
VERTEX
8
0
6
CONTINUOUS
62
252
70
192
10
0.750000
20
0.050842
30
0.114193
0
VERTEX
8
0
6
CONTINUOUS
62
252
70
192
10
0.750000
20
0.062500
30
0.108253
0
VERTEX
8
0
6
CONTINUOUS
62
252
70
192
10
0.750000
20
0.073473
30
0.101127
0
VERTEX
8
0
6
CONTINUOUS
62
252
70
192
10
0.750000
20
0.083641
30
0.092893
0
VERTEX
8
0
6
CONTINUOUS
62
252
70
192
10
0.750000
20
0.092893
30
0.083641
0
VERTEX
8
0
6
CONTINUOUS
62
252
70
192
10
0.750000
20
0.101127
30
0.073473
0
VERTEX
8
0
6
CONTINUOUS
62
252
70
192
10
0.750000
20
0.108253
30
0.062500
0
VERTEX
8
0
6
CONTINUOUS
62
252
70
192
10
0.750000
20
0.114193
30
0.050842
0
VERTEX
8
0
6
CONTINUOUS
62
252
70
192
10
0.750000
20
0.118882
30
0.038627
0
VERTEX
8
0
6
CONTINUOUS
62
252
70
192
10
0.750000
20
0.122268
30
0.025989
0
VERTEX
8
0
6
CONTINUOUS
62
252
70
192
10
0.750000
20
0.124315
30
0.013066
0
VERTEX
8
0
6
CONTINUOUS
62
252
70
192
10
0.750000
20
0.125000
30
0.000000
0
VERTEX
8
0
6
CONTINUOUS
62
252
70
192
10
0.750000
20
0.124315
30
-0.013066
0
VERTEX
8
0
6
CONTINUOUS
62
252
70
192
10
0.750000
20
0.122268
30
-0.025989
0
VERTEX
8
0
6
CONTINUOUS
62
252
70
192
10
0.750000
20
0.118882
30
-0.038627
0
VERTEX
8
0
6
CONTINUOUS
62
252
70
192
10
0.750000
20
0.114193
30
-0.050842
0
VERTEX
8
0
6
CONTINUOUS
62
252
70
192
10
0.750000
20
0.108253
30
-0.062500
0
VERTEX
8
0
6
CONTINUOUS
62
252
70
192
10
0.750000
20
0.101127
30
-0.073473
0
VERTEX
8
0
6
CONTINUOUS
62
252
70
192
10
0.750000
20
0.092893
30
-0.083641
0
VERTEX
8
0
6
CONTINUOUS
62
252
70
192
10
0.750000
20
0.083641
30
-0.092893
0
VERTEX
8
0
6
CONTINUOUS
62
252
70
192
10
0.750000
20
0.073473
30
-0.101127
0
VERTEX
8
0
6
CONTINUOUS
62
252
70
192
10
0.750000
20
0.062500
30
-0.108253
0
VERTEX
8
0
6
CONTINUOUS
62
252
70
192
10
0.750000
20
0.050842
30
-0.114193
0
VERTEX
8
0
6
CONTINUOUS
62
252
70
192
10
0.750000
20
0.038627
30
-0.118882
0
VERTEX
8
0
6
CONTINUOUS
62
252
70
192
10
0.750000
20
0.025989
30
-0.122268
0
VERTEX
8
0
6
CONTINUOUS
62
252
70
192
10
0.750000
20
0.013066
30
-0.124315
0
VERTEX
8
0
6
CONTINUOUS
62
252
70
192
10
0.750000
20
0.000000
30
-0.125000
0
VERTEX
8
0
6
CONTINUOUS
62
252
70
192
10
0.750000
20
-0.013066
30
-0.124315
0
VERTEX
8
0
6
CONTINUOUS
62
252
70
192
10
0.750000
20
-0.025989
30
-0.122268
0
VERTEX
8
0
6
CONTINUOUS
62
252
70
192
10
0.750000
20
-0.038627
30
-0.118882
0
VERTEX
8
0
6
CONTINUOUS
62
252
70
192
10
0.750000
20
-0.050842
30
-0.114193
0
VERTEX
8
0
6
CONTINUOUS
62
252
70
192
10
0.750000
20
-0.062500
30
-0.108253
0
VERTEX
8
0
6
CONTINUOUS
62
252
70
192
10
0.750000
20
-0.073473
30
-0.101127
0
VERTEX
8
0
6
CONTINUOUS
62
252
70
192
10
0.750000
20
-0.083641
30
-0.092893
0
VERTEX
8
0
6
CONTINUOUS
62
252
70
192
10
0.750000
20
-0.092893
30
-0.083641
0
VERTEX
8
0
6
CONTINUOUS
62
252
70
192
10
0.750000
20
-0.101127
30
-0.073473
0
VERTEX
8
0
6
CONTINUOUS
62
252
70
192
10
0.750000
20
-0.108253
30
-0.062500
0
VERTEX
8
0
6
CONTINUOUS
62
252
70
192
10
0.750000
20
-0.114193
30
-0.050842
0
VERTEX
8
0
6
CONTINUOUS
62
252
70
192
10
0.750000
20
-0.118882
30
-0.038627
0
VERTEX
8
0
6
CONTINUOUS
62
252
70
192
10
0.750000
20
-0.122268
30
-0.025989
0
VERTEX
8
0
6
CONTINUOUS
62
252
70
192
10
0.750000
20
-0.124315
30
-0.013066
0
VERTEX
8
0
6
CONTINUOUS
62
252
70
192
10
0.750000
20
-0.125000
30
-0.000000
0
VERTEX
8
0
6
CONTINUOUS
62
252
70
192
10
0.750000
20
-0.124315
30
0.013066
0
VERTEX
8
0
6
CONTINUOUS
62
252
70
192
10
0.750000
20
-0.122268
30
0.025989
0
VERTEX
8
0
6
CONTINUOUS
62
252
70
192
10
0.750000
20
-0.118882
30
0.038627
0
VERTEX
8
0
6
CONTINUOUS
62
252
70
192
10
0.750000
20
-0.114193
30
0.050842
0
VERTEX
8
0
6
CONTINUOUS
62
252
70
192
10
0.750000
20
-0.108253
30
0.062500
0
VERTEX
8
0
6
CONTINUOUS
62
252
70
192
10
0.750000
20
-0.101127
30
0.073473
0
VERTEX
8
0
6
CONTINUOUS
62
252
70
192
10
0.750000
20
-0.092893
30
0.083641
0
VERTEX
8
0
6
CONTINUOUS
62
252
70
192
10
0.750000
20
-0.083641
30
0.092893
0
VERTEX
8
0
6
CONTINUOUS
62
252
70
192
10
0.750000
20
-0.073473
30
0.101127
0
VERTEX
8
0
6
CONTINUOUS
62
252
70
192
10
0.750000
20
-0.062500
30
0.108253
0
VERTEX
8
0
6
CONTINUOUS
62
252
70
192
10
0.750000
20
-0.050842
30
0.114193
0
VERTEX
8
0
6
CONTINUOUS
62
252
70
192
10
0.750000
20
-0.038627
30
0.118882
0
VERTEX
8
0
6
CONTINUOUS
62
252
70
192
10
0.750000
20
-0.025989
30
0.122268
0
VERTEX
8
0
6
CONTINUOUS
62
252
70
192
10
0.750000
20
-0.013066
30
0.124315
0
VERTEX
8
0
6
CONTINUOUS
62
252
70
128
10
0.000000
20
0.000000
30
0.000000
71
2
72
105
73
1
0
VERTEX
8
0
6
CONTINUOUS
62
252
70
128
10
0.000000
20
0.000000
30
0.000000
71
1
72
105
73
106
0
VERTEX
8
0
6
CONTINUOUS
62
252
70
128
10
0.000000
20
0.000000
30
0.000000
71
1
72
106
73
107
0
VERTEX
8
0
6
CONTINUOUS
62
252
70
128
10
0.000000
20
0.000000
30
0.000000
71
2
72
3
73
105
0
VERTEX
8
0
6
CONTINUOUS
62
252
70
128
10
0.000000
20
0.000000
30
0.000000
71
105
72
3
73
104
0
VERTEX
8
0
6
CONTINUOUS
62
252
70
128
10
0.000000
20
0.000000
30
0.000000
71
104
72
3
73
4
0
VERTEX
8
0
6
CONTINUOUS
62
252
70
128
10
0.000000
20
0.000000
30
0.000000
71
104
72
4
73
103
0
VERTEX
8
0
6
CONTINUOUS
62
252
70
128
10
0.000000
20
0.000000
30
0.000000
71
103
72
4
73
5
0
VERTEX
8
0
6
CONTINUOUS
62
252
70
128
10
0.000000
20
0.000000
30
0.000000
71
103
72
5
73
102
0
VERTEX
8
0
6
CONTINUOUS
62
252
70
128
10
0.000000
20
0.000000
30
0.000000
71
102
72
5
73
6
0
VERTEX
8
0
6
CONTINUOUS
62
252
70
128
10
0.000000
20
0.000000
30
0.000000
71
102
72
6
73
101
0
VERTEX
8
0
6
CONTINUOUS
62
252
70
128
10
0.000000
20
0.000000
30
0.000000
71
101
72
6
73
7
0
VERTEX
8
0
6
CONTINUOUS
62
252
70
128
10
0.000000
20
0.000000
30
0.000000
71
101
72
7
73
100
0
VERTEX
8
0
6
CONTINUOUS
62
252
70
128
10
0.000000
20
0.000000
30
0.000000
71
100
72
7
73
8
0
VERTEX
8
0
6
CONTINUOUS
62
252
70
128
10
0.000000
20
0.000000
30
0.000000
71
100
72
8
73
99
0
VERTEX
8
0
6
CONTINUOUS
62
252
70
128
10
0.000000
20
0.000000
30
0.000000
71
99
72
8
73
9
0
VERTEX
8
0
6
CONTINUOUS
62
252
70
128
10
0.000000
20
0.000000
30
0.000000
71
99
72
9
73
98
0
VERTEX
8
0
6
CONTINUOUS
62
252
70
128
10
0.000000
20
0.000000
30
0.000000
71
98
72
9
73
10
0
VERTEX
8
0
6
CONTINUOUS
62
252
70
128
10
0.000000
20
0.000000
30
0.000000
71
98
72
10
73
97
0
VERTEX
8
0
6
CONTINUOUS
62
252
70
128
10
0.000000
20
0.000000
30
0.000000
71
97
72
10
73
11
0
VERTEX
8
0
6
CONTINUOUS
62
252
70
128
10
0.000000
20
0.000000
30
0.000000
71
97
72
11
73
96
0
VERTEX
8
0
6
CONTINUOUS
62
252
70
128
10
0.000000
20
0.000000
30
0.000000
71
96
72
11
73
95
0
VERTEX
8
0
6
CONTINUOUS
62
252
70
128
10
0.000000
20
0.000000
30
0.000000
71
95
72
11
73
12
0
VERTEX
8
0
6
CONTINUOUS
62
252
70
128
10
0.000000
20
0.000000
30
0.000000
71
95
72
12
73
13
0
VERTEX
8
0
6
CONTINUOUS
62
252
70
128
10
0.000000
20
0.000000
30
0.000000
71
95
72
13
73
94
0
VERTEX
8
0
6
CONTINUOUS
62
252
70
128
10
0.000000
20
0.000000
30
0.000000
71
94
72
13
73
14
0
VERTEX
8
0
6
CONTINUOUS
62
252
70
128
10
0.000000
20
0.000000
30
0.000000
71
94
72
14
73
93
0
VERTEX
8
0
6
CONTINUOUS
62
252
70
128
10
0.000000
20
0.000000
30
0.000000
71
93
72
14
73
15
0
VERTEX
8
0
6
CONTINUOUS
62
252
70
128
10
0.000000
20
0.000000
30
0.000000
71
93
72
15
73
92
0
VERTEX
8
0
6
CONTINUOUS
62
252
70
128
10
0.000000
20
0.000000
30
0.000000
71
92
72
15
73
16
0
VERTEX
8
0
6
CONTINUOUS
62
252
70
128
10
0.000000
20
0.000000
30
0.000000
71
92
72
16
73
91
0
VERTEX
8
0
6
CONTINUOUS
62
252
70
128
10
0.000000
20
0.000000
30
0.000000
71
91
72
16
73
17
0
VERTEX
8
0
6
CONTINUOUS
62
252
70
128
10
0.000000
20
0.000000
30
0.000000
71
91
72
17
73
90
0
VERTEX
8
0
6
CONTINUOUS
62
252
70
128
10
0.000000
20
0.000000
30
0.000000
71
90
72
17
73
18
0
VERTEX
8
0
6
CONTINUOUS
62
252
70
128
10
0.000000
20
0.000000
30
0.000000
71
90
72
18
73
89
0
VERTEX
8
0
6
CONTINUOUS
62
252
70
128
10
0.000000
20
0.000000
30
0.000000
71
89
72
18
73
19
0
VERTEX
8
0
6
CONTINUOUS
62
252
70
128
10
0.000000
20
0.000000
30
0.000000
71
89
72
19
73
88
0
VERTEX
8
0
6
CONTINUOUS
62
252
70
128
10
0.000000
20
0.000000
30
0.000000
71
88
72
19
73
20
0
VERTEX
8
0
6
CONTINUOUS
62
252
70
128
10
0.000000
20
0.000000
30
0.000000
71
88
72
20
73
87
0
VERTEX
8
0
6
CONTINUOUS
62
252
70
128
10
0.000000
20
0.000000
30
0.000000
71
87
72
20
73
21
0
VERTEX
8
0
6
CONTINUOUS
62
252
70
128
10
0.000000
20
0.000000
30
0.000000
71
87
72
21
73
86
0
VERTEX
8
0
6
CONTINUOUS
62
252
70
128
10
0.000000
20
0.000000
30
0.000000
71
86
72
21
73
22
0
VERTEX
8
0
6
CONTINUOUS
62
252
70
128
10
0.000000
20
0.000000
30
0.000000
71
86
72
22
73
85
0
VERTEX
8
0
6
CONTINUOUS
62
252
70
128
10
0.000000
20
0.000000
30
0.000000
71
85
72
22
73
23
0
VERTEX
8
0
6
CONTINUOUS
62
252
70
128
10
0.000000
20
0.000000
30
0.000000
71
85
72
23
73
84
0
VERTEX
8
0
6
CONTINUOUS
62
252
70
128
10
0.000000
20
0.000000
30
0.000000
71
84
72
23
73
24
0
VERTEX
8
0
6
CONTINUOUS
62
252
70
128
10
0.000000
20
0.000000
30
0.000000
71
84
72
24
73
83
0
VERTEX
8
0
6
CONTINUOUS
62
252
70
128
10
0.000000
20
0.000000
30
0.000000
71
83
72
24
73
25
0
VERTEX
8
0
6
CONTINUOUS
62
252
70
128
10
0.000000
20
0.000000
30
0.000000
71
83
72
25
73
82
0
VERTEX
8
0
6
CONTINUOUS
62
252
70
128
10
0.000000
20
0.000000
30
0.000000
71
82
72
25
73
26
0
VERTEX
8
0
6
CONTINUOUS
62
252
70
128
10
0.000000
20
0.000000
30
0.000000
71
82
72
26
73
81
0
VERTEX
8
0
6
CONTINUOUS
62
252
70
128
10
0.000000
20
0.000000
30
0.000000
71
81
72
26
73
27
0
VERTEX
8
0
6
CONTINUOUS
62
252
70
128
10
0.000000
20
0.000000
30
0.000000
71
81
72
27
73
80
0
VERTEX
8
0
6
CONTINUOUS
62
252
70
128
10
0.000000
20
0.000000
30
0.000000
71
80
72
27
73
28
0
VERTEX
8
0
6
CONTINUOUS
62
252
70
128
10
0.000000
20
0.000000
30
0.000000
71
80
72
28
73
79
0
VERTEX
8
0
6
CONTINUOUS
62
252
70
128
10
0.000000
20
0.000000
30
0.000000
71
79
72
28
73
29
0
VERTEX
8
0
6
CONTINUOUS
62
252
70
128
10
0.000000
20
0.000000
30
0.000000
71
79
72
29
73
78
0
VERTEX
8
0
6
CONTINUOUS
62
252
70
128
10
0.000000
20
0.000000
30
0.000000
71
78
72
29
73
30
0
VERTEX
8
0
6
CONTINUOUS
62
252
70
128
10
0.000000
20
0.000000
30
0.000000
71
78
72
30
73
77
0
VERTEX
8
0
6
CONTINUOUS
62
252
70
128
10
0.000000
20
0.000000
30
0.000000
71
77
72
30
73
31
0
VERTEX
8
0
6
CONTINUOUS
62
252
70
128
10
0.000000
20
0.000000
30
0.000000
71
77
72
31
73
76
0
VERTEX
8
0
6
CONTINUOUS
62
252
70
128
10
0.000000
20
0.000000
30
0.000000
71
76
72
31
73
75
0
VERTEX
8
0
6
CONTINUOUS
62
252
70
128
10
0.000000
20
0.000000
30
0.000000
71
75
72
31
73
32
0
VERTEX
8
0
6
CONTINUOUS
62
252
70
128
10
0.000000
20
0.000000
30
0.000000
71
75
72
32
73
33
0
VERTEX
8
0
6
CONTINUOUS
62
252
70
128
10
0.000000
20
0.000000
30
0.000000
71
34
72
73
73
33
0
VERTEX
8
0
6
CONTINUOUS
62
252
70
128
10
0.000000
20
0.000000
30
0.000000
71
33
72
73
73
74
0
VERTEX
8
0
6
CONTINUOUS
62
252
70
128
10
0.000000
20
0.000000
30
0.000000
71
33
72
74
73
75
0
VERTEX
8
0
6
CONTINUOUS
62
252
70
128
10
0.000000
20
0.000000
30
0.000000
71
73
72
34
73
72
0
VERTEX
8
0
6
CONTINUOUS
62
252
70
128
10
0.000000
20
0.000000
30
0.000000
71
72
72
34
73
35
0
VERTEX
8
0
6
CONTINUOUS
62
252
70
128
10
0.000000
20
0.000000
30
0.000000
71
72
72
35
73
71
0
VERTEX
8
0
6
CONTINUOUS
62
252
70
128
10
0.000000
20
0.000000
30
0.000000
71
71
72
35
73
36
0
VERTEX
8
0
6
CONTINUOUS
62
252
70
128
10
0.000000
20
0.000000
30
0.000000
71
71
72
36
73
70
0
VERTEX
8
0
6
CONTINUOUS
62
252
70
128
10
0.000000
20
0.000000
30
0.000000
71
70
72
36
73
37
0
VERTEX
8
0
6
CONTINUOUS
62
252
70
128
10
0.000000
20
0.000000
30
0.000000
71
70
72
37
73
38
0
VERTEX
8
0
6
CONTINUOUS
62
252
70
128
10
0.000000
20
0.000000
30
0.000000
71
39
72
68
73
38
0
VERTEX
8
0
6
CONTINUOUS
62
252
70
128
10
0.000000
20
0.000000
30
0.000000
71
38
72
68
73
69
0
VERTEX
8
0
6
CONTINUOUS
62
252
70
128
10
0.000000
20
0.000000
30
0.000000
71
38
72
69
73
70
0
VERTEX
8
0
6
CONTINUOUS
62
252
70
128
10
0.000000
20
0.000000
30
0.000000
71
68
72
39
73
67
0
VERTEX
8
0
6
CONTINUOUS
62
252
70
128
10
0.000000
20
0.000000
30
0.000000
71
67
72
39
73
40
0
VERTEX
8
0
6
CONTINUOUS
62
252
70
128
10
0.000000
20
0.000000
30
0.000000
71
67
72
40
73
66
0
VERTEX
8
0
6
CONTINUOUS
62
252
70
128
10
0.000000
20
0.000000
30
0.000000
71
66
72
40
73
41
0
VERTEX
8
0
6
CONTINUOUS
62
252
70
128
10
0.000000
20
0.000000
30
0.000000
71
66
72
41
73
42
0
VERTEX
8
0
6
CONTINUOUS
62
252
70
128
10
0.000000
20
0.000000
30
0.000000
71
43
72
64
73
42
0
VERTEX
8
0
6
CONTINUOUS
62
252
70
128
10
0.000000
20
0.000000
30
0.000000
71
42
72
64
73
65
0
VERTEX
8
0
6
CONTINUOUS
62
252
70
128
10
0.000000
20
0.000000
30
0.000000
71
42
72
65
73
66
0
VERTEX
8
0
6
CONTINUOUS
62
252
70
128
10
0.000000
20
0.000000
30
0.000000
71
64
72
43
73
63
0
VERTEX
8
0
6
CONTINUOUS
62
252
70
128
10
0.000000
20
0.000000
30
0.000000
71
63
72
43
73
44
0
VERTEX
8
0
6
CONTINUOUS
62
252
70
128
10
0.000000
20
0.000000
30
0.000000
71
63
72
44
73
45
0
VERTEX
8
0
6
CONTINUOUS
62
252
70
128
10
0.000000
20
0.000000
30
0.000000
71
46
72
61
73
45
0
VERTEX
8
0
6
CONTINUOUS
62
252
70
128
10
0.000000
20
0.000000
30
0.000000
71
45
72
61
73
62
0
VERTEX
8
0
6
CONTINUOUS
62
252
70
128
10
0.000000
20
0.000000
30
0.000000
71
45
72
62
73
63
0
VERTEX
8
0
6
CONTINUOUS
62
252
70
128
10
0.000000
20
0.000000
30
0.000000
71
61
72
46
73
120
0
VERTEX
8
0
6
CONTINUOUS
62
252
70
128
10
0.000000
20
0.000000
30
0.000000
71
120
72
46
73
47
0
VERTEX
8
0
6
CONTINUOUS
62
252
70
128
10
0.000000
20
0.000000
30
0.000000
71
120
72
47
73
48
0
VERTEX
8
0
6
CONTINUOUS
62
252
70
128
10
0.000000
20
0.000000
30
0.000000
71
120
72
48
73
119
0
VERTEX
8
0
6
CONTINUOUS
62
252
70
128
10
0.000000
20
0.000000
30
0.000000
71
119
72
48
73
49
0
VERTEX
8
0
6
CONTINUOUS
62
252
70
128
10
0.000000
20
0.000000
30
0.000000
71
119
72
49
73
118
0
VERTEX
8
0
6
CONTINUOUS
62
252
70
128
10
0.000000
20
0.000000
30
0.000000
71
118
72
49
73
50
0
VERTEX
8
0
6
CONTINUOUS
62
252
70
128
10
0.000000
20
0.000000
30
0.000000
71
118
72
50
73
117
0
VERTEX
8
0
6
CONTINUOUS
62
252
70
128
10
0.000000
20
0.000000
30
0.000000
71
117
72
50
73
51
0
VERTEX
8
0
6
CONTINUOUS
62
252
70
128
10
0.000000
20
0.000000
30
0.000000
71
117
72
51
73
116
0
VERTEX
8
0
6
CONTINUOUS
62
252
70
128
10
0.000000
20
0.000000
30
0.000000
71
116
72
51
73
115
0
VERTEX
8
0
6
CONTINUOUS
62
252
70
128
10
0.000000
20
0.000000
30
0.000000
71
115
72
51
73
52
0
VERTEX
8
0
6
CONTINUOUS
62
252
70
128
10
0.000000
20
0.000000
30
0.000000
71
115
72
52
73
53
0
VERTEX
8
0
6
CONTINUOUS
62
252
70
128
10
0.000000
20
0.000000
30
0.000000
71
115
72
53
73
114
0
VERTEX
8
0
6
CONTINUOUS
62
252
70
128
10
0.000000
20
0.000000
30
0.000000
71
114
72
53
73
54
0
VERTEX
8
0
6
CONTINUOUS
62
252
70
128
10
0.000000
20
0.000000
30
0.000000
71
114
72
54
73
113
0
VERTEX
8
0
6
CONTINUOUS
62
252
70
128
10
0.000000
20
0.000000
30
0.000000
71
113
72
54
73
55
0
VERTEX
8
0
6
CONTINUOUS
62
252
70
128
10
0.000000
20
0.000000
30
0.000000
71
113
72
55
73
112
0
VERTEX
8
0
6
CONTINUOUS
62
252
70
128
10
0.000000
20
0.000000
30
0.000000
71
112
72
55
73
56
0
VERTEX
8
0
6
CONTINUOUS
62
252
70
128
10
0.000000
20
0.000000
30
0.000000
71
112
72
56
73
111
0
VERTEX
8
0
6
CONTINUOUS
62
252
70
128
10
0.000000
20
0.000000
30
0.000000
71
111
72
56
73
110
0
VERTEX
8
0
6
CONTINUOUS
62
252
70
128
10
0.000000
20
0.000000
30
0.000000
71
110
72
56
73
57
0
VERTEX
8
0
6
CONTINUOUS
62
252
70
128
10
0.000000
20
0.000000
30
0.000000
71
110
72
57
73
58
0
VERTEX
8
0
6
CONTINUOUS
62
252
70
128
10
0.000000
20
0.000000
30
0.000000
71
110
72
58
73
109
0
VERTEX
8
0
6
CONTINUOUS
62
252
70
128
10
0.000000
20
0.000000
30
0.000000
71
109
72
58
73
59
0
VERTEX
8
0
6
CONTINUOUS
62
252
70
128
10
0.000000
20
0.000000
30
0.000000
71
109
72
59
73
108
0
VERTEX
8
0
6
CONTINUOUS
62
252
70
128
10
0.000000
20
0.000000
30
0.000000
71
108
72
59
73
60
0
VERTEX
8
0
6
CONTINUOUS
62
252
70
128
10
0.000000
20
0.000000
30
0.000000
71
108
72
60
73
107
0
VERTEX
8
0
6
CONTINUOUS
62
252
70
128
10
0.000000
20
0.000000
30
0.000000
71
107
72
60
73
1
0
SEQEND
0
POLYLINE
66
1
8
0
6
CONTINUOUS
62
252
70
64
75
0
10
0.000000
20
0.000000
30
0.000000
0
VERTEX
8
0
6
CONTINUOUS
62
252
70
192
10
0.750000
20
-0.140625
30
0.243570
0
VERTEX
8
0
6
CONTINUOUS
62
252
70
192
10
0.748750
20
-0.174337
30
0.224106
0
VERTEX
8
0
6
CONTINUOUS
62
252
70
192
10
0.745022
20
-0.208366
30
0.204459
0
VERTEX
8
0
6
CONTINUOUS
62
252
70
192
10
0.738748
20
-0.243663
30
0.184081
0
VERTEX
8
0
6
CONTINUOUS
62
252
70
192
10
0.729711
20
-0.281250
30
0.162380
0
VERTEX
8
0
6
CONTINUOUS
62
252
70
192
10
0.738748
20
-0.281250
30
0.118978
0
VERTEX
8
0
6
CONTINUOUS
62
252
70
192
10
0.745022
20
-0.281250
30
0.078221
0
VERTEX
8
0
6
CONTINUOUS
62
252
70
192
10
0.748750
20
-0.281250
30
0.038928
0
VERTEX
8
0
6
CONTINUOUS
62
252
70
192
10
0.750000
20
-0.281250
30
0.000000
0
VERTEX
8
0
6
CONTINUOUS
62
252
70
192
10
0.750000
20
-0.279709
30
0.029399
0
VERTEX
8
0
6
CONTINUOUS
62
252
70
192
10
0.750000
20
-0.275104
30
0.058475
0
VERTEX
8
0
6
CONTINUOUS
62
252
70
192
10
0.750000
20
-0.267485
30
0.086911
0
VERTEX
8
0
6
CONTINUOUS
62
252
70
192
10
0.750000
20
-0.256935
30
0.114395
0
VERTEX
8
0
6
CONTINUOUS
62
252
70
192
10
0.750000
20
-0.243570
30
0.140625
0
VERTEX
8
0
6
CONTINUOUS
62
252
70
192
10
0.750000
20
-0.227536
30
0.165315
0
VERTEX
8
0
6
CONTINUOUS
62
252
70
192
10
0.750000
20
-0.209009
30
0.188193
0
VERTEX
8
0
6
CONTINUOUS
62
252
70
192
10
0.750000
20
-0.188193
30
0.209009
0
VERTEX
8
0
6
CONTINUOUS
62
252
70
192
10
0.750000
20
-0.165315
30
0.227536
0
VERTEX
8
0
6
CONTINUOUS
62
252
70
128
10
0.000000
20
0.000000
30
0.000000
71
1
72
2
73
18
0
VERTEX
8
0
6
CONTINUOUS
62
252
70
128
10
0.000000
20
0.000000
30
0.000000
71
18
72
2
73
17
0
VERTEX
8
0
6
CONTINUOUS
62
252
70
128
10
0.000000
20
0.000000
30
0.000000
71
17
72
2
73
3
0
VERTEX
8
0
6
CONTINUOUS
62
252
70
128
10
0.000000
20
0.000000
30
0.000000
71
17
72
3
73
16
0
VERTEX
8
0
6
CONTINUOUS
62
252
70
128
10
0.000000
20
0.000000
30
0.000000
71
16
72
3
73
4
0
VERTEX
8
0
6
CONTINUOUS
62
252
70
128
10
0.000000
20
0.000000
30
0.000000
71
16
72
4
73
15
0
VERTEX
8
0
6
CONTINUOUS
62
252
70
128
10
0.000000
20
0.000000
30
0.000000
71
15
72
4
73
5
0
VERTEX
8
0
6
CONTINUOUS
62
252
70
128
10
0.000000
20
0.000000
30
0.000000
71
15
72
5
73
14
0
VERTEX
8
0
6
CONTINUOUS
62
252
70
128
10
0.000000
20
0.000000
30
0.000000
71
14
72
5
73
13
0
VERTEX
8
0
6
CONTINUOUS
62
252
70
128
10
0.000000
20
0.000000
30
0.000000
71
13
72
5
73
6
0
VERTEX
8
0
6
CONTINUOUS
62
252
70
128
10
0.000000
20
0.000000
30
0.000000
71
13
72
6
73
12
0
VERTEX
8
0
6
CONTINUOUS
62
252
70
128
10
0.000000
20
0.000000
30
0.000000
71
12
72
6
73
7
0
VERTEX
8
0
6
CONTINUOUS
62
252
70
128
10
0.000000
20
0.000000
30
0.000000
71
12
72
7
73
11
0
VERTEX
8
0
6
CONTINUOUS
62
252
70
128
10
0.000000
20
0.000000
30
0.000000
71
11
72
7
73
8
0
VERTEX
8
0
6
CONTINUOUS
62
252
70
128
10
0.000000
20
0.000000
30
0.000000
71
11
72
8
73
10
0
VERTEX
8
0
6
CONTINUOUS
62
252
70
128
10
0.000000
20
0.000000
30
0.000000
71
10
72
8
73
9
0
SEQEND
0
POLYLINE
66
1
8
0
6
CONTINUOUS
62
252
70
64
75
0
10
0.000000
20
0.000000
30
0.000000
0
VERTEX
8
0
6
CONTINUOUS
62
252
70
192
10
0.729711
20
-0.281250
30
-0.162380
0
VERTEX
8
0
6
CONTINUOUS
62
252
70
192
10
0.738748
20
-0.243663
30
-0.184081
0
VERTEX
8
0
6
CONTINUOUS
62
252
70
192
10
0.745022
20
-0.208366
30
-0.204459
0
VERTEX
8
0
6
CONTINUOUS
62
252
70
192
10
0.748750
20
-0.174337
30
-0.224106
0
VERTEX
8
0
6
CONTINUOUS
62
252
70
192
10
0.750000
20
-0.140625
30
-0.243570
0
VERTEX
8
0
6
CONTINUOUS
62
252
70
192
10
0.750000
20
-0.165315
30
-0.227536
0
VERTEX
8
0
6
CONTINUOUS
62
252
70
192
10
0.750000
20
-0.188193
30
-0.209009
0
VERTEX
8
0
6
CONTINUOUS
62
252
70
192
10
0.750000
20
-0.209009
30
-0.188193
0
VERTEX
8
0
6
CONTINUOUS
62
252
70
192
10
0.750000
20
-0.227536
30
-0.165315
0
VERTEX
8
0
6
CONTINUOUS
62
252
70
192
10
0.750000
20
-0.243570
30
-0.140625
0
VERTEX
8
0
6
CONTINUOUS
62
252
70
192
10
0.750000
20
-0.256935
30
-0.114395
0
VERTEX
8
0
6
CONTINUOUS
62
252
70
192
10
0.750000
20
-0.267485
30
-0.086911
0
VERTEX
8
0
6
CONTINUOUS
62
252
70
192
10
0.750000
20
-0.275104
30
-0.058475
0
VERTEX
8
0
6
CONTINUOUS
62
252
70
192
10
0.750000
20
-0.279709
30
-0.029399
0
VERTEX
8
0
6
CONTINUOUS
62
252
70
192
10
0.750000
20
-0.281250
30
0.000000
0
VERTEX
8
0
6
CONTINUOUS
62
252
70
192
10
0.748750
20
-0.281250
30
-0.038928
0
VERTEX
8
0
6
CONTINUOUS
62
252
70
192
10
0.745022
20
-0.281250
30
-0.078221
0
VERTEX
8
0
6
CONTINUOUS
62
252
70
192
10
0.738748
20
-0.281250
30
-0.118978
0
VERTEX
8
0
6
CONTINUOUS
62
252
70
128
10
0.000000
20
0.000000
30
0.000000
71
2
72
9
73
1
0
VERTEX
8
0
6
CONTINUOUS
62
252
70
128
10
0.000000
20
0.000000
30
0.000000
71
1
72
9
73
10
0
VERTEX
8
0
6
CONTINUOUS
62
252
70
128
10
0.000000
20
0.000000
30
0.000000
71
1
72
10
73
11
0
VERTEX
8
0
6
CONTINUOUS
62
252
70
128
10
0.000000
20
0.000000
30
0.000000
71
9
72
2
73
8
0
VERTEX
8
0
6
CONTINUOUS
62
252
70
128
10
0.000000
20
0.000000
30
0.000000
71
8
72
2
73
3
0
VERTEX
8
0
6
CONTINUOUS
62
252
70
128
10
0.000000
20
0.000000
30
0.000000
71
8
72
3
73
7
0
VERTEX
8
0
6
CONTINUOUS
62
252
70
128
10
0.000000
20
0.000000
30
0.000000
71
7
72
3
73
4
0
VERTEX
8
0
6
CONTINUOUS
62
252
70
128
10
0.000000
20
0.000000
30
0.000000
71
7
72
4
73
6
0
VERTEX
8
0
6
CONTINUOUS
62
252
70
128
10
0.000000
20
0.000000
30
0.000000
71
6
72
4
73
5
0
VERTEX
8
0
6
CONTINUOUS
62
252
70
128
10
0.000000
20
0.000000
30
0.000000
71
1
72
11
73
18
0
VERTEX
8
0
6
CONTINUOUS
62
252
70
128
10
0.000000
20
0.000000
30
0.000000
71
18
72
11
73
12
0
VERTEX
8
0
6
CONTINUOUS
62
252
70
128
10
0.000000
20
0.000000
30
0.000000
71
18
72
12
73
17
0
VERTEX
8
0
6
CONTINUOUS
62
252
70
128
10
0.000000
20
0.000000
30
0.000000
71
17
72
12
73
13
0
VERTEX
8
0
6
CONTINUOUS
62
252
70
128
10
0.000000
20
0.000000
30
0.000000
71
17
72
13
73
16
0
VERTEX
8
0
6
CONTINUOUS
62
252
70
128
10
0.000000
20
0.000000
30
0.000000
71
16
72
13
73
14
0
VERTEX
8
0
6
CONTINUOUS
62
252
70
128
10
0.000000
20
0.000000
30
0.000000
71
16
72
14
73
15
0
SEQEND
0
POLYLINE
66
1
8
0
6
CONTINUOUS
62
252
70
64
75
0
10
0.000000
20
0.000000
30
0.000000
0
VERTEX
8
0
6
CONTINUOUS
62
252
70
192
10
0.750000
20
0.140625
30
0.243570
0
VERTEX
8
0
6
CONTINUOUS
62
252
70
192
10
0.748750
20
0.106913
30
0.263033
0
VERTEX
8
0
6
CONTINUOUS
62
252
70
192
10
0.745022
20
0.072884
30
0.282680
0
VERTEX
8
0
6
CONTINUOUS
62
252
70
192
10
0.738748
20
0.037587
30
0.303059
0
VERTEX
8
0
6
CONTINUOUS
62
252
70
192
10
0.729711
20
0.000000
30
0.324760
0
VERTEX
8
0
6
CONTINUOUS
62
252
70
192
10
0.738748
20
-0.037587
30
0.303059
0
VERTEX
8
0
6
CONTINUOUS
62
252
70
192
10
0.745022
20
-0.072884
30
0.282680
0
VERTEX
8
0
6
CONTINUOUS
62
252
70
192
10
0.748750
20
-0.106913
30
0.263033
0
VERTEX
8
0
6
CONTINUOUS
62
252
70
192
10
0.750000
20
-0.140625
30
0.243570
0
VERTEX
8
0
6
CONTINUOUS
62
252
70
192
10
0.750000
20
-0.114395
30
0.256935
0
VERTEX
8
0
6
CONTINUOUS
62
252
70
192
10
0.750000
20
-0.086911
30
0.267485
0
VERTEX
8
0
6
CONTINUOUS
62
252
70
192
10
0.750000
20
-0.058475
30
0.275104
0
VERTEX
8
0
6
CONTINUOUS
62
252
70
192
10
0.750000
20
-0.029399
30
0.279709
0
VERTEX
8
0
6
CONTINUOUS
62
252
70
192
10
0.750000
20
0.000000
30
0.281250
0
VERTEX
8
0
6
CONTINUOUS
62
252
70
192
10
0.750000
20
0.029399
30
0.279709
0
VERTEX
8
0
6
CONTINUOUS
62
252
70
192
10
0.750000
20
0.058475
30
0.275104
0
VERTEX
8
0
6
CONTINUOUS
62
252
70
192
10
0.750000
20
0.086911
30
0.267485
0
VERTEX
8
0
6
CONTINUOUS
62
252
70
192
10
0.750000
20
0.114395
30
0.256935
0
VERTEX
8
0
6
CONTINUOUS
62
252
70
128
10
0.000000
20
0.000000
30
0.000000
71
1
72
2
73
18
0
VERTEX
8
0
6
CONTINUOUS
62
252
70
128
10
0.000000
20
0.000000
30
0.000000
71
18
72
2
73
17
0
VERTEX
8
0
6
CONTINUOUS
62
252
70
128
10
0.000000
20
0.000000
30
0.000000
71
17
72
2
73
3
0
VERTEX
8
0
6
CONTINUOUS
62
252
70
128
10
0.000000
20
0.000000
30
0.000000
71
17
72
3
73
16
0
VERTEX
8
0
6
CONTINUOUS
62
252
70
128
10
0.000000
20
0.000000
30
0.000000
71
16
72
3
73
4
0
VERTEX
8
0
6
CONTINUOUS
62
252
70
128
10
0.000000
20
0.000000
30
0.000000
71
16
72
4
73
15
0
VERTEX
8
0
6
CONTINUOUS
62
252
70
128
10
0.000000
20
0.000000
30
0.000000
71
15
72
4
73
5
0
VERTEX
8
0
6
CONTINUOUS
62
252
70
128
10
0.000000
20
0.000000
30
0.000000
71
15
72
5
73
14
0
VERTEX
8
0
6
CONTINUOUS
62
252
70
128
10
0.000000
20
0.000000
30
0.000000
71
14
72
5
73
13
0
VERTEX
8
0
6
CONTINUOUS
62
252
70
128
10
0.000000
20
0.000000
30
0.000000
71
13
72
5
73
6
0
VERTEX
8
0
6
CONTINUOUS
62
252
70
128
10
0.000000
20
0.000000
30
0.000000
71
13
72
6
73
12
0
VERTEX
8
0
6
CONTINUOUS
62
252
70
128
10
0.000000
20
0.000000
30
0.000000
71
12
72
6
73
7
0
VERTEX
8
0
6
CONTINUOUS
62
252
70
128
10
0.000000
20
0.000000
30
0.000000
71
12
72
7
73
11
0
VERTEX
8
0
6
CONTINUOUS
62
252
70
128
10
0.000000
20
0.000000
30
0.000000
71
11
72
7
73
8
0
VERTEX
8
0
6
CONTINUOUS
62
252
70
128
10
0.000000
20
0.000000
30
0.000000
71
11
72
8
73
10
0
VERTEX
8
0
6
CONTINUOUS
62
252
70
128
10
0.000000
20
0.000000
30
0.000000
71
10
72
8
73
9
0
SEQEND
0
POLYLINE
66
1
8
0
6
CONTINUOUS
62
252
70
64
75
0
10
0.000000
20
0.000000
30
0.000000
0
VERTEX
8
0
6
CONTINUOUS
62
252
70
192
10
0.750000
20
0.281250
30
-0.000000
0
VERTEX
8
0
6
CONTINUOUS
62
252
70
192
10
0.748750
20
0.281250
30
0.038928
0
VERTEX
8
0
6
CONTINUOUS
62
252
70
192
10
0.745022
20
0.281250
30
0.078221
0
VERTEX
8
0
6
CONTINUOUS
62
252
70
192
10
0.738748
20
0.281250
30
0.118978
0
VERTEX
8
0
6
CONTINUOUS
62
252
70
192
10
0.729711
20
0.281250
30
0.162380
0
VERTEX
8
0
6
CONTINUOUS
62
252
70
192
10
0.738748
20
0.243663
30
0.184081
0
VERTEX
8
0
6
CONTINUOUS
62
252
70
192
10
0.745022
20
0.208366
30
0.204459
0
VERTEX
8
0
6
CONTINUOUS
62
252
70
192
10
0.748750
20
0.174337
30
0.224106
0
VERTEX
8
0
6
CONTINUOUS
62
252
70
192
10
0.750000
20
0.140625
30
0.243570
0
VERTEX
8
0
6
CONTINUOUS
62
252
70
192
10
0.750000
20
0.165315
30
0.227536
0
VERTEX
8
0
6
CONTINUOUS
62
252
70
192
10
0.750000
20
0.188193
30
0.209009
0
VERTEX
8
0
6
CONTINUOUS
62
252
70
192
10
0.750000
20
0.209009
30
0.188193
0
VERTEX
8
0
6
CONTINUOUS
62
252
70
192
10
0.750000
20
0.227536
30
0.165315
0
VERTEX
8
0
6
CONTINUOUS
62
252
70
192
10
0.750000
20
0.243570
30
0.140625
0
VERTEX
8
0
6
CONTINUOUS
62
252
70
192
10
0.750000
20
0.256935
30
0.114395
0
VERTEX
8
0
6
CONTINUOUS
62
252
70
192
10
0.750000
20
0.267485
30
0.086911
0
VERTEX
8
0
6
CONTINUOUS
62
252
70
192
10
0.750000
20
0.275104
30
0.058475
0
VERTEX
8
0
6
CONTINUOUS
62
252
70
192
10
0.750000
20
0.279709
30
0.029399
0
VERTEX
8
0
6
CONTINUOUS
62
252
70
128
10
0.000000
20
0.000000
30
0.000000
71
1
72
2
73
18
0
VERTEX
8
0
6
CONTINUOUS
62
252
70
128
10
0.000000
20
0.000000
30
0.000000
71
18
72
2
73
17
0
VERTEX
8
0
6
CONTINUOUS
62
252
70
128
10
0.000000
20
0.000000
30
0.000000
71
17
72
2
73
3
0
VERTEX
8
0
6
CONTINUOUS
62
252
70
128
10
0.000000
20
0.000000
30
0.000000
71
17
72
3
73
16
0
VERTEX
8
0
6
CONTINUOUS
62
252
70
128
10
0.000000
20
0.000000
30
0.000000
71
16
72
3
73
4
0
VERTEX
8
0
6
CONTINUOUS
62
252
70
128
10
0.000000
20
0.000000
30
0.000000
71
16
72
4
73
15
0
VERTEX
8
0
6
CONTINUOUS
62
252
70
128
10
0.000000
20
0.000000
30
0.000000
71
15
72
4
73
5
0
VERTEX
8
0
6
CONTINUOUS
62
252
70
128
10
0.000000
20
0.000000
30
0.000000
71
15
72
5
73
14
0
VERTEX
8
0
6
CONTINUOUS
62
252
70
128
10
0.000000
20
0.000000
30
0.000000
71
14
72
5
73
13
0
VERTEX
8
0
6
CONTINUOUS
62
252
70
128
10
0.000000
20
0.000000
30
0.000000
71
13
72
5
73
6
0
VERTEX
8
0
6
CONTINUOUS
62
252
70
128
10
0.000000
20
0.000000
30
0.000000
71
13
72
6
73
12
0
VERTEX
8
0
6
CONTINUOUS
62
252
70
128
10
0.000000
20
0.000000
30
0.000000
71
12
72
6
73
7
0
VERTEX
8
0
6
CONTINUOUS
62
252
70
128
10
0.000000
20
0.000000
30
0.000000
71
12
72
7
73
11
0
VERTEX
8
0
6
CONTINUOUS
62
252
70
128
10
0.000000
20
0.000000
30
0.000000
71
11
72
7
73
8
0
VERTEX
8
0
6
CONTINUOUS
62
252
70
128
10
0.000000
20
0.000000
30
0.000000
71
11
72
8
73
10
0
VERTEX
8
0
6
CONTINUOUS
62
252
70
128
10
0.000000
20
0.000000
30
0.000000
71
10
72
8
73
9
0
SEQEND
0
POLYLINE
66
1
8
0
6
CONTINUOUS
62
252
70
64
75
0
10
0.000000
20
0.000000
30
0.000000
0
VERTEX
8
0
6
CONTINUOUS
62
252
70
192
10
0.729711
20
-0.000000
30
-0.324760
0
VERTEX
8
0
6
CONTINUOUS
62
252
70
192
10
0.738748
20
0.037587
30
-0.303059
0
VERTEX
8
0
6
CONTINUOUS
62
252
70
192
10
0.745022
20
0.072884
30
-0.282680
0
VERTEX
8
0
6
CONTINUOUS
62
252
70
192
10
0.748750
20
0.106913
30
-0.263033
0
VERTEX
8
0
6
CONTINUOUS
62
252
70
192
10
0.750000
20
0.140625
30
-0.243570
0
VERTEX
8
0
6
CONTINUOUS
62
252
70
192
10
0.750000
20
0.114395
30
-0.256935
0
VERTEX
8
0
6
CONTINUOUS
62
252
70
192
10
0.750000
20
0.086911
30
-0.267485
0
VERTEX
8
0
6
CONTINUOUS
62
252
70
192
10
0.750000
20
0.058475
30
-0.275104
0
VERTEX
8
0
6
CONTINUOUS
62
252
70
192
10
0.750000
20
0.029399
30
-0.279709
0
VERTEX
8
0
6
CONTINUOUS
62
252
70
192
10
0.750000
20
-0.000000
30
-0.281250
0
VERTEX
8
0
6
CONTINUOUS
62
252
70
192
10
0.750000
20
-0.029399
30
-0.279709
0
VERTEX
8
0
6
CONTINUOUS
62
252
70
192
10
0.750000
20
-0.058475
30
-0.275104
0
VERTEX
8
0
6
CONTINUOUS
62
252
70
192
10
0.750000
20
-0.086911
30
-0.267485
0
VERTEX
8
0
6
CONTINUOUS
62
252
70
192
10
0.750000
20
-0.114395
30
-0.256935
0
VERTEX
8
0
6
CONTINUOUS
62
252
70
192
10
0.750000
20
-0.140625
30
-0.243570
0
VERTEX
8
0
6
CONTINUOUS
62
252
70
192
10
0.748750
20
-0.106913
30
-0.263033
0
VERTEX
8
0
6
CONTINUOUS
62
252
70
192
10
0.745022
20
-0.072884
30
-0.282680
0
VERTEX
8
0
6
CONTINUOUS
62
252
70
192
10
0.738748
20
-0.037587
30
-0.303059
0
VERTEX
8
0
6
CONTINUOUS
62
252
70
128
10
0.000000
20
0.000000
30
0.000000
71
2
72
9
73
1
0
VERTEX
8
0
6
CONTINUOUS
62
252
70
128
10
0.000000
20
0.000000
30
0.000000
71
1
72
9
73
10
0
VERTEX
8
0
6
CONTINUOUS
62
252
70
128
10
0.000000
20
0.000000
30
0.000000
71
1
72
10
73
11
0
VERTEX
8
0
6
CONTINUOUS
62
252
70
128
10
0.000000
20
0.000000
30
0.000000
71
9
72
2
73
8
0
VERTEX
8
0
6
CONTINUOUS
62
252
70
128
10
0.000000
20
0.000000
30
0.000000
71
8
72
2
73
3
0
VERTEX
8
0
6
CONTINUOUS
62
252
70
128
10
0.000000
20
0.000000
30
0.000000
71
8
72
3
73
7
0
VERTEX
8
0
6
CONTINUOUS
62
252
70
128
10
0.000000
20
0.000000
30
0.000000
71
7
72
3
73
4
0
VERTEX
8
0
6
CONTINUOUS
62
252
70
128
10
0.000000
20
0.000000
30
0.000000
71
7
72
4
73
6
0
VERTEX
8
0
6
CONTINUOUS
62
252
70
128
10
0.000000
20
0.000000
30
0.000000
71
6
72
4
73
5
0
VERTEX
8
0
6
CONTINUOUS
62
252
70
128
10
0.000000
20
0.000000
30
0.000000
71
1
72
11
73
18
0
VERTEX
8
0
6
CONTINUOUS
62
252
70
128
10
0.000000
20
0.000000
30
0.000000
71
18
72
11
73
12
0
VERTEX
8
0
6
CONTINUOUS
62
252
70
128
10
0.000000
20
0.000000
30
0.000000
71
18
72
12
73
17
0
VERTEX
8
0
6
CONTINUOUS
62
252
70
128
10
0.000000
20
0.000000
30
0.000000
71
17
72
12
73
13
0
VERTEX
8
0
6
CONTINUOUS
62
252
70
128
10
0.000000
20
0.000000
30
0.000000
71
17
72
13
73
16
0
VERTEX
8
0
6
CONTINUOUS
62
252
70
128
10
0.000000
20
0.000000
30
0.000000
71
16
72
13
73
14
0
VERTEX
8
0
6
CONTINUOUS
62
252
70
128
10
0.000000
20
0.000000
30
0.000000
71
16
72
14
73
15
0
SEQEND
0
POLYLINE
66
1
8
0
6
CONTINUOUS
62
252
70
64
75
0
10
0.000000
20
0.000000
30
0.000000
0
VERTEX
8
0
6
CONTINUOUS
62
252
70
192
10
0.750000
20
0.140625
30
-0.243570
0
VERTEX
8
0
6
CONTINUOUS
62
252
70
192
10
0.748750
20
0.174337
30
-0.224106
0
VERTEX
8
0
6
CONTINUOUS
62
252
70
192
10
0.745022
20
0.208366
30
-0.204459
0
VERTEX
8
0
6
CONTINUOUS
62
252
70
192
10
0.738748
20
0.243663
30
-0.184081
0
VERTEX
8
0
6
CONTINUOUS
62
252
70
192
10
0.729711
20
0.281250
30
-0.162380
0
VERTEX
8
0
6
CONTINUOUS
62
252
70
192
10
0.738748
20
0.281250
30
-0.118978
0
VERTEX
8
0
6
CONTINUOUS
62
252
70
192
10
0.745022
20
0.281250
30
-0.078221
0
VERTEX
8
0
6
CONTINUOUS
62
252
70
192
10
0.748750
20
0.281250
30
-0.038928
0
VERTEX
8
0
6
CONTINUOUS
62
252
70
192
10
0.750000
20
0.281250
30
-0.000000
0
VERTEX
8
0
6
CONTINUOUS
62
252
70
192
10
0.750000
20
0.279709
30
-0.029399
0
VERTEX
8
0
6
CONTINUOUS
62
252
70
192
10
0.750000
20
0.275104
30
-0.058475
0
VERTEX
8
0
6
CONTINUOUS
62
252
70
192
10
0.750000
20
0.267485
30
-0.086911
0
VERTEX
8
0
6
CONTINUOUS
62
252
70
192
10
0.750000
20
0.256935
30
-0.114395
0
VERTEX
8
0
6
CONTINUOUS
62
252
70
192
10
0.750000
20
0.243570
30
-0.140625
0
VERTEX
8
0
6
CONTINUOUS
62
252
70
192
10
0.750000
20
0.227536
30
-0.165315
0
VERTEX
8
0
6
CONTINUOUS
62
252
70
192
10
0.750000
20
0.209009
30
-0.188193
0
VERTEX
8
0
6
CONTINUOUS
62
252
70
192
10
0.750000
20
0.188193
30
-0.209009
0
VERTEX
8
0
6
CONTINUOUS
62
252
70
192
10
0.750000
20
0.165315
30
-0.227536
0
VERTEX
8
0
6
CONTINUOUS
62
252
70
128
10
0.000000
20
0.000000
30
0.000000
71
1
72
2
73
18
0
VERTEX
8
0
6
CONTINUOUS
62
252
70
128
10
0.000000
20
0.000000
30
0.000000
71
18
72
2
73
17
0
VERTEX
8
0
6
CONTINUOUS
62
252
70
128
10
0.000000
20
0.000000
30
0.000000
71
17
72
2
73
3
0
VERTEX
8
0
6
CONTINUOUS
62
252
70
128
10
0.000000
20
0.000000
30
0.000000
71
17
72
3
73
16
0
VERTEX
8
0
6
CONTINUOUS
62
252
70
128
10
0.000000
20
0.000000
30
0.000000
71
16
72
3
73
4
0
VERTEX
8
0
6
CONTINUOUS
62
252
70
128
10
0.000000
20
0.000000
30
0.000000
71
16
72
4
73
15
0
VERTEX
8
0
6
CONTINUOUS
62
252
70
128
10
0.000000
20
0.000000
30
0.000000
71
15
72
4
73
5
0
VERTEX
8
0
6
CONTINUOUS
62
252
70
128
10
0.000000
20
0.000000
30
0.000000
71
15
72
5
73
14
0
VERTEX
8
0
6
CONTINUOUS
62
252
70
128
10
0.000000
20
0.000000
30
0.000000
71
14
72
5
73
13
0
VERTEX
8
0
6
CONTINUOUS
62
252
70
128
10
0.000000
20
0.000000
30
0.000000
71
13
72
5
73
6
0
VERTEX
8
0
6
CONTINUOUS
62
252
70
128
10
0.000000
20
0.000000
30
0.000000
71
13
72
6
73
12
0
VERTEX
8
0
6
CONTINUOUS
62
252
70
128
10
0.000000
20
0.000000
30
0.000000
71
12
72
6
73
7
0
VERTEX
8
0
6
CONTINUOUS
62
252
70
128
10
0.000000
20
0.000000
30
0.000000
71
12
72
7
73
11
0
VERTEX
8
0
6
CONTINUOUS
62
252
70
128
10
0.000000
20
0.000000
30
0.000000
71
11
72
7
73
8
0
VERTEX
8
0
6
CONTINUOUS
62
252
70
128
10
0.000000
20
0.000000
30
0.000000
71
11
72
8
73
10
0
VERTEX
8
0
6
CONTINUOUS
62
252
70
128
10
0.000000
20
0.000000
30
0.000000
71
10
72
8
73
9
0
SEQEND
0
POLYLINE
66
1
8
0
6
CONTINUOUS
62
252
70
64
75
0
10
0.000000
20
0.000000
30
0.000000
0
VERTEX
8
0
6
CONTINUOUS
62
252
70
192
10
0.729711
20
0.281250
30
-0.162380
0
VERTEX
8
0
6
CONTINUOUS
62
252
70
192
10
0.738748
20
0.243663
30
-0.184081
0
VERTEX
8
0
6
CONTINUOUS
62
252
70
192
10
0.745022
20
0.208366
30
-0.204459
0
VERTEX
8
0
6
CONTINUOUS
62
252
70
192
10
0.748750
20
0.174337
30
-0.224106
0
VERTEX
8
0
6
CONTINUOUS
62
252
70
192
10
0.750000
20
0.140625
30
-0.243570
0
VERTEX
8
0
6
CONTINUOUS
62
252
70
192
10
0.748750
20
0.106913
30
-0.263033
0
VERTEX
8
0
6
CONTINUOUS
62
252
70
192
10
0.745022
20
0.072884
30
-0.282680
0
VERTEX
8
0
6
CONTINUOUS
62
252
70
192
10
0.738748
20
0.037587
30
-0.303059
0
VERTEX
8
0
6
CONTINUOUS
62
252
70
192
10
0.729711
20
-0.000000
30
-0.324760
0
VERTEX
8
0
6
CONTINUOUS
62
252
70
192
10
0.614889
20
0.000000
30
-0.324760
0
VERTEX
8
0
6
CONTINUOUS
62
252
70
192
10
0.605852
20
0.037587
30
-0.303059
0
VERTEX
8
0
6
CONTINUOUS
62
252
70
192
10
0.599578
20
0.072884
30
-0.282680
0
VERTEX
8
0
6
CONTINUOUS
62
252
70
192
10
0.595850
20
0.106913
30
-0.263033
0
VERTEX
8
0
6
CONTINUOUS
62
252
70
192
10
0.594600
20
0.140625
30
-0.243570
0
VERTEX
8
0
6
CONTINUOUS
62
252
70
192
10
0.595850
20
0.174337
30
-0.224106
0
VERTEX
8
0
6
CONTINUOUS
62
252
70
192
10
0.599578
20
0.208366
30
-0.204459
0
VERTEX
8
0
6
CONTINUOUS
62
252
70
192
10
0.605852
20
0.243663
30
-0.184081
0
VERTEX
8
0
6
CONTINUOUS
62
252
70
192
10
0.614889
20
0.281250
30
-0.162380
0
VERTEX
8
0
6
CONTINUOUS
62
252
70
128
10
0.000000
20
0.000000
30
0.000000
71
18
72
1
73
17
0
VERTEX
8
0
6
CONTINUOUS
62
252
70
128
10
0.000000
20
0.000000
30
0.000000
71
17
72
1
73
2
0
VERTEX
8
0
6
CONTINUOUS
62
252
70
128
10
0.000000
20
0.000000
30
0.000000
71
17
72
2
73
16
0
VERTEX
8
0
6
CONTINUOUS
62
252
70
128
10
0.000000
20
0.000000
30
0.000000
71
16
72
2
73
3
0
VERTEX
8
0
6
CONTINUOUS
62
252
70
128
10
0.000000
20
0.000000
30
0.000000
71
16
72
3
73
4
0
VERTEX
8
0
6
CONTINUOUS
62
252
70
128
10
0.000000
20
0.000000
30
0.000000
71
16
72
4
73
15
0
VERTEX
8
0
6
CONTINUOUS
62
252
70
128
10
0.000000
20
0.000000
30
0.000000
71
15
72
4
73
5
0
VERTEX
8
0
6
CONTINUOUS
62
252
70
128
10
0.000000
20
0.000000
30
0.000000
71
15
72
5
73
14
0
VERTEX
8
0
6
CONTINUOUS
62
252
70
128
10
0.000000
20
0.000000
30
0.000000
71
14
72
5
73
6
0
VERTEX
8
0
6
CONTINUOUS
62
252
70
128
10
0.000000
20
0.000000
30
0.000000
71
14
72
6
73
13
0
VERTEX
8
0
6
CONTINUOUS
62
252
70
128
10
0.000000
20
0.000000
30
0.000000
71
13
72
6
73
12
0
VERTEX
8
0
6
CONTINUOUS
62
252
70
128
10
0.000000
20
0.000000
30
0.000000
71
12
72
6
73
7
0
VERTEX
8
0
6
CONTINUOUS
62
252
70
128
10
0.000000
20
0.000000
30
0.000000
71
12
72
7
73
11
0
VERTEX
8
0
6
CONTINUOUS
62
252
70
128
10
0.000000
20
0.000000
30
0.000000
71
11
72
7
73
8
0
VERTEX
8
0
6
CONTINUOUS
62
252
70
128
10
0.000000
20
0.000000
30
0.000000
71
11
72
8
73
9
0
VERTEX
8
0
6
CONTINUOUS
62
252
70
128
10
0.000000
20
0.000000
30
0.000000
71
9
72
10
73
11
0
SEQEND
0
POLYLINE
66
1
8
0
6
CONTINUOUS
62
252
70
64
75
0
10
0.000000
20
0.000000
30
0.000000
0
VERTEX
8
0
6
CONTINUOUS
62
252
70
192
10
0.729711
20
-0.000000
30
-0.324760
0
VERTEX
8
0
6
CONTINUOUS
62
252
70
192
10
0.738748
20
-0.037587
30
-0.303059
0
VERTEX
8
0
6
CONTINUOUS
62
252
70
192
10
0.745022
20
-0.072884
30
-0.282680
0
VERTEX
8
0
6
CONTINUOUS
62
252
70
192
10
0.748750
20
-0.106913
30
-0.263033
0
VERTEX
8
0
6
CONTINUOUS
62
252
70
192
10
0.750000
20
-0.140625
30
-0.243570
0
VERTEX
8
0
6
CONTINUOUS
62
252
70
192
10
0.748750
20
-0.174337
30
-0.224106
0
VERTEX
8
0
6
CONTINUOUS
62
252
70
192
10
0.745022
20
-0.208366
30
-0.204459
0
VERTEX
8
0
6
CONTINUOUS
62
252
70
192
10
0.738748
20
-0.243663
30
-0.184081
0
VERTEX
8
0
6
CONTINUOUS
62
252
70
192
10
0.729711
20
-0.281250
30
-0.162380
0
VERTEX
8
0
6
CONTINUOUS
62
252
70
192
10
0.614889
20
-0.281250
30
-0.162380
0
VERTEX
8
0
6
CONTINUOUS
62
252
70
192
10
0.605852
20
-0.243663
30
-0.184081
0
VERTEX
8
0
6
CONTINUOUS
62
252
70
192
10
0.599578
20
-0.208366
30
-0.204459
0
VERTEX
8
0
6
CONTINUOUS
62
252
70
192
10
0.595850
20
-0.174337
30
-0.224106
0
VERTEX
8
0
6
CONTINUOUS
62
252
70
192
10
0.594600
20
-0.140625
30
-0.243570
0
VERTEX
8
0
6
CONTINUOUS
62
252
70
192
10
0.595850
20
-0.106913
30
-0.263033
0
VERTEX
8
0
6
CONTINUOUS
62
252
70
192
10
0.599578
20
-0.072884
30
-0.282680
0
VERTEX
8
0
6
CONTINUOUS
62
252
70
192
10
0.605852
20
-0.037587
30
-0.303059
0
VERTEX
8
0
6
CONTINUOUS
62
252
70
192
10
0.614889
20
0.000000
30
-0.324760
0
VERTEX
8
0
6
CONTINUOUS
62
252
70
128
10
0.000000
20
0.000000
30
0.000000
71
18
72
1
73
17
0
VERTEX
8
0
6
CONTINUOUS
62
252
70
128
10
0.000000
20
0.000000
30
0.000000
71
17
72
1
73
2
0
VERTEX
8
0
6
CONTINUOUS
62
252
70
128
10
0.000000
20
0.000000
30
0.000000
71
17
72
2
73
3
0
VERTEX
8
0
6
CONTINUOUS
62
252
70
128
10
0.000000
20
0.000000
30
0.000000
71
17
72
3
73
16
0
VERTEX
8
0
6
CONTINUOUS
62
252
70
128
10
0.000000
20
0.000000
30
0.000000
71
16
72
3
73
4
0
VERTEX
8
0
6
CONTINUOUS
62
252
70
128
10
0.000000
20
0.000000
30
0.000000
71
16
72
4
73
15
0
VERTEX
8
0
6
CONTINUOUS
62
252
70
128
10
0.000000
20
0.000000
30
0.000000
71
15
72
4
73
5
0
VERTEX
8
0
6
CONTINUOUS
62
252
70
128
10
0.000000
20
0.000000
30
0.000000
71
15
72
5
73
14
0
VERTEX
8
0
6
CONTINUOUS
62
252
70
128
10
0.000000
20
0.000000
30
0.000000
71
14
72
5
73
13
0
VERTEX
8
0
6
CONTINUOUS
62
252
70
128
10
0.000000
20
0.000000
30
0.000000
71
13
72
5
73
6
0
VERTEX
8
0
6
CONTINUOUS
62
252
70
128
10
0.000000
20
0.000000
30
0.000000
71
13
72
6
73
12
0
VERTEX
8
0
6
CONTINUOUS
62
252
70
128
10
0.000000
20
0.000000
30
0.000000
71
12
72
6
73
7
0
VERTEX
8
0
6
CONTINUOUS
62
252
70
128
10
0.000000
20
0.000000
30
0.000000
71
12
72
7
73
11
0
VERTEX
8
0
6
CONTINUOUS
62
252
70
128
10
0.000000
20
0.000000
30
0.000000
71
11
72
7
73
8
0
VERTEX
8
0
6
CONTINUOUS
62
252
70
128
10
0.000000
20
0.000000
30
0.000000
71
11
72
8
73
9
0
VERTEX
8
0
6
CONTINUOUS
62
252
70
128
10
0.000000
20
0.000000
30
0.000000
71
9
72
10
73
11
0
SEQEND
0
POLYLINE
66
1
8
0
6
CONTINUOUS
62
252
70
64
75
0
10
0.000000
20
0.000000
30
0.000000
0
VERTEX
8
0
6
CONTINUOUS
62
252
70
192
10
0.729711
20
-0.281250
30
-0.162380
0
VERTEX
8
0
6
CONTINUOUS
62
252
70
192
10
0.738748
20
-0.281250
30
-0.118978
0
VERTEX
8
0
6
CONTINUOUS
62
252
70
192
10
0.745022
20
-0.281250
30
-0.078221
0
VERTEX
8
0
6
CONTINUOUS
62
252
70
192
10
0.748750
20
-0.281250
30
-0.038928
0
VERTEX
8
0
6
CONTINUOUS
62
252
70
192
10
0.750000
20
-0.281250
30
0.000000
0
VERTEX
8
0
6
CONTINUOUS
62
252
70
192
10
0.748750
20
-0.281250
30
0.038928
0
VERTEX
8
0
6
CONTINUOUS
62
252
70
192
10
0.745022
20
-0.281250
30
0.078221
0
VERTEX
8
0
6
CONTINUOUS
62
252
70
192
10
0.738748
20
-0.281250
30
0.118978
0
VERTEX
8
0
6
CONTINUOUS
62
252
70
192
10
0.729711
20
-0.281250
30
0.162380
0
VERTEX
8
0
6
CONTINUOUS
62
252
70
192
10
0.614889
20
-0.281250
30
0.162380
0
VERTEX
8
0
6
CONTINUOUS
62
252
70
192
10
0.605852
20
-0.281250
30
0.118978
0
VERTEX
8
0
6
CONTINUOUS
62
252
70
192
10
0.599578
20
-0.281250
30
0.078221
0
VERTEX
8
0
6
CONTINUOUS
62
252
70
192
10
0.595850
20
-0.281250
30
0.038928
0
VERTEX
8
0
6
CONTINUOUS
62
252
70
192
10
0.594600
20
-0.281250
30
0.000000
0
VERTEX
8
0
6
CONTINUOUS
62
252
70
192
10
0.595850
20
-0.281250
30
-0.038928
0
VERTEX
8
0
6
CONTINUOUS
62
252
70
192
10
0.599578
20
-0.281250
30
-0.078221
0
VERTEX
8
0
6
CONTINUOUS
62
252
70
192
10
0.605852
20
-0.281250
30
-0.118978
0
VERTEX
8
0
6
CONTINUOUS
62
252
70
192
10
0.614889
20
-0.281250
30
-0.162380
0
VERTEX
8
0
6
CONTINUOUS
62
252
70
128
10
0.000000
20
0.000000
30
0.000000
71
18
72
1
73
17
0
VERTEX
8
0
6
CONTINUOUS
62
252
70
128
10
0.000000
20
0.000000
30
0.000000
71
17
72
1
73
2
0
VERTEX
8
0
6
CONTINUOUS
62
252
70
128
10
0.000000
20
0.000000
30
0.000000
71
17
72
2
73
3
0
VERTEX
8
0
6
CONTINUOUS
62
252
70
128
10
0.000000
20
0.000000
30
0.000000
71
17
72
3
73
16
0
VERTEX
8
0
6
CONTINUOUS
62
252
70
128
10
0.000000
20
0.000000
30
0.000000
71
16
72
3
73
4
0
VERTEX
8
0
6
CONTINUOUS
62
252
70
128
10
0.000000
20
0.000000
30
0.000000
71
16
72
4
73
15
0
VERTEX
8
0
6
CONTINUOUS
62
252
70
128
10
0.000000
20
0.000000
30
0.000000
71
15
72
4
73
14
0
VERTEX
8
0
6
CONTINUOUS
62
252
70
128
10
0.000000
20
0.000000
30
0.000000
71
14
72
4
73
5
0
VERTEX
8
0
6
CONTINUOUS
62
252
70
128
10
0.000000
20
0.000000
30
0.000000
71
14
72
5
73
6
0
VERTEX
8
0
6
CONTINUOUS
62
252
70
128
10
0.000000
20
0.000000
30
0.000000
71
7
72
12
73
6
0
VERTEX
8
0
6
CONTINUOUS
62
252
70
128
10
0.000000
20
0.000000
30
0.000000
71
6
72
12
73
13
0
VERTEX
8
0
6
CONTINUOUS
62
252
70
128
10
0.000000
20
0.000000
30
0.000000
71
6
72
13
73
14
0
VERTEX
8
0
6
CONTINUOUS
62
252
70
128
10
0.000000
20
0.000000
30
0.000000
71
12
72
7
73
11
0
VERTEX
8
0
6
CONTINUOUS
62
252
70
128
10
0.000000
20
0.000000
30
0.000000
71
11
72
7
73
8
0
VERTEX
8
0
6
CONTINUOUS
62
252
70
128
10
0.000000
20
0.000000
30
0.000000
71
11
72
8
73
9
0
VERTEX
8
0
6
CONTINUOUS
62
252
70
128
10
0.000000
20
0.000000
30
0.000000
71
9
72
10
73
11
0
SEQEND
0
POLYLINE
66
1
8
0
6
CONTINUOUS
62
252
70
64
75
0
10
0.000000
20
0.000000
30
0.000000
0
VERTEX
8
0
6
CONTINUOUS
62
252
70
192
10
0.614889
20
-0.000000
30
0.324760
0
VERTEX
8
0
6
CONTINUOUS
62
252
70
192
10
0.605852
20
0.037587
30
0.303059
0
VERTEX
8
0
6
CONTINUOUS
62
252
70
192
10
0.599578
20
0.072884
30
0.282680
0
VERTEX
8
0
6
CONTINUOUS
62
252
70
192
10
0.595850
20
0.106913
30
0.263033
0
VERTEX
8
0
6
CONTINUOUS
62
252
70
192
10
0.594600
20
0.140625
30
0.243570
0
VERTEX
8
0
6
CONTINUOUS
62
252
70
192
10
0.594600
20
0.114395
30
0.256935
0
VERTEX
8
0
6
CONTINUOUS
62
252
70
192
10
0.594600
20
0.086911
30
0.267485
0
VERTEX
8
0
6
CONTINUOUS
62
252
70
192
10
0.594600
20
0.058475
30
0.275104
0
VERTEX
8
0
6
CONTINUOUS
62
252
70
192
10
0.594600
20
0.029399
30
0.279709
0
VERTEX
8
0
6
CONTINUOUS
62
252
70
192
10
0.594600
20
-0.000000
30
0.281250
0
VERTEX
8
0
6
CONTINUOUS
62
252
70
192
10
0.594600
20
-0.029399
30
0.279709
0
VERTEX
8
0
6
CONTINUOUS
62
252
70
192
10
0.594600
20
-0.058475
30
0.275104
0
VERTEX
8
0
6
CONTINUOUS
62
252
70
192
10
0.594600
20
-0.086911
30
0.267485
0
VERTEX
8
0
6
CONTINUOUS
62
252
70
192
10
0.594600
20
-0.114395
30
0.256935
0
VERTEX
8
0
6
CONTINUOUS
62
252
70
192
10
0.594600
20
-0.140625
30
0.243570
0
VERTEX
8
0
6
CONTINUOUS
62
252
70
192
10
0.595850
20
-0.106913
30
0.263033
0
VERTEX
8
0
6
CONTINUOUS
62
252
70
192
10
0.599578
20
-0.072884
30
0.282680
0
VERTEX
8
0
6
CONTINUOUS
62
252
70
192
10
0.605852
20
-0.037587
30
0.303059
0
VERTEX
8
0
6
CONTINUOUS
62
252
70
128
10
0.000000
20
0.000000
30
0.000000
71
2
72
9
73
1
0
VERTEX
8
0
6
CONTINUOUS
62
252
70
128
10
0.000000
20
0.000000
30
0.000000
71
1
72
9
73
10
0
VERTEX
8
0
6
CONTINUOUS
62
252
70
128
10
0.000000
20
0.000000
30
0.000000
71
1
72
10
73
11
0
VERTEX
8
0
6
CONTINUOUS
62
252
70
128
10
0.000000
20
0.000000
30
0.000000
71
9
72
2
73
8
0
VERTEX
8
0
6
CONTINUOUS
62
252
70
128
10
0.000000
20
0.000000
30
0.000000
71
8
72
2
73
3
0
VERTEX
8
0
6
CONTINUOUS
62
252
70
128
10
0.000000
20
0.000000
30
0.000000
71
8
72
3
73
7
0
VERTEX
8
0
6
CONTINUOUS
62
252
70
128
10
0.000000
20
0.000000
30
0.000000
71
7
72
3
73
4
0
VERTEX
8
0
6
CONTINUOUS
62
252
70
128
10
0.000000
20
0.000000
30
0.000000
71
7
72
4
73
6
0
VERTEX
8
0
6
CONTINUOUS
62
252
70
128
10
0.000000
20
0.000000
30
0.000000
71
6
72
4
73
5
0
VERTEX
8
0
6
CONTINUOUS
62
252
70
128
10
0.000000
20
0.000000
30
0.000000
71
1
72
11
73
18
0
VERTEX
8
0
6
CONTINUOUS
62
252
70
128
10
0.000000
20
0.000000
30
0.000000
71
18
72
11
73
12
0
VERTEX
8
0
6
CONTINUOUS
62
252
70
128
10
0.000000
20
0.000000
30
0.000000
71
18
72
12
73
17
0
VERTEX
8
0
6
CONTINUOUS
62
252
70
128
10
0.000000
20
0.000000
30
0.000000
71
17
72
12
73
13
0
VERTEX
8
0
6
CONTINUOUS
62
252
70
128
10
0.000000
20
0.000000
30
0.000000
71
17
72
13
73
16
0
VERTEX
8
0
6
CONTINUOUS
62
252
70
128
10
0.000000
20
0.000000
30
0.000000
71
16
72
13
73
14
0
VERTEX
8
0
6
CONTINUOUS
62
252
70
128
10
0.000000
20
0.000000
30
0.000000
71
16
72
14
73
15
0
SEQEND
0
POLYLINE
66
1
8
0
6
CONTINUOUS
62
252
70
64
75
0
10
0.000000
20
0.000000
30
0.000000
0
VERTEX
8
0
6
CONTINUOUS
62
252
70
192
10
0.614889
20
0.281250
30
0.162380
0
VERTEX
8
0
6
CONTINUOUS
62
252
70
192
10
0.605852
20
0.281250
30
0.118978
0
VERTEX
8
0
6
CONTINUOUS
62
252
70
192
10
0.599578
20
0.281250
30
0.078221
0
VERTEX
8
0
6
CONTINUOUS
62
252
70
192
10
0.595850
20
0.281250
30
0.038928
0
VERTEX
8
0
6
CONTINUOUS
62
252
70
192
10
0.594600
20
0.281250
30
-0.000000
0
VERTEX
8
0
6
CONTINUOUS
62
252
70
192
10
0.594600
20
0.279709
30
0.029399
0
VERTEX
8
0
6
CONTINUOUS
62
252
70
192
10
0.594600
20
0.275104
30
0.058475
0
VERTEX
8
0
6
CONTINUOUS
62
252
70
192
10
0.594600
20
0.267485
30
0.086911
0
VERTEX
8
0
6
CONTINUOUS
62
252
70
192
10
0.594600
20
0.256935
30
0.114395
0
VERTEX
8
0
6
CONTINUOUS
62
252
70
192
10
0.594600
20
0.243570
30
0.140625
0
VERTEX
8
0
6
CONTINUOUS
62
252
70
192
10
0.594600
20
0.227536
30
0.165315
0
VERTEX
8
0
6
CONTINUOUS
62
252
70
192
10
0.594600
20
0.209009
30
0.188193
0
VERTEX
8
0
6
CONTINUOUS
62
252
70
192
10
0.594600
20
0.188193
30
0.209009
0
VERTEX
8
0
6
CONTINUOUS
62
252
70
192
10
0.594600
20
0.165315
30
0.227536
0
VERTEX
8
0
6
CONTINUOUS
62
252
70
192
10
0.594600
20
0.140625
30
0.243570
0
VERTEX
8
0
6
CONTINUOUS
62
252
70
192
10
0.595850
20
0.174337
30
0.224106
0
VERTEX
8
0
6
CONTINUOUS
62
252
70
192
10
0.599578
20
0.208366
30
0.204459
0
VERTEX
8
0
6
CONTINUOUS
62
252
70
192
10
0.605852
20
0.243663
30
0.184081
0
VERTEX
8
0
6
CONTINUOUS
62
252
70
128
10
0.000000
20
0.000000
30
0.000000
71
2
72
9
73
1
0
VERTEX
8
0
6
CONTINUOUS
62
252
70
128
10
0.000000
20
0.000000
30
0.000000
71
1
72
9
73
10
0
VERTEX
8
0
6
CONTINUOUS
62
252
70
128
10
0.000000
20
0.000000
30
0.000000
71
1
72
10
73
11
0
VERTEX
8
0
6
CONTINUOUS
62
252
70
128
10
0.000000
20
0.000000
30
0.000000
71
9
72
2
73
8
0
VERTEX
8
0
6
CONTINUOUS
62
252
70
128
10
0.000000
20
0.000000
30
0.000000
71
8
72
2
73
3
0
VERTEX
8
0
6
CONTINUOUS
62
252
70
128
10
0.000000
20
0.000000
30
0.000000
71
8
72
3
73
7
0
VERTEX
8
0
6
CONTINUOUS
62
252
70
128
10
0.000000
20
0.000000
30
0.000000
71
7
72
3
73
4
0
VERTEX
8
0
6
CONTINUOUS
62
252
70
128
10
0.000000
20
0.000000
30
0.000000
71
7
72
4
73
6
0
VERTEX
8
0
6
CONTINUOUS
62
252
70
128
10
0.000000
20
0.000000
30
0.000000
71
6
72
4
73
5
0
VERTEX
8
0
6
CONTINUOUS
62
252
70
128
10
0.000000
20
0.000000
30
0.000000
71
1
72
11
73
18
0
VERTEX
8
0
6
CONTINUOUS
62
252
70
128
10
0.000000
20
0.000000
30
0.000000
71
18
72
11
73
12
0
VERTEX
8
0
6
CONTINUOUS
62
252
70
128
10
0.000000
20
0.000000
30
0.000000
71
18
72
12
73
17
0
VERTEX
8
0
6
CONTINUOUS
62
252
70
128
10
0.000000
20
0.000000
30
0.000000
71
17
72
12
73
13
0
VERTEX
8
0
6
CONTINUOUS
62
252
70
128
10
0.000000
20
0.000000
30
0.000000
71
17
72
13
73
16
0
VERTEX
8
0
6
CONTINUOUS
62
252
70
128
10
0.000000
20
0.000000
30
0.000000
71
16
72
13
73
14
0
VERTEX
8
0
6
CONTINUOUS
62
252
70
128
10
0.000000
20
0.000000
30
0.000000
71
16
72
14
73
15
0
SEQEND
0
POLYLINE
66
1
8
0
6
CONTINUOUS
62
252
70
64
75
0
10
0.000000
20
0.000000
30
0.000000
0
VERTEX
8
0
6
CONTINUOUS
62
252
70
192
10
0.594600
20
-0.281250
30
0.000000
0
VERTEX
8
0
6
CONTINUOUS
62
252
70
192
10
0.595850
20
-0.281250
30
0.038928
0
VERTEX
8
0
6
CONTINUOUS
62
252
70
192
10
0.599578
20
-0.281250
30
0.078221
0
VERTEX
8
0
6
CONTINUOUS
62
252
70
192
10
0.605852
20
-0.281250
30
0.118978
0
VERTEX
8
0
6
CONTINUOUS
62
252
70
192
10
0.614889
20
-0.281250
30
0.162380
0
VERTEX
8
0
6
CONTINUOUS
62
252
70
192
10
0.605852
20
-0.243663
30
0.184081
0
VERTEX
8
0
6
CONTINUOUS
62
252
70
192
10
0.599578
20
-0.208366
30
0.204459
0
VERTEX
8
0
6
CONTINUOUS
62
252
70
192
10
0.595850
20
-0.174337
30
0.224106
0
VERTEX
8
0
6
CONTINUOUS
62
252
70
192
10
0.594600
20
-0.140625
30
0.243570
0
VERTEX
8
0
6
CONTINUOUS
62
252
70
192
10
0.594600
20
-0.165315
30
0.227536
0
VERTEX
8
0
6
CONTINUOUS
62
252
70
192
10
0.594600
20
-0.188193
30
0.209009
0
VERTEX
8
0
6
CONTINUOUS
62
252
70
192
10
0.594600
20
-0.209009
30
0.188193
0
VERTEX
8
0
6
CONTINUOUS
62
252
70
192
10
0.594600
20
-0.227536
30
0.165315
0
VERTEX
8
0
6
CONTINUOUS
62
252
70
192
10
0.594600
20
-0.243570
30
0.140625
0
VERTEX
8
0
6
CONTINUOUS
62
252
70
192
10
0.594600
20
-0.256935
30
0.114395
0
VERTEX
8
0
6
CONTINUOUS
62
252
70
192
10
0.594600
20
-0.267485
30
0.086911
0
VERTEX
8
0
6
CONTINUOUS
62
252
70
192
10
0.594600
20
-0.275104
30
0.058475
0
VERTEX
8
0
6
CONTINUOUS
62
252
70
192
10
0.594600
20
-0.279709
30
0.029399
0
VERTEX
8
0
6
CONTINUOUS
62
252
70
128
10
0.000000
20
0.000000
30
0.000000
71
1
72
2
73
18
0
VERTEX
8
0
6
CONTINUOUS
62
252
70
128
10
0.000000
20
0.000000
30
0.000000
71
18
72
2
73
17
0
VERTEX
8
0
6
CONTINUOUS
62
252
70
128
10
0.000000
20
0.000000
30
0.000000
71
17
72
2
73
3
0
VERTEX
8
0
6
CONTINUOUS
62
252
70
128
10
0.000000
20
0.000000
30
0.000000
71
17
72
3
73
16
0
VERTEX
8
0
6
CONTINUOUS
62
252
70
128
10
0.000000
20
0.000000
30
0.000000
71
16
72
3
73
4
0
VERTEX
8
0
6
CONTINUOUS
62
252
70
128
10
0.000000
20
0.000000
30
0.000000
71
16
72
4
73
15
0
VERTEX
8
0
6
CONTINUOUS
62
252
70
128
10
0.000000
20
0.000000
30
0.000000
71
15
72
4
73
5
0
VERTEX
8
0
6
CONTINUOUS
62
252
70
128
10
0.000000
20
0.000000
30
0.000000
71
15
72
5
73
14
0
VERTEX
8
0
6
CONTINUOUS
62
252
70
128
10
0.000000
20
0.000000
30
0.000000
71
14
72
5
73
13
0
VERTEX
8
0
6
CONTINUOUS
62
252
70
128
10
0.000000
20
0.000000
30
0.000000
71
13
72
5
73
6
0
VERTEX
8
0
6
CONTINUOUS
62
252
70
128
10
0.000000
20
0.000000
30
0.000000
71
13
72
6
73
12
0
VERTEX
8
0
6
CONTINUOUS
62
252
70
128
10
0.000000
20
0.000000
30
0.000000
71
12
72
6
73
7
0
VERTEX
8
0
6
CONTINUOUS
62
252
70
128
10
0.000000
20
0.000000
30
0.000000
71
12
72
7
73
11
0
VERTEX
8
0
6
CONTINUOUS
62
252
70
128
10
0.000000
20
0.000000
30
0.000000
71
11
72
7
73
8
0
VERTEX
8
0
6
CONTINUOUS
62
252
70
128
10
0.000000
20
0.000000
30
0.000000
71
11
72
8
73
10
0
VERTEX
8
0
6
CONTINUOUS
62
252
70
128
10
0.000000
20
0.000000
30
0.000000
71
10
72
8
73
9
0
SEQEND
0
POLYLINE
66
1
8
0
6
CONTINUOUS
62
252
70
64
75
0
10
0.000000
20
0.000000
30
0.000000
0
VERTEX
8
0
6
CONTINUOUS
62
252
70
192
10
0.594600
20
-0.140625
30
-0.243570
0
VERTEX
8
0
6
CONTINUOUS
62
252
70
192
10
0.595850
20
-0.174337
30
-0.224106
0
VERTEX
8
0
6
CONTINUOUS
62
252
70
192
10
0.599578
20
-0.208366
30
-0.204459
0
VERTEX
8
0
6
CONTINUOUS
62
252
70
192
10
0.605852
20
-0.243663
30
-0.184081
0
VERTEX
8
0
6
CONTINUOUS
62
252
70
192
10
0.614889
20
-0.281250
30
-0.162380
0
VERTEX
8
0
6
CONTINUOUS
62
252
70
192
10
0.605852
20
-0.281250
30
-0.118978
0
VERTEX
8
0
6
CONTINUOUS
62
252
70
192
10
0.599578
20
-0.281250
30
-0.078221
0
VERTEX
8
0
6
CONTINUOUS
62
252
70
192
10
0.595850
20
-0.281250
30
-0.038928
0
VERTEX
8
0
6
CONTINUOUS
62
252
70
192
10
0.594600
20
-0.281250
30
0.000000
0
VERTEX
8
0
6
CONTINUOUS
62
252
70
192
10
0.594600
20
-0.279709
30
-0.029399
0
VERTEX
8
0
6
CONTINUOUS
62
252
70
192
10
0.594600
20
-0.275104
30
-0.058475
0
VERTEX
8
0
6
CONTINUOUS
62
252
70
192
10
0.594600
20
-0.267485
30
-0.086911
0
VERTEX
8
0
6
CONTINUOUS
62
252
70
192
10
0.594600
20
-0.256935
30
-0.114395
0
VERTEX
8
0
6
CONTINUOUS
62
252
70
192
10
0.594600
20
-0.243570
30
-0.140625
0
VERTEX
8
0
6
CONTINUOUS
62
252
70
192
10
0.594600
20
-0.227536
30
-0.165315
0
VERTEX
8
0
6
CONTINUOUS
62
252
70
192
10
0.594600
20
-0.209009
30
-0.188193
0
VERTEX
8
0
6
CONTINUOUS
62
252
70
192
10
0.594600
20
-0.188193
30
-0.209009
0
VERTEX
8
0
6
CONTINUOUS
62
252
70
192
10
0.594600
20
-0.165315
30
-0.227536
0
VERTEX
8
0
6
CONTINUOUS
62
252
70
128
10
0.000000
20
0.000000
30
0.000000
71
1
72
2
73
18
0
VERTEX
8
0
6
CONTINUOUS
62
252
70
128
10
0.000000
20
0.000000
30
0.000000
71
18
72
2
73
17
0
VERTEX
8
0
6
CONTINUOUS
62
252
70
128
10
0.000000
20
0.000000
30
0.000000
71
17
72
2
73
3
0
VERTEX
8
0
6
CONTINUOUS
62
252
70
128
10
0.000000
20
0.000000
30
0.000000
71
17
72
3
73
16
0
VERTEX
8
0
6
CONTINUOUS
62
252
70
128
10
0.000000
20
0.000000
30
0.000000
71
16
72
3
73
4
0
VERTEX
8
0
6
CONTINUOUS
62
252
70
128
10
0.000000
20
0.000000
30
0.000000
71
16
72
4
73
15
0
VERTEX
8
0
6
CONTINUOUS
62
252
70
128
10
0.000000
20
0.000000
30
0.000000
71
15
72
4
73
5
0
VERTEX
8
0
6
CONTINUOUS
62
252
70
128
10
0.000000
20
0.000000
30
0.000000
71
15
72
5
73
14
0
VERTEX
8
0
6
CONTINUOUS
62
252
70
128
10
0.000000
20
0.000000
30
0.000000
71
14
72
5
73
13
0
VERTEX
8
0
6
CONTINUOUS
62
252
70
128
10
0.000000
20
0.000000
30
0.000000
71
13
72
5
73
6
0
VERTEX
8
0
6
CONTINUOUS
62
252
70
128
10
0.000000
20
0.000000
30
0.000000
71
13
72
6
73
12
0
VERTEX
8
0
6
CONTINUOUS
62
252
70
128
10
0.000000
20
0.000000
30
0.000000
71
12
72
6
73
7
0
VERTEX
8
0
6
CONTINUOUS
62
252
70
128
10
0.000000
20
0.000000
30
0.000000
71
12
72
7
73
11
0
VERTEX
8
0
6
CONTINUOUS
62
252
70
128
10
0.000000
20
0.000000
30
0.000000
71
11
72
7
73
8
0
VERTEX
8
0
6
CONTINUOUS
62
252
70
128
10
0.000000
20
0.000000
30
0.000000
71
11
72
8
73
10
0
VERTEX
8
0
6
CONTINUOUS
62
252
70
128
10
0.000000
20
0.000000
30
0.000000
71
10
72
8
73
9
0
SEQEND
0
POLYLINE
66
1
8
0
6
CONTINUOUS
62
252
70
64
75
0
10
0.000000
20
0.000000
30
0.000000
0
VERTEX
8
0
6
CONTINUOUS
62
252
70
192
10
0.614889
20
0.281250
30
-0.162380
0
VERTEX
8
0
6
CONTINUOUS
62
252
70
192
10
0.605852
20
0.243663
30
-0.184081
0
VERTEX
8
0
6
CONTINUOUS
62
252
70
192
10
0.599578
20
0.208366
30
-0.204459
0
VERTEX
8
0
6
CONTINUOUS
62
252
70
192
10
0.595850
20
0.174337
30
-0.224106
0
VERTEX
8
0
6
CONTINUOUS
62
252
70
192
10
0.594600
20
0.140625
30
-0.243570
0
VERTEX
8
0
6
CONTINUOUS
62
252
70
192
10
0.594600
20
0.165315
30
-0.227536
0
VERTEX
8
0
6
CONTINUOUS
62
252
70
192
10
0.594600
20
0.188193
30
-0.209009
0
VERTEX
8
0
6
CONTINUOUS
62
252
70
192
10
0.594600
20
0.209009
30
-0.188193
0
VERTEX
8
0
6
CONTINUOUS
62
252
70
192
10
0.594600
20
0.227536
30
-0.165315
0
VERTEX
8
0
6
CONTINUOUS
62
252
70
192
10
0.594600
20
0.243570
30
-0.140625
0
VERTEX
8
0
6
CONTINUOUS
62
252
70
192
10
0.594600
20
0.256935
30
-0.114395
0
VERTEX
8
0
6
CONTINUOUS
62
252
70
192
10
0.594600
20
0.267485
30
-0.086911
0
VERTEX
8
0
6
CONTINUOUS
62
252
70
192
10
0.594600
20
0.275104
30
-0.058475
0
VERTEX
8
0
6
CONTINUOUS
62
252
70
192
10
0.594600
20
0.279709
30
-0.029399
0
VERTEX
8
0
6
CONTINUOUS
62
252
70
192
10
0.594600
20
0.281250
30
-0.000000
0
VERTEX
8
0
6
CONTINUOUS
62
252
70
192
10
0.595850
20
0.281250
30
-0.038928
0
VERTEX
8
0
6
CONTINUOUS
62
252
70
192
10
0.599578
20
0.281250
30
-0.078221
0
VERTEX
8
0
6
CONTINUOUS
62
252
70
192
10
0.605852
20
0.281250
30
-0.118978
0
VERTEX
8
0
6
CONTINUOUS
62
252
70
128
10
0.000000
20
0.000000
30
0.000000
71
2
72
9
73
1
0
VERTEX
8
0
6
CONTINUOUS
62
252
70
128
10
0.000000
20
0.000000
30
0.000000
71
1
72
9
73
10
0
VERTEX
8
0
6
CONTINUOUS
62
252
70
128
10
0.000000
20
0.000000
30
0.000000
71
1
72
10
73
11
0
VERTEX
8
0
6
CONTINUOUS
62
252
70
128
10
0.000000
20
0.000000
30
0.000000
71
9
72
2
73
8
0
VERTEX
8
0
6
CONTINUOUS
62
252
70
128
10
0.000000
20
0.000000
30
0.000000
71
8
72
2
73
3
0
VERTEX
8
0
6
CONTINUOUS
62
252
70
128
10
0.000000
20
0.000000
30
0.000000
71
8
72
3
73
7
0
VERTEX
8
0
6
CONTINUOUS
62
252
70
128
10
0.000000
20
0.000000
30
0.000000
71
7
72
3
73
4
0
VERTEX
8
0
6
CONTINUOUS
62
252
70
128
10
0.000000
20
0.000000
30
0.000000
71
7
72
4
73
6
0
VERTEX
8
0
6
CONTINUOUS
62
252
70
128
10
0.000000
20
0.000000
30
0.000000
71
6
72
4
73
5
0
VERTEX
8
0
6
CONTINUOUS
62
252
70
128
10
0.000000
20
0.000000
30
0.000000
71
1
72
11
73
18
0
VERTEX
8
0
6
CONTINUOUS
62
252
70
128
10
0.000000
20
0.000000
30
0.000000
71
18
72
11
73
12
0
VERTEX
8
0
6
CONTINUOUS
62
252
70
128
10
0.000000
20
0.000000
30
0.000000
71
18
72
12
73
17
0
VERTEX
8
0
6
CONTINUOUS
62
252
70
128
10
0.000000
20
0.000000
30
0.000000
71
17
72
12
73
13
0
VERTEX
8
0
6
CONTINUOUS
62
252
70
128
10
0.000000
20
0.000000
30
0.000000
71
17
72
13
73
16
0
VERTEX
8
0
6
CONTINUOUS
62
252
70
128
10
0.000000
20
0.000000
30
0.000000
71
16
72
13
73
14
0
VERTEX
8
0
6
CONTINUOUS
62
252
70
128
10
0.000000
20
0.000000
30
0.000000
71
16
72
14
73
15
0
SEQEND
0
POLYLINE
66
1
8
0
6
CONTINUOUS
62
252
70
64
75
0
10
0.000000
20
0.000000
30
0.000000
0
VERTEX
8
0
6
CONTINUOUS
62
252
70
192
10
0.614889
20
0.000000
30
-0.324760
0
VERTEX
8
0
6
CONTINUOUS
62
252
70
192
10
0.605852
20
-0.037587
30
-0.303059
0
VERTEX
8
0
6
CONTINUOUS
62
252
70
192
10
0.599578
20
-0.072884
30
-0.282680
0
VERTEX
8
0
6
CONTINUOUS
62
252
70
192
10
0.595850
20
-0.106913
30
-0.263033
0
VERTEX
8
0
6
CONTINUOUS
62
252
70
192
10
0.594600
20
-0.140625
30
-0.243570
0
VERTEX
8
0
6
CONTINUOUS
62
252
70
192
10
0.594600
20
-0.114395
30
-0.256935
0
VERTEX
8
0
6
CONTINUOUS
62
252
70
192
10
0.594600
20
-0.086911
30
-0.267485
0
VERTEX
8
0
6
CONTINUOUS
62
252
70
192
10
0.594600
20
-0.058475
30
-0.275104
0
VERTEX
8
0
6
CONTINUOUS
62
252
70
192
10
0.594600
20
-0.029399
30
-0.279709
0
VERTEX
8
0
6
CONTINUOUS
62
252
70
192
10
0.594600
20
-0.000000
30
-0.281250
0
VERTEX
8
0
6
CONTINUOUS
62
252
70
192
10
0.594600
20
0.029399
30
-0.279709
0
VERTEX
8
0
6
CONTINUOUS
62
252
70
192
10
0.594600
20
0.058475
30
-0.275104
0
VERTEX
8
0
6
CONTINUOUS
62
252
70
192
10
0.594600
20
0.086911
30
-0.267485
0
VERTEX
8
0
6
CONTINUOUS
62
252
70
192
10
0.594600
20
0.114395
30
-0.256935
0
VERTEX
8
0
6
CONTINUOUS
62
252
70
192
10
0.594600
20
0.140625
30
-0.243570
0
VERTEX
8
0
6
CONTINUOUS
62
252
70
192
10
0.595850
20
0.106913
30
-0.263033
0
VERTEX
8
0
6
CONTINUOUS
62
252
70
192
10
0.599578
20
0.072884
30
-0.282680
0
VERTEX
8
0
6
CONTINUOUS
62
252
70
192
10
0.605852
20
0.037587
30
-0.303059
0
VERTEX
8
0
6
CONTINUOUS
62
252
70
128
10
0.000000
20
0.000000
30
0.000000
71
2
72
9
73
1
0
VERTEX
8
0
6
CONTINUOUS
62
252
70
128
10
0.000000
20
0.000000
30
0.000000
71
1
72
9
73
10
0
VERTEX
8
0
6
CONTINUOUS
62
252
70
128
10
0.000000
20
0.000000
30
0.000000
71
1
72
10
73
11
0
VERTEX
8
0
6
CONTINUOUS
62
252
70
128
10
0.000000
20
0.000000
30
0.000000
71
9
72
2
73
8
0
VERTEX
8
0
6
CONTINUOUS
62
252
70
128
10
0.000000
20
0.000000
30
0.000000
71
8
72
2
73
3
0
VERTEX
8
0
6
CONTINUOUS
62
252
70
128
10
0.000000
20
0.000000
30
0.000000
71
8
72
3
73
7
0
VERTEX
8
0
6
CONTINUOUS
62
252
70
128
10
0.000000
20
0.000000
30
0.000000
71
7
72
3
73
4
0
VERTEX
8
0
6
CONTINUOUS
62
252
70
128
10
0.000000
20
0.000000
30
0.000000
71
7
72
4
73
6
0
VERTEX
8
0
6
CONTINUOUS
62
252
70
128
10
0.000000
20
0.000000
30
0.000000
71
6
72
4
73
5
0
VERTEX
8
0
6
CONTINUOUS
62
252
70
128
10
0.000000
20
0.000000
30
0.000000
71
1
72
11
73
18
0
VERTEX
8
0
6
CONTINUOUS
62
252
70
128
10
0.000000
20
0.000000
30
0.000000
71
18
72
11
73
12
0
VERTEX
8
0
6
CONTINUOUS
62
252
70
128
10
0.000000
20
0.000000
30
0.000000
71
18
72
12
73
17
0
VERTEX
8
0
6
CONTINUOUS
62
252
70
128
10
0.000000
20
0.000000
30
0.000000
71
17
72
12
73
13
0
VERTEX
8
0
6
CONTINUOUS
62
252
70
128
10
0.000000
20
0.000000
30
0.000000
71
17
72
13
73
16
0
VERTEX
8
0
6
CONTINUOUS
62
252
70
128
10
0.000000
20
0.000000
30
0.000000
71
16
72
13
73
14
0
VERTEX
8
0
6
CONTINUOUS
62
252
70
128
10
0.000000
20
0.000000
30
0.000000
71
16
72
14
73
15
0
SEQEND
0
POLYLINE
66
1
8
0
6
CONTINUOUS
62
252
70
64
75
0
10
0.000000
20
0.000000
30
0.000000
0
VERTEX
8
0
6
CONTINUOUS
62
252
70
192
10
0.750000
20
0.281250
30
-0.000000
0
VERTEX
8
0
6
CONTINUOUS
62
252
70
192
10
0.748750
20
0.281250
30
-0.038928
0
VERTEX
8
0
6
CONTINUOUS
62
252
70
192
10
0.745022
20
0.281250
30
-0.078221
0
VERTEX
8
0
6
CONTINUOUS
62
252
70
192
10
0.738748
20
0.281250
30
-0.118978
0
VERTEX
8
0
6
CONTINUOUS
62
252
70
192
10
0.729711
20
0.281250
30
-0.162380
0
VERTEX
8
0
6
CONTINUOUS
62
252
70
192
10
0.614889
20
0.281250
30
-0.162380
0
VERTEX
8
0
6
CONTINUOUS
62
252
70
192
10
0.605852
20
0.281250
30
-0.118978
0
VERTEX
8
0
6
CONTINUOUS
62
252
70
192
10
0.599578
20
0.281250
30
-0.078221
0
VERTEX
8
0
6
CONTINUOUS
62
252
70
192
10
0.595850
20
0.281250
30
-0.038928
0
VERTEX
8
0
6
CONTINUOUS
62
252
70
192
10
0.594600
20
0.281250
30
-0.000000
0
VERTEX
8
0
6
CONTINUOUS
62
252
70
192
10
0.595850
20
0.281250
30
0.038928
0
VERTEX
8
0
6
CONTINUOUS
62
252
70
192
10
0.599578
20
0.281250
30
0.078221
0
VERTEX
8
0
6
CONTINUOUS
62
252
70
192
10
0.605852
20
0.281250
30
0.118978
0
VERTEX
8
0
6
CONTINUOUS
62
252
70
192
10
0.614889
20
0.281250
30
0.162380
0
VERTEX
8
0
6
CONTINUOUS
62
252
70
192
10
0.729711
20
0.281250
30
0.162380
0
VERTEX
8
0
6
CONTINUOUS
62
252
70
192
10
0.738748
20
0.281250
30
0.118978
0
VERTEX
8
0
6
CONTINUOUS
62
252
70
192
10
0.745022
20
0.281250
30
0.078221
0
VERTEX
8
0
6
CONTINUOUS
62
252
70
192
10
0.748750
20
0.281250
30
0.038928
0
VERTEX
8
0
6
CONTINUOUS
62
252
70
128
10
0.000000
20
0.000000
30
0.000000
71
18
72
1
73
10
0
VERTEX
8
0
6
CONTINUOUS
62
252
70
128
10
0.000000
20
0.000000
30
0.000000
71
10
72
1
73
2
0
VERTEX
8
0
6
CONTINUOUS
62
252
70
128
10
0.000000
20
0.000000
30
0.000000
71
10
72
2
73
9
0
VERTEX
8
0
6
CONTINUOUS
62
252
70
128
10
0.000000
20
0.000000
30
0.000000
71
9
72
2
73
3
0
VERTEX
8
0
6
CONTINUOUS
62
252
70
128
10
0.000000
20
0.000000
30
0.000000
71
9
72
3
73
8
0
VERTEX
8
0
6
CONTINUOUS
62
252
70
128
10
0.000000
20
0.000000
30
0.000000
71
8
72
3
73
4
0
VERTEX
8
0
6
CONTINUOUS
62
252
70
128
10
0.000000
20
0.000000
30
0.000000
71
8
72
4
73
7
0
VERTEX
8
0
6
CONTINUOUS
62
252
70
128
10
0.000000
20
0.000000
30
0.000000
71
7
72
4
73
6
0
VERTEX
8
0
6
CONTINUOUS
62
252
70
128
10
0.000000
20
0.000000
30
0.000000
71
6
72
4
73
5
0
VERTEX
8
0
6
CONTINUOUS
62
252
70
128
10
0.000000
20
0.000000
30
0.000000
71
10
72
11
73
18
0
VERTEX
8
0
6
CONTINUOUS
62
252
70
128
10
0.000000
20
0.000000
30
0.000000
71
18
72
11
73
17
0
VERTEX
8
0
6
CONTINUOUS
62
252
70
128
10
0.000000
20
0.000000
30
0.000000
71
17
72
11
73
12
0
VERTEX
8
0
6
CONTINUOUS
62
252
70
128
10
0.000000
20
0.000000
30
0.000000
71
17
72
12
73
16
0
VERTEX
8
0
6
CONTINUOUS
62
252
70
128
10
0.000000
20
0.000000
30
0.000000
71
16
72
12
73
13
0
VERTEX
8
0
6
CONTINUOUS
62
252
70
128
10
0.000000
20
0.000000
30
0.000000
71
16
72
13
73
14
0
VERTEX
8
0
6
CONTINUOUS
62
252
70
128
10
0.000000
20
0.000000
30
0.000000
71
14
72
15
73
16
0
SEQEND
0
POLYLINE
66
1
8
0
6
CONTINUOUS
62
252
70
64
75
0
10
0.000000
20
0.000000
30
0.000000
0
VERTEX
8
0
6
CONTINUOUS
62
252
70
192
10
0.750000
20
0.140625
30
0.243570
0
VERTEX
8
0
6
CONTINUOUS
62
252
70
192
10
0.748750
20
0.174337
30
0.224106
0
VERTEX
8
0
6
CONTINUOUS
62
252
70
192
10
0.745022
20
0.208366
30
0.204459
0
VERTEX
8
0
6
CONTINUOUS
62
252
70
192
10
0.738748
20
0.243663
30
0.184081
0
VERTEX
8
0
6
CONTINUOUS
62
252
70
192
10
0.729711
20
0.281250
30
0.162380
0
VERTEX
8
0
6
CONTINUOUS
62
252
70
192
10
0.614889
20
0.281250
30
0.162380
0
VERTEX
8
0
6
CONTINUOUS
62
252
70
192
10
0.605852
20
0.243663
30
0.184081
0
VERTEX
8
0
6
CONTINUOUS
62
252
70
192
10
0.599578
20
0.208366
30
0.204459
0
VERTEX
8
0
6
CONTINUOUS
62
252
70
192
10
0.595850
20
0.174337
30
0.224106
0
VERTEX
8
0
6
CONTINUOUS
62
252
70
192
10
0.594600
20
0.140625
30
0.243570
0
VERTEX
8
0
6
CONTINUOUS
62
252
70
192
10
0.595850
20
0.106913
30
0.263033
0
VERTEX
8
0
6
CONTINUOUS
62
252
70
192
10
0.599578
20
0.072884
30
0.282680
0
VERTEX
8
0
6
CONTINUOUS
62
252
70
192
10
0.605852
20
0.037587
30
0.303059
0
VERTEX
8
0
6
CONTINUOUS
62
252
70
192
10
0.614889
20
-0.000000
30
0.324760
0
VERTEX
8
0
6
CONTINUOUS
62
252
70
192
10
0.729711
20
0.000000
30
0.324760
0
VERTEX
8
0
6
CONTINUOUS
62
252
70
192
10
0.738748
20
0.037587
30
0.303059
0
VERTEX
8
0
6
CONTINUOUS
62
252
70
192
10
0.745022
20
0.072884
30
0.282680
0
VERTEX
8
0
6
CONTINUOUS
62
252
70
192
10
0.748750
20
0.106913
30
0.263033
0
VERTEX
8
0
6
CONTINUOUS
62
252
70
128
10
0.000000
20
0.000000
30
0.000000
71
18
72
1
73
10
0
VERTEX
8
0
6
CONTINUOUS
62
252
70
128
10
0.000000
20
0.000000
30
0.000000
71
10
72
1
73
2
0
VERTEX
8
0
6
CONTINUOUS
62
252
70
128
10
0.000000
20
0.000000
30
0.000000
71
10
72
2
73
9
0
VERTEX
8
0
6
CONTINUOUS
62
252
70
128
10
0.000000
20
0.000000
30
0.000000
71
9
72
2
73
3
0
VERTEX
8
0
6
CONTINUOUS
62
252
70
128
10
0.000000
20
0.000000
30
0.000000
71
9
72
3
73
8
0
VERTEX
8
0
6
CONTINUOUS
62
252
70
128
10
0.000000
20
0.000000
30
0.000000
71
8
72
3
73
7
0
VERTEX
8
0
6
CONTINUOUS
62
252
70
128
10
0.000000
20
0.000000
30
0.000000
71
7
72
3
73
4
0
VERTEX
8
0
6
CONTINUOUS
62
252
70
128
10
0.000000
20
0.000000
30
0.000000
71
7
72
4
73
6
0
VERTEX
8
0
6
CONTINUOUS
62
252
70
128
10
0.000000
20
0.000000
30
0.000000
71
6
72
4
73
5
0
VERTEX
8
0
6
CONTINUOUS
62
252
70
128
10
0.000000
20
0.000000
30
0.000000
71
10
72
11
73
18
0
VERTEX
8
0
6
CONTINUOUS
62
252
70
128
10
0.000000
20
0.000000
30
0.000000
71
18
72
11
73
17
0
VERTEX
8
0
6
CONTINUOUS
62
252
70
128
10
0.000000
20
0.000000
30
0.000000
71
17
72
11
73
12
0
VERTEX
8
0
6
CONTINUOUS
62
252
70
128
10
0.000000
20
0.000000
30
0.000000
71
17
72
12
73
16
0
VERTEX
8
0
6
CONTINUOUS
62
252
70
128
10
0.000000
20
0.000000
30
0.000000
71
16
72
12
73
13
0
VERTEX
8
0
6
CONTINUOUS
62
252
70
128
10
0.000000
20
0.000000
30
0.000000
71
16
72
13
73
14
0
VERTEX
8
0
6
CONTINUOUS
62
252
70
128
10
0.000000
20
0.000000
30
0.000000
71
14
72
15
73
16
0
SEQEND
0
POLYLINE
66
1
8
0
6
CONTINUOUS
62
252
70
64
75
0
10
0.000000
20
0.000000
30
0.000000
0
VERTEX
8
0
6
CONTINUOUS
62
252
70
192
10
0.750000
20
-0.140625
30
0.243570
0
VERTEX
8
0
6
CONTINUOUS
62
252
70
192
10
0.748750
20
-0.106913
30
0.263033
0
VERTEX
8
0
6
CONTINUOUS
62
252
70
192
10
0.745022
20
-0.072884
30
0.282680
0
VERTEX
8
0
6
CONTINUOUS
62
252
70
192
10
0.738748
20
-0.037587
30
0.303059
0
VERTEX
8
0
6
CONTINUOUS
62
252
70
192
10
0.729711
20
0.000000
30
0.324760
0
VERTEX
8
0
6
CONTINUOUS
62
252
70
192
10
0.614889
20
-0.000000
30
0.324760
0
VERTEX
8
0
6
CONTINUOUS
62
252
70
192
10
0.605852
20
-0.037587
30
0.303059
0
VERTEX
8
0
6
CONTINUOUS
62
252
70
192
10
0.599578
20
-0.072884
30
0.282680
0
VERTEX
8
0
6
CONTINUOUS
62
252
70
192
10
0.595850
20
-0.106913
30
0.263033
0
VERTEX
8
0
6
CONTINUOUS
62
252
70
192
10
0.594600
20
-0.140625
30
0.243570
0
VERTEX
8
0
6
CONTINUOUS
62
252
70
192
10
0.595850
20
-0.174337
30
0.224106
0
VERTEX
8
0
6
CONTINUOUS
62
252
70
192
10
0.599578
20
-0.208366
30
0.204459
0
VERTEX
8
0
6
CONTINUOUS
62
252
70
192
10
0.605852
20
-0.243663
30
0.184081
0
VERTEX
8
0
6
CONTINUOUS
62
252
70
192
10
0.614889
20
-0.281250
30
0.162380
0
VERTEX
8
0
6
CONTINUOUS
62
252
70
192
10
0.729711
20
-0.281250
30
0.162380
0
VERTEX
8
0
6
CONTINUOUS
62
252
70
192
10
0.738748
20
-0.243663
30
0.184081
0
VERTEX
8
0
6
CONTINUOUS
62
252
70
192
10
0.745022
20
-0.208366
30
0.204459
0
VERTEX
8
0
6
CONTINUOUS
62
252
70
192
10
0.748750
20
-0.174337
30
0.224106
0
VERTEX
8
0
6
CONTINUOUS
62
252
70
128
10
0.000000
20
0.000000
30
0.000000
71
2
72
9
73
1
0
VERTEX
8
0
6
CONTINUOUS
62
252
70
128
10
0.000000
20
0.000000
30
0.000000
71
1
72
9
73
10
0
VERTEX
8
0
6
CONTINUOUS
62
252
70
128
10
0.000000
20
0.000000
30
0.000000
71
1
72
10
73
11
0
VERTEX
8
0
6
CONTINUOUS
62
252
70
128
10
0.000000
20
0.000000
30
0.000000
71
2
72
3
73
9
0
VERTEX
8
0
6
CONTINUOUS
62
252
70
128
10
0.000000
20
0.000000
30
0.000000
71
9
72
3
73
8
0
VERTEX
8
0
6
CONTINUOUS
62
252
70
128
10
0.000000
20
0.000000
30
0.000000
71
8
72
3
73
4
0
VERTEX
8
0
6
CONTINUOUS
62
252
70
128
10
0.000000
20
0.000000
30
0.000000
71
8
72
4
73
7
0
VERTEX
8
0
6
CONTINUOUS
62
252
70
128
10
0.000000
20
0.000000
30
0.000000
71
7
72
4
73
6
0
VERTEX
8
0
6
CONTINUOUS
62
252
70
128
10
0.000000
20
0.000000
30
0.000000
71
6
72
4
73
5
0
VERTEX
8
0
6
CONTINUOUS
62
252
70
128
10
0.000000
20
0.000000
30
0.000000
71
12
72
17
73
11
0
VERTEX
8
0
6
CONTINUOUS
62
252
70
128
10
0.000000
20
0.000000
30
0.000000
71
11
72
17
73
18
0
VERTEX
8
0
6
CONTINUOUS
62
252
70
128
10
0.000000
20
0.000000
30
0.000000
71
11
72
18
73
1
0
VERTEX
8
0
6
CONTINUOUS
62
252
70
128
10
0.000000
20
0.000000
30
0.000000
71
17
72
12
73
16
0
VERTEX
8
0
6
CONTINUOUS
62
252
70
128
10
0.000000
20
0.000000
30
0.000000
71
16
72
12
73
13
0
VERTEX
8
0
6
CONTINUOUS
62
252
70
128
10
0.000000
20
0.000000
30
0.000000
71
16
72
13
73
14
0
VERTEX
8
0
6
CONTINUOUS
62
252
70
128
10
0.000000
20
0.000000
30
0.000000
71
14
72
15
73
16
0
SEQEND
0
POLYLINE
66
1
8
0
6
CONTINUOUS
62
252
70
64
75
0
10
0.000000
20
0.000000
30
0.000000
0
VERTEX
8
0
6
CONTINUOUS
62
252
70
192
10
0.594600
20
0.000000
30
-0.270000
0
VERTEX
8
0
6
CONTINUOUS
62
252
70
192
10
0.594600
20
0.028223
30
-0.268521
0
VERTEX
8
0
6
CONTINUOUS
62
252
70
192
10
0.594600
20
0.056136
30
-0.264100
0
VERTEX
8
0
6
CONTINUOUS
62
252
70
192
10
0.594600
20
0.083435
30
-0.256785
0
VERTEX
8
0
6
CONTINUOUS
62
252
70
192
10
0.594600
20
0.109819
30
-0.246657
0
VERTEX
8
0
6
CONTINUOUS
62
252
70
192
10
0.594600
20
0.135000
30
-0.233827
0
VERTEX
8
0
6
CONTINUOUS
62
252
70
192
10
0.594600
20
0.158702
30
-0.218435
0
VERTEX
8
0
6
CONTINUOUS
62
252
70
192
10
0.594600
20
0.180665
30
-0.200649
0
VERTEX
8
0
6
CONTINUOUS
62
252
70
192
10
0.594600
20
0.200649
30
-0.180665
0
VERTEX
8
0
6
CONTINUOUS
62
252
70
192
10
0.594600
20
0.218435
30
-0.158702
0
VERTEX
8
0
6
CONTINUOUS
62
252
70
192
10
0.594600
20
0.233827
30
-0.135000
0
VERTEX
8
0
6
CONTINUOUS
62
252
70
192
10
0.594600
20
0.246657
30
-0.109819
0
VERTEX
8
0
6
CONTINUOUS
62
252
70
192
10
0.594600
20
0.256785
30
-0.083435
0
VERTEX
8
0
6
CONTINUOUS
62
252
70
192
10
0.594600
20
0.264100
30
-0.056136
0
VERTEX
8
0
6
CONTINUOUS
62
252
70
192
10
0.594600
20
0.268521
30
-0.028223
0
VERTEX
8
0
6
CONTINUOUS
62
252
70
192
10
0.594600
20
0.270000
30
-0.000000
0
VERTEX
8
0
6
CONTINUOUS
62
252
70
192
10
0.594600
20
0.268521
30
0.028223
0
VERTEX
8
0
6
CONTINUOUS
62
252
70
192
10
0.594600
20
0.264100
30
0.056136
0
VERTEX
8
0
6
CONTINUOUS
62
252
70
192
10
0.594600
20
0.256785
30
0.083435
0
VERTEX
8
0
6
CONTINUOUS
62
252
70
192
10
0.594600
20
0.246657
30
0.109819
0
VERTEX
8
0
6
CONTINUOUS
62
252
70
192
10
0.594600
20
0.233827
30
0.135000
0
VERTEX
8
0
6
CONTINUOUS
62
252
70
192
10
0.594600
20
0.218435
30
0.158702
0
VERTEX
8
0
6
CONTINUOUS
62
252
70
192
10
0.594600
20
0.200649
30
0.180665
0
VERTEX
8
0
6
CONTINUOUS
62
252
70
192
10
0.594600
20
0.180665
30
0.200649
0
VERTEX
8
0
6
CONTINUOUS
62
252
70
192
10
0.594600
20
0.158702
30
0.218435
0
VERTEX
8
0
6
CONTINUOUS
62
252
70
192
10
0.594600
20
0.135000
30
0.233827
0
VERTEX
8
0
6
CONTINUOUS
62
252
70
192
10
0.594600
20
0.109819
30
0.246657
0
VERTEX
8
0
6
CONTINUOUS
62
252
70
192
10
0.594600
20
0.083435
30
0.256785
0
VERTEX
8
0
6
CONTINUOUS
62
252
70
192
10
0.594600
20
0.056136
30
0.264100
0
VERTEX
8
0
6
CONTINUOUS
62
252
70
192
10
0.594600
20
0.028223
30
0.268521
0
VERTEX
8
0
6
CONTINUOUS
62
252
70
192
10
0.594600
20
0.000000
30
0.270000
0
VERTEX
8
0
6
CONTINUOUS
62
252
70
192
10
0.594600
20
-0.028223
30
0.268521
0
VERTEX
8
0
6
CONTINUOUS
62
252
70
192
10
0.594600
20
-0.056136
30
0.264100
0
VERTEX
8
0
6
CONTINUOUS
62
252
70
192
10
0.594600
20
-0.083435
30
0.256785
0
VERTEX
8
0
6
CONTINUOUS
62
252
70
192
10
0.594600
20
-0.109819
30
0.246657
0
VERTEX
8
0
6
CONTINUOUS
62
252
70
192
10
0.594600
20
-0.135000
30
0.233827
0
VERTEX
8
0
6
CONTINUOUS
62
252
70
192
10
0.594600
20
-0.158702
30
0.218435
0
VERTEX
8
0
6
CONTINUOUS
62
252
70
192
10
0.594600
20
-0.180665
30
0.200649
0
VERTEX
8
0
6
CONTINUOUS
62
252
70
192
10
0.594600
20
-0.200649
30
0.180665
0
VERTEX
8
0
6
CONTINUOUS
62
252
70
192
10
0.594600
20
-0.218435
30
0.158702
0
VERTEX
8
0
6
CONTINUOUS
62
252
70
192
10
0.594600
20
-0.233827
30
0.135000
0
VERTEX
8
0
6
CONTINUOUS
62
252
70
192
10
0.594600
20
-0.246657
30
0.109819
0
VERTEX
8
0
6
CONTINUOUS
62
252
70
192
10
0.594600
20
-0.256785
30
0.083435
0
VERTEX
8
0
6
CONTINUOUS
62
252
70
192
10
0.594600
20
-0.264100
30
0.056136
0
VERTEX
8
0
6
CONTINUOUS
62
252
70
192
10
0.594600
20
-0.268521
30
0.028223
0
VERTEX
8
0
6
CONTINUOUS
62
252
70
192
10
0.594600
20
-0.270000
30
0.000000
0
VERTEX
8
0
6
CONTINUOUS
62
252
70
192
10
0.594600
20
-0.268521
30
-0.028223
0
VERTEX
8
0
6
CONTINUOUS
62
252
70
192
10
0.594600
20
-0.264100
30
-0.056136
0
VERTEX
8
0
6
CONTINUOUS
62
252
70
192
10
0.594600
20
-0.256785
30
-0.083435
0
VERTEX
8
0
6
CONTINUOUS
62
252
70
192
10
0.594600
20
-0.246657
30
-0.109819
0
VERTEX
8
0
6
CONTINUOUS
62
252
70
192
10
0.594600
20
-0.233827
30
-0.135000
0
VERTEX
8
0
6
CONTINUOUS
62
252
70
192
10
0.594600
20
-0.218435
30
-0.158702
0
VERTEX
8
0
6
CONTINUOUS
62
252
70
192
10
0.594600
20
-0.200649
30
-0.180665
0
VERTEX
8
0
6
CONTINUOUS
62
252
70
192
10
0.594600
20
-0.180665
30
-0.200649
0
VERTEX
8
0
6
CONTINUOUS
62
252
70
192
10
0.594600
20
-0.158702
30
-0.218435
0
VERTEX
8
0
6
CONTINUOUS
62
252
70
192
10
0.594600
20
-0.135000
30
-0.233827
0
VERTEX
8
0
6
CONTINUOUS
62
252
70
192
10
0.594600
20
-0.109819
30
-0.246657
0
VERTEX
8
0
6
CONTINUOUS
62
252
70
192
10
0.594600
20
-0.083435
30
-0.256785
0
VERTEX
8
0
6
CONTINUOUS
62
252
70
192
10
0.594600
20
-0.056136
30
-0.264100
0
VERTEX
8
0
6
CONTINUOUS
62
252
70
192
10
0.594600
20
-0.028223
30
-0.268521
0
VERTEX
8
0
6
CONTINUOUS
62
252
70
192
10
0.594600
20
-0.140625
30
0.243570
0
VERTEX
8
0
6
CONTINUOUS
62
252
70
192
10
0.594600
20
-0.114395
30
0.256935
0
VERTEX
8
0
6
CONTINUOUS
62
252
70
192
10
0.594600
20
-0.086911
30
0.267485
0
VERTEX
8
0
6
CONTINUOUS
62
252
70
192
10
0.594600
20
-0.058475
30
0.275104
0
VERTEX
8
0
6
CONTINUOUS
62
252
70
192
10
0.594600
20
-0.029399
30
0.279709
0
VERTEX
8
0
6
CONTINUOUS
62
252
70
192
10
0.594600
20
-0.000000
30
0.281250
0
VERTEX
8
0
6
CONTINUOUS
62
252
70
192
10
0.594600
20
0.029399
30
0.279709
0
VERTEX
8
0
6
CONTINUOUS
62
252
70
192
10
0.594600
20
0.058475
30
0.275104
0
VERTEX
8
0
6
CONTINUOUS
62
252
70
192
10
0.594600
20
0.086911
30
0.267485
0
VERTEX
8
0
6
CONTINUOUS
62
252
70
192
10
0.594600
20
0.114395
30
0.256935
0
VERTEX
8
0
6
CONTINUOUS
62
252
70
192
10
0.594600
20
0.140625
30
0.243570
0
VERTEX
8
0
6
CONTINUOUS
62
252
70
192
10
0.594600
20
0.165315
30
0.227536
0
VERTEX
8
0
6
CONTINUOUS
62
252
70
192
10
0.594600
20
0.188193
30
0.209009
0
VERTEX
8
0
6
CONTINUOUS
62
252
70
192
10
0.594600
20
0.209009
30
0.188193
0
VERTEX
8
0
6
CONTINUOUS
62
252
70
192
10
0.594600
20
0.227536
30
0.165315
0
VERTEX
8
0
6
CONTINUOUS
62
252
70
192
10
0.594600
20
0.243570
30
0.140625
0
VERTEX
8
0
6
CONTINUOUS
62
252
70
192
10
0.594600
20
0.256935
30
0.114395
0
VERTEX
8
0
6
CONTINUOUS
62
252
70
192
10
0.594600
20
0.267485
30
0.086911
0
VERTEX
8
0
6
CONTINUOUS
62
252
70
192
10
0.594600
20
0.275104
30
0.058475
0
VERTEX
8
0
6
CONTINUOUS
62
252
70
192
10
0.594600
20
0.279709
30
0.029399
0
VERTEX
8
0
6
CONTINUOUS
62
252
70
192
10
0.594600
20
0.281250
30
-0.000000
0
VERTEX
8
0
6
CONTINUOUS
62
252
70
192
10
0.594600
20
0.279709
30
-0.029399
0
VERTEX
8
0
6
CONTINUOUS
62
252
70
192
10
0.594600
20
0.275104
30
-0.058475
0
VERTEX
8
0
6
CONTINUOUS
62
252
70
192
10
0.594600
20
0.267485
30
-0.086911
0
VERTEX
8
0
6
CONTINUOUS
62
252
70
192
10
0.594600
20
0.256935
30
-0.114395
0
VERTEX
8
0
6
CONTINUOUS
62
252
70
192
10
0.594600
20
0.243570
30
-0.140625
0
VERTEX
8
0
6
CONTINUOUS
62
252
70
192
10
0.594600
20
0.227536
30
-0.165315
0
VERTEX
8
0
6
CONTINUOUS
62
252
70
192
10
0.594600
20
0.209009
30
-0.188193
0
VERTEX
8
0
6
CONTINUOUS
62
252
70
192
10
0.594600
20
0.188193
30
-0.209009
0
VERTEX
8
0
6
CONTINUOUS
62
252
70
192
10
0.594600
20
0.165315
30
-0.227536
0
VERTEX
8
0
6
CONTINUOUS
62
252
70
192
10
0.594600
20
0.140625
30
-0.243570
0
VERTEX
8
0
6
CONTINUOUS
62
252
70
192
10
0.594600
20
0.114395
30
-0.256935
0
VERTEX
8
0
6
CONTINUOUS
62
252
70
192
10
0.594600
20
0.086911
30
-0.267485
0
VERTEX
8
0
6
CONTINUOUS
62
252
70
192
10
0.594600
20
0.058475
30
-0.275104
0
VERTEX
8
0
6
CONTINUOUS
62
252
70
192
10
0.594600
20
0.029399
30
-0.279709
0
VERTEX
8
0
6
CONTINUOUS
62
252
70
192
10
0.594600
20
-0.000000
30
-0.281250
0
VERTEX
8
0
6
CONTINUOUS
62
252
70
192
10
0.594600
20
-0.029399
30
-0.279709
0
VERTEX
8
0
6
CONTINUOUS
62
252
70
192
10
0.594600
20
-0.058475
30
-0.275104
0
VERTEX
8
0
6
CONTINUOUS
62
252
70
192
10
0.594600
20
-0.086911
30
-0.267485
0
VERTEX
8
0
6
CONTINUOUS
62
252
70
192
10
0.594600
20
-0.114395
30
-0.256935
0
VERTEX
8
0
6
CONTINUOUS
62
252
70
192
10
0.594600
20
-0.140625
30
-0.243570
0
VERTEX
8
0
6
CONTINUOUS
62
252
70
192
10
0.594600
20
-0.165315
30
-0.227536
0
VERTEX
8
0
6
CONTINUOUS
62
252
70
192
10
0.594600
20
-0.188193
30
-0.209009
0
VERTEX
8
0
6
CONTINUOUS
62
252
70
192
10
0.594600
20
-0.209009
30
-0.188193
0
VERTEX
8
0
6
CONTINUOUS
62
252
70
192
10
0.594600
20
-0.227536
30
-0.165315
0
VERTEX
8
0
6
CONTINUOUS
62
252
70
192
10
0.594600
20
-0.243570
30
-0.140625
0
VERTEX
8
0
6
CONTINUOUS
62
252
70
192
10
0.594600
20
-0.256935
30
-0.114395
0
VERTEX
8
0
6
CONTINUOUS
62
252
70
192
10
0.594600
20
-0.267485
30
-0.086911
0
VERTEX
8
0
6
CONTINUOUS
62
252
70
192
10
0.594600
20
-0.275104
30
-0.058475
0
VERTEX
8
0
6
CONTINUOUS
62
252
70
192
10
0.594600
20
-0.279709
30
-0.029399
0
VERTEX
8
0
6
CONTINUOUS
62
252
70
192
10
0.594600
20
-0.281250
30
0.000000
0
VERTEX
8
0
6
CONTINUOUS
62
252
70
192
10
0.594600
20
-0.279709
30
0.029399
0
VERTEX
8
0
6
CONTINUOUS
62
252
70
192
10
0.594600
20
-0.275104
30
0.058475
0
VERTEX
8
0
6
CONTINUOUS
62
252
70
192
10
0.594600
20
-0.267485
30
0.086911
0
VERTEX
8
0
6
CONTINUOUS
62
252
70
192
10
0.594600
20
-0.256935
30
0.114395
0
VERTEX
8
0
6
CONTINUOUS
62
252
70
192
10
0.594600
20
-0.243570
30
0.140625
0
VERTEX
8
0
6
CONTINUOUS
62
252
70
192
10
0.594600
20
-0.227536
30
0.165315
0
VERTEX
8
0
6
CONTINUOUS
62
252
70
192
10
0.594600
20
-0.209009
30
0.188193
0
VERTEX
8
0
6
CONTINUOUS
62
252
70
192
10
0.594600
20
-0.188193
30
0.209009
0
VERTEX
8
0
6
CONTINUOUS
62
252
70
192
10
0.594600
20
-0.165315
30
0.227536
0
VERTEX
8
0
6
CONTINUOUS
62
252
70
128
10
0.000000
20
0.000000
30
0.000000
71
2
72
95
73
1
0
VERTEX
8
0
6
CONTINUOUS
62
252
70
128
10
0.000000
20
0.000000
30
0.000000
71
1
72
95
73
96
0
VERTEX
8
0
6
CONTINUOUS
62
252
70
128
10
0.000000
20
0.000000
30
0.000000
71
1
72
96
73
60
0
VERTEX
8
0
6
CONTINUOUS
62
252
70
128
10
0.000000
20
0.000000
30
0.000000
71
60
72
96
73
97
0
VERTEX
8
0
6
CONTINUOUS
62
252
70
128
10
0.000000
20
0.000000
30
0.000000
71
60
72
97
73
98
0
VERTEX
8
0
6
CONTINUOUS
62
252
70
128
10
0.000000
20
0.000000
30
0.000000
71
95
72
2
73
94
0
VERTEX
8
0
6
CONTINUOUS
62
252
70
128
10
0.000000
20
0.000000
30
0.000000
71
94
72
2
73
3
0
VERTEX
8
0
6
CONTINUOUS
62
252
70
128
10
0.000000
20
0.000000
30
0.000000
71
94
72
3
73
93
0
VERTEX
8
0
6
CONTINUOUS
62
252
70
128
10
0.000000
20
0.000000
30
0.000000
71
93
72
3
73
4
0
VERTEX
8
0
6
CONTINUOUS
62
252
70
128
10
0.000000
20
0.000000
30
0.000000
71
93
72
4
73
92
0
VERTEX
8
0
6
CONTINUOUS
62
252
70
128
10
0.000000
20
0.000000
30
0.000000
71
92
72
4
73
5
0
VERTEX
8
0
6
CONTINUOUS
62
252
70
128
10
0.000000
20
0.000000
30
0.000000
71
92
72
5
73
91
0
VERTEX
8
0
6
CONTINUOUS
62
252
70
128
10
0.000000
20
0.000000
30
0.000000
71
91
72
5
73
6
0
VERTEX
8
0
6
CONTINUOUS
62
252
70
128
10
0.000000
20
0.000000
30
0.000000
71
91
72
6
73
90
0
VERTEX
8
0
6
CONTINUOUS
62
252
70
128
10
0.000000
20
0.000000
30
0.000000
71
90
72
6
73
7
0
VERTEX
8
0
6
CONTINUOUS
62
252
70
128
10
0.000000
20
0.000000
30
0.000000
71
90
72
7
73
8
0
VERTEX
8
0
6
CONTINUOUS
62
252
70
128
10
0.000000
20
0.000000
30
0.000000
71
9
72
88
73
8
0
VERTEX
8
0
6
CONTINUOUS
62
252
70
128
10
0.000000
20
0.000000
30
0.000000
71
8
72
88
73
89
0
VERTEX
8
0
6
CONTINUOUS
62
252
70
128
10
0.000000
20
0.000000
30
0.000000
71
8
72
89
73
90
0
VERTEX
8
0
6
CONTINUOUS
62
252
70
128
10
0.000000
20
0.000000
30
0.000000
71
9
72
10
73
88
0
VERTEX
8
0
6
CONTINUOUS
62
252
70
128
10
0.000000
20
0.000000
30
0.000000
71
88
72
10
73
87
0
VERTEX
8
0
6
CONTINUOUS
62
252
70
128
10
0.000000
20
0.000000
30
0.000000
71
87
72
10
73
11
0
VERTEX
8
0
6
CONTINUOUS
62
252
70
128
10
0.000000
20
0.000000
30
0.000000
71
87
72
11
73
86
0
VERTEX
8
0
6
CONTINUOUS
62
252
70
128
10
0.000000
20
0.000000
30
0.000000
71
86
72
11
73
12
0
VERTEX
8
0
6
CONTINUOUS
62
252
70
128
10
0.000000
20
0.000000
30
0.000000
71
86
72
12
73
85
0
VERTEX
8
0
6
CONTINUOUS
62
252
70
128
10
0.000000
20
0.000000
30
0.000000
71
85
72
12
73
13
0
VERTEX
8
0
6
CONTINUOUS
62
252
70
128
10
0.000000
20
0.000000
30
0.000000
71
85
72
13
73
84
0
VERTEX
8
0
6
CONTINUOUS
62
252
70
128
10
0.000000
20
0.000000
30
0.000000
71
84
72
13
73
83
0
VERTEX
8
0
6
CONTINUOUS
62
252
70
128
10
0.000000
20
0.000000
30
0.000000
71
83
72
13
73
14
0
VERTEX
8
0
6
CONTINUOUS
62
252
70
128
10
0.000000
20
0.000000
30
0.000000
71
83
72
14
73
15
0
VERTEX
8
0
6
CONTINUOUS
62
252
70
128
10
0.000000
20
0.000000
30
0.000000
71
83
72
15
73
82
0
VERTEX
8
0
6
CONTINUOUS
62
252
70
128
10
0.000000
20
0.000000
30
0.000000
71
82
72
15
73
16
0
VERTEX
8
0
6
CONTINUOUS
62
252
70
128
10
0.000000
20
0.000000
30
0.000000
71
82
72
16
73
81
0
VERTEX
8
0
6
CONTINUOUS
62
252
70
128
10
0.000000
20
0.000000
30
0.000000
71
81
72
16
73
17
0
VERTEX
8
0
6
CONTINUOUS
62
252
70
128
10
0.000000
20
0.000000
30
0.000000
71
81
72
17
73
80
0
VERTEX
8
0
6
CONTINUOUS
62
252
70
128
10
0.000000
20
0.000000
30
0.000000
71
80
72
17
73
79
0
VERTEX
8
0
6
CONTINUOUS
62
252
70
128
10
0.000000
20
0.000000
30
0.000000
71
79
72
17
73
18
0
VERTEX
8
0
6
CONTINUOUS
62
252
70
128
10
0.000000
20
0.000000
30
0.000000
71
79
72
18
73
19
0
VERTEX
8
0
6
CONTINUOUS
62
252
70
128
10
0.000000
20
0.000000
30
0.000000
71
79
72
19
73
78
0
VERTEX
8
0
6
CONTINUOUS
62
252
70
128
10
0.000000
20
0.000000
30
0.000000
71
78
72
19
73
20
0
VERTEX
8
0
6
CONTINUOUS
62
252
70
128
10
0.000000
20
0.000000
30
0.000000
71
78
72
20
73
77
0
VERTEX
8
0
6
CONTINUOUS
62
252
70
128
10
0.000000
20
0.000000
30
0.000000
71
77
72
20
73
21
0
VERTEX
8
0
6
CONTINUOUS
62
252
70
128
10
0.000000
20
0.000000
30
0.000000
71
77
72
21
73
76
0
VERTEX
8
0
6
CONTINUOUS
62
252
70
128
10
0.000000
20
0.000000
30
0.000000
71
76
72
21
73
22
0
VERTEX
8
0
6
CONTINUOUS
62
252
70
128
10
0.000000
20
0.000000
30
0.000000
71
76
72
22
73
75
0
VERTEX
8
0
6
CONTINUOUS
62
252
70
128
10
0.000000
20
0.000000
30
0.000000
71
75
72
22
73
23
0
VERTEX
8
0
6
CONTINUOUS
62
252
70
128
10
0.000000
20
0.000000
30
0.000000
71
75
72
23
73
74
0
VERTEX
8
0
6
CONTINUOUS
62
252
70
128
10
0.000000
20
0.000000
30
0.000000
71
74
72
23
73
24
0
VERTEX
8
0
6
CONTINUOUS
62
252
70
128
10
0.000000
20
0.000000
30
0.000000
71
74
72
24
73
73
0
VERTEX
8
0
6
CONTINUOUS
62
252
70
128
10
0.000000
20
0.000000
30
0.000000
71
73
72
24
73
25
0
VERTEX
8
0
6
CONTINUOUS
62
252
70
128
10
0.000000
20
0.000000
30
0.000000
71
73
72
25
73
72
0
VERTEX
8
0
6
CONTINUOUS
62
252
70
128
10
0.000000
20
0.000000
30
0.000000
71
72
72
25
73
26
0
VERTEX
8
0
6
CONTINUOUS
62
252
70
128
10
0.000000
20
0.000000
30
0.000000
71
72
72
26
73
71
0
VERTEX
8
0
6
CONTINUOUS
62
252
70
128
10
0.000000
20
0.000000
30
0.000000
71
71
72
26
73
27
0
VERTEX
8
0
6
CONTINUOUS
62
252
70
128
10
0.000000
20
0.000000
30
0.000000
71
71
72
27
73
70
0
VERTEX
8
0
6
CONTINUOUS
62
252
70
128
10
0.000000
20
0.000000
30
0.000000
71
70
72
27
73
28
0
VERTEX
8
0
6
CONTINUOUS
62
252
70
128
10
0.000000
20
0.000000
30
0.000000
71
70
72
28
73
69
0
VERTEX
8
0
6
CONTINUOUS
62
252
70
128
10
0.000000
20
0.000000
30
0.000000
71
69
72
28
73
29
0
VERTEX
8
0
6
CONTINUOUS
62
252
70
128
10
0.000000
20
0.000000
30
0.000000
71
69
72
29
73
68
0
VERTEX
8
0
6
CONTINUOUS
62
252
70
128
10
0.000000
20
0.000000
30
0.000000
71
68
72
29
73
30
0
VERTEX
8
0
6
CONTINUOUS
62
252
70
128
10
0.000000
20
0.000000
30
0.000000
71
68
72
30
73
67
0
VERTEX
8
0
6
CONTINUOUS
62
252
70
128
10
0.000000
20
0.000000
30
0.000000
71
67
72
30
73
31
0
VERTEX
8
0
6
CONTINUOUS
62
252
70
128
10
0.000000
20
0.000000
30
0.000000
71
67
72
31
73
66
0
VERTEX
8
0
6
CONTINUOUS
62
252
70
128
10
0.000000
20
0.000000
30
0.000000
71
66
72
31
73
32
0
VERTEX
8
0
6
CONTINUOUS
62
252
70
128
10
0.000000
20
0.000000
30
0.000000
71
66
72
32
73
65
0
VERTEX
8
0
6
CONTINUOUS
62
252
70
128
10
0.000000
20
0.000000
30
0.000000
71
65
72
32
73
33
0
VERTEX
8
0
6
CONTINUOUS
62
252
70
128
10
0.000000
20
0.000000
30
0.000000
71
65
72
33
73
64
0
VERTEX
8
0
6
CONTINUOUS
62
252
70
128
10
0.000000
20
0.000000
30
0.000000
71
64
72
33
73
34
0
VERTEX
8
0
6
CONTINUOUS
62
252
70
128
10
0.000000
20
0.000000
30
0.000000
71
64
72
34
73
63
0
VERTEX
8
0
6
CONTINUOUS
62
252
70
128
10
0.000000
20
0.000000
30
0.000000
71
63
72
34
73
35
0
VERTEX
8
0
6
CONTINUOUS
62
252
70
128
10
0.000000
20
0.000000
30
0.000000
71
63
72
35
73
62
0
VERTEX
8
0
6
CONTINUOUS
62
252
70
128
10
0.000000
20
0.000000
30
0.000000
71
62
72
35
73
36
0
VERTEX
8
0
6
CONTINUOUS
62
252
70
128
10
0.000000
20
0.000000
30
0.000000
71
62
72
36
73
61
0
VERTEX
8
0
6
CONTINUOUS
62
252
70
128
10
0.000000
20
0.000000
30
0.000000
71
61
72
36
73
120
0
VERTEX
8
0
6
CONTINUOUS
62
252
70
128
10
0.000000
20
0.000000
30
0.000000
71
120
72
36
73
37
0
VERTEX
8
0
6
CONTINUOUS
62
252
70
128
10
0.000000
20
0.000000
30
0.000000
71
120
72
37
73
38
0
VERTEX
8
0
6
CONTINUOUS
62
252
70
128
10
0.000000
20
0.000000
30
0.000000
71
120
72
38
73
119
0
VERTEX
8
0
6
CONTINUOUS
62
252
70
128
10
0.000000
20
0.000000
30
0.000000
71
119
72
38
73
39
0
VERTEX
8
0
6
CONTINUOUS
62
252
70
128
10
0.000000
20
0.000000
30
0.000000
71
119
72
39
73
118
0
VERTEX
8
0
6
CONTINUOUS
62
252
70
128
10
0.000000
20
0.000000
30
0.000000
71
118
72
39
73
40
0
VERTEX
8
0
6
CONTINUOUS
62
252
70
128
10
0.000000
20
0.000000
30
0.000000
71
118
72
40
73
117
0
VERTEX
8
0
6
CONTINUOUS
62
252
70
128
10
0.000000
20
0.000000
30
0.000000
71
117
72
40
73
41
0
VERTEX
8
0
6
CONTINUOUS
62
252
70
128
10
0.000000
20
0.000000
30
0.000000
71
117
72
41
73
116
0
VERTEX
8
0
6
CONTINUOUS
62
252
70
128
10
0.000000
20
0.000000
30
0.000000
71
116
72
41
73
42
0
VERTEX
8
0
6
CONTINUOUS
62
252
70
128
10
0.000000
20
0.000000
30
0.000000
71
116
72
42
73
115
0
VERTEX
8
0
6
CONTINUOUS
62
252
70
128
10
0.000000
20
0.000000
30
0.000000
71
115
72
42
73
43
0
VERTEX
8
0
6
CONTINUOUS
62
252
70
128
10
0.000000
20
0.000000
30
0.000000
71
115
72
43
73
114
0
VERTEX
8
0
6
CONTINUOUS
62
252
70
128
10
0.000000
20
0.000000
30
0.000000
71
114
72
43
73
44
0
VERTEX
8
0
6
CONTINUOUS
62
252
70
128
10
0.000000
20
0.000000
30
0.000000
71
114
72
44
73
113
0
VERTEX
8
0
6
CONTINUOUS
62
252
70
128
10
0.000000
20
0.000000
30
0.000000
71
113
72
44
73
45
0
VERTEX
8
0
6
CONTINUOUS
62
252
70
128
10
0.000000
20
0.000000
30
0.000000
71
113
72
45
73
112
0
VERTEX
8
0
6
CONTINUOUS
62
252
70
128
10
0.000000
20
0.000000
30
0.000000
71
112
72
45
73
46
0
VERTEX
8
0
6
CONTINUOUS
62
252
70
128
10
0.000000
20
0.000000
30
0.000000
71
112
72
46
73
111
0
VERTEX
8
0
6
CONTINUOUS
62
252
70
128
10
0.000000
20
0.000000
30
0.000000
71
111
72
46
73
110
0
VERTEX
8
0
6
CONTINUOUS
62
252
70
128
10
0.000000
20
0.000000
30
0.000000
71
110
72
46
73
47
0
VERTEX
8
0
6
CONTINUOUS
62
252
70
128
10
0.000000
20
0.000000
30
0.000000
71
110
72
47
73
48
0
VERTEX
8
0
6
CONTINUOUS
62
252
70
128
10
0.000000
20
0.000000
30
0.000000
71
110
72
48
73
109
0
VERTEX
8
0
6
CONTINUOUS
62
252
70
128
10
0.000000
20
0.000000
30
0.000000
71
109
72
48
73
49
0
VERTEX
8
0
6
CONTINUOUS
62
252
70
128
10
0.000000
20
0.000000
30
0.000000
71
109
72
49
73
108
0
VERTEX
8
0
6
CONTINUOUS
62
252
70
128
10
0.000000
20
0.000000
30
0.000000
71
108
72
49
73
107
0
VERTEX
8
0
6
CONTINUOUS
62
252
70
128
10
0.000000
20
0.000000
30
0.000000
71
107
72
49
73
50
0
VERTEX
8
0
6
CONTINUOUS
62
252
70
128
10
0.000000
20
0.000000
30
0.000000
71
107
72
50
73
51
0
VERTEX
8
0
6
CONTINUOUS
62
252
70
128
10
0.000000
20
0.000000
30
0.000000
71
52
72
105
73
51
0
VERTEX
8
0
6
CONTINUOUS
62
252
70
128
10
0.000000
20
0.000000
30
0.000000
71
51
72
105
73
106
0
VERTEX
8
0
6
CONTINUOUS
62
252
70
128
10
0.000000
20
0.000000
30
0.000000
71
51
72
106
73
107
0
VERTEX
8
0
6
CONTINUOUS
62
252
70
128
10
0.000000
20
0.000000
30
0.000000
71
105
72
52
73
104
0
VERTEX
8
0
6
CONTINUOUS
62
252
70
128
10
0.000000
20
0.000000
30
0.000000
71
104
72
52
73
53
0
VERTEX
8
0
6
CONTINUOUS
62
252
70
128
10
0.000000
20
0.000000
30
0.000000
71
104
72
53
73
54
0
VERTEX
8
0
6
CONTINUOUS
62
252
70
128
10
0.000000
20
0.000000
30
0.000000
71
55
72
102
73
54
0
VERTEX
8
0
6
CONTINUOUS
62
252
70
128
10
0.000000
20
0.000000
30
0.000000
71
54
72
102
73
103
0
VERTEX
8
0
6
CONTINUOUS
62
252
70
128
10
0.000000
20
0.000000
30
0.000000
71
54
72
103
73
104
0
VERTEX
8
0
6
CONTINUOUS
62
252
70
128
10
0.000000
20
0.000000
30
0.000000
71
102
72
55
73
101
0
VERTEX
8
0
6
CONTINUOUS
62
252
70
128
10
0.000000
20
0.000000
30
0.000000
71
101
72
55
73
56
0
VERTEX
8
0
6
CONTINUOUS
62
252
70
128
10
0.000000
20
0.000000
30
0.000000
71
101
72
56
73
57
0
VERTEX
8
0
6
CONTINUOUS
62
252
70
128
10
0.000000
20
0.000000
30
0.000000
71
101
72
57
73
100
0
VERTEX
8
0
6
CONTINUOUS
62
252
70
128
10
0.000000
20
0.000000
30
0.000000
71
100
72
57
73
58
0
VERTEX
8
0
6
CONTINUOUS
62
252
70
128
10
0.000000
20
0.000000
30
0.000000
71
100
72
58
73
99
0
VERTEX
8
0
6
CONTINUOUS
62
252
70
128
10
0.000000
20
0.000000
30
0.000000
71
99
72
58
73
98
0
VERTEX
8
0
6
CONTINUOUS
62
252
70
128
10
0.000000
20
0.000000
30
0.000000
71
98
72
58
73
59
0
VERTEX
8
0
6
CONTINUOUS
62
252
70
128
10
0.000000
20
0.000000
30
0.000000
71
98
72
59
73
60
0
SEQEND
0
POLYLINE
66
1
8
0
6
CONTINUOUS
62
252
70
64
75
0
10
0.000000
20
0.000000
30
0.000000
0
VERTEX
8
0
6
CONTINUOUS
62
252
70
192
10
0.000000
20
0.000000
30
-0.095000
0
VERTEX
8
0
6
CONTINUOUS
62
252
70
192
10
-0.000000
20
-0.009930
30
-0.094480
0
VERTEX
8
0
6
CONTINUOUS
62
252
70
192
10
-0.000000
20
-0.019752
30
-0.092924
0
VERTEX
8
0
6
CONTINUOUS
62
252
70
192
10
-0.000000
20
-0.029357
30
-0.090350
0
VERTEX
8
0
6
CONTINUOUS
62
252
70
192
10
-0.000000
20
-0.038640
30
-0.086787
0
VERTEX
8
0
6
CONTINUOUS
62
252
70
192
10
-0.000000
20
-0.047500
30
-0.082272
0
VERTEX
8
0
6
CONTINUOUS
62
252
70
192
10
-0.000000
20
-0.055840
30
-0.076857
0
VERTEX
8
0
6
CONTINUOUS
62
252
70
192
10
-0.000000
20
-0.063567
30
-0.070599
0
VERTEX
8
0
6
CONTINUOUS
62
252
70
192
10
-0.000000
20
-0.070599
30
-0.063567
0
VERTEX
8
0
6
CONTINUOUS
62
252
70
192
10
-0.000000
20
-0.076857
30
-0.055840
0
VERTEX
8
0
6
CONTINUOUS
62
252
70
192
10
-0.000000
20
-0.082272
30
-0.047500
0
VERTEX
8
0
6
CONTINUOUS
62
252
70
192
10
-0.000000
20
-0.086787
30
-0.038640
0
VERTEX
8
0
6
CONTINUOUS
62
252
70
192
10
-0.000000
20
-0.090350
30
-0.029357
0
VERTEX
8
0
6
CONTINUOUS
62
252
70
192
10
-0.000000
20
-0.092924
30
-0.019752
0
VERTEX
8
0
6
CONTINUOUS
62
252
70
192
10
-0.000000
20
-0.094480
30
-0.009930
0
VERTEX
8
0
6
CONTINUOUS
62
252
70
192
10
-0.000000
20
-0.095000
30
0.000000
0
VERTEX
8
0
6
CONTINUOUS
62
252
70
192
10
-0.000000
20
-0.094480
30
0.009930
0
VERTEX
8
0
6
CONTINUOUS
62
252
70
192
10
-0.000000
20
-0.092924
30
0.019752
0
VERTEX
8
0
6
CONTINUOUS
62
252
70
192
10
-0.000000
20
-0.090350
30
0.029357
0
VERTEX
8
0
6
CONTINUOUS
62
252
70
192
10
-0.000000
20
-0.086787
30
0.038640
0
VERTEX
8
0
6
CONTINUOUS
62
252
70
192
10
-0.000000
20
-0.082272
30
0.047500
0
VERTEX
8
0
6
CONTINUOUS
62
252
70
192
10
-0.000000
20
-0.076857
30
0.055840
0
VERTEX
8
0
6
CONTINUOUS
62
252
70
192
10
-0.000000
20
-0.070599
30
0.063567
0
VERTEX
8
0
6
CONTINUOUS
62
252
70
192
10
0.000000
20
-0.063567
30
0.070599
0
VERTEX
8
0
6
CONTINUOUS
62
252
70
192
10
0.000000
20
-0.055840
30
0.076857
0
VERTEX
8
0
6
CONTINUOUS
62
252
70
192
10
0.000000
20
-0.047500
30
0.082272
0
VERTEX
8
0
6
CONTINUOUS
62
252
70
192
10
0.000000
20
-0.038640
30
0.086787
0
VERTEX
8
0
6
CONTINUOUS
62
252
70
192
10
0.000000
20
-0.029357
30
0.090350
0
VERTEX
8
0
6
CONTINUOUS
62
252
70
192
10
0.000000
20
-0.019752
30
0.092924
0
VERTEX
8
0
6
CONTINUOUS
62
252
70
192
10
0.000000
20
-0.009930
30
0.094480
0
VERTEX
8
0
6
CONTINUOUS
62
252
70
192
10
0.000000
20
0.000000
30
0.095000
0
VERTEX
8
0
6
CONTINUOUS
62
252
70
192
10
0.000000
20
0.009930
30
0.094480
0
VERTEX
8
0
6
CONTINUOUS
62
252
70
192
10
0.000000
20
0.019752
30
0.092924
0
VERTEX
8
0
6
CONTINUOUS
62
252
70
192
10
0.000000
20
0.029357
30
0.090350
0
VERTEX
8
0
6
CONTINUOUS
62
252
70
192
10
0.000000
20
0.038640
30
0.086787
0
VERTEX
8
0
6
CONTINUOUS
62
252
70
192
10
0.000000
20
0.047500
30
0.082272
0
VERTEX
8
0
6
CONTINUOUS
62
252
70
192
10
0.000000
20
0.055840
30
0.076857
0
VERTEX
8
0
6
CONTINUOUS
62
252
70
192
10
0.000000
20
0.063567
30
0.070599
0
VERTEX
8
0
6
CONTINUOUS
62
252
70
192
10
0.000000
20
0.070599
30
0.063567
0
VERTEX
8
0
6
CONTINUOUS
62
252
70
192
10
0.000000
20
0.076857
30
0.055840
0
VERTEX
8
0
6
CONTINUOUS
62
252
70
192
10
0.000000
20
0.082272
30
0.047500
0
VERTEX
8
0
6
CONTINUOUS
62
252
70
192
10
0.000000
20
0.086787
30
0.038640
0
VERTEX
8
0
6
CONTINUOUS
62
252
70
192
10
0.000000
20
0.090350
30
0.029357
0
VERTEX
8
0
6
CONTINUOUS
62
252
70
192
10
0.000000
20
0.092924
30
0.019752
0
VERTEX
8
0
6
CONTINUOUS
62
252
70
192
10
0.000000
20
0.094480
30
0.009930
0
VERTEX
8
0
6
CONTINUOUS
62
252
70
192
10
0.000000
20
0.095000
30
0.000000
0
VERTEX
8
0
6
CONTINUOUS
62
252
70
192
10
0.000000
20
0.094480
30
-0.009930
0
VERTEX
8
0
6
CONTINUOUS
62
252
70
192
10
0.000000
20
0.092924
30
-0.019752
0
VERTEX
8
0
6
CONTINUOUS
62
252
70
192
10
0.000000
20
0.090350
30
-0.029357
0
VERTEX
8
0
6
CONTINUOUS
62
252
70
192
10
0.000000
20
0.086787
30
-0.038640
0
VERTEX
8
0
6
CONTINUOUS
62
252
70
192
10
0.000000
20
0.082272
30
-0.047500
0
VERTEX
8
0
6
CONTINUOUS
62
252
70
192
10
0.000000
20
0.076857
30
-0.055840
0
VERTEX
8
0
6
CONTINUOUS
62
252
70
192
10
0.000000
20
0.070599
30
-0.063567
0
VERTEX
8
0
6
CONTINUOUS
62
252
70
192
10
-0.000000
20
0.063567
30
-0.070599
0
VERTEX
8
0
6
CONTINUOUS
62
252
70
192
10
-0.000000
20
0.055840
30
-0.076857
0
VERTEX
8
0
6
CONTINUOUS
62
252
70
192
10
-0.000000
20
0.047500
30
-0.082272
0
VERTEX
8
0
6
CONTINUOUS
62
252
70
192
10
-0.000000
20
0.038640
30
-0.086787
0
VERTEX
8
0
6
CONTINUOUS
62
252
70
192
10
-0.000000
20
0.029357
30
-0.090350
0
VERTEX
8
0
6
CONTINUOUS
62
252
70
192
10
-0.000000
20
0.019752
30
-0.092924
0
VERTEX
8
0
6
CONTINUOUS
62
252
70
192
10
-0.000000
20
0.009930
30
-0.094480
0
VERTEX
8
0
6
CONTINUOUS
62
252
70
192
10
1.440000
20
0.000000
30
-0.095000
0
VERTEX
8
0
6
CONTINUOUS
62
252
70
192
10
1.440000
20
0.009930
30
-0.094480
0
VERTEX
8
0
6
CONTINUOUS
62
252
70
192
10
1.440000
20
0.019752
30
-0.092924
0
VERTEX
8
0
6
CONTINUOUS
62
252
70
192
10
1.440000
20
0.029357
30
-0.090350
0
VERTEX
8
0
6
CONTINUOUS
62
252
70
192
10
1.440000
20
0.038640
30
-0.086787
0
VERTEX
8
0
6
CONTINUOUS
62
252
70
192
10
1.440000
20
0.047500
30
-0.082272
0
VERTEX
8
0
6
CONTINUOUS
62
252
70
192
10
1.440000
20
0.055840
30
-0.076857
0
VERTEX
8
0
6
CONTINUOUS
62
252
70
192
10
1.440000
20
0.063567
30
-0.070599
0
VERTEX
8
0
6
CONTINUOUS
62
252
70
192
10
1.440000
20
0.070599
30
-0.063567
0
VERTEX
8
0
6
CONTINUOUS
62
252
70
192
10
1.440000
20
0.076857
30
-0.055840
0
VERTEX
8
0
6
CONTINUOUS
62
252
70
192
10
1.440000
20
0.082272
30
-0.047500
0
VERTEX
8
0
6
CONTINUOUS
62
252
70
192
10
1.440000
20
0.086787
30
-0.038640
0
VERTEX
8
0
6
CONTINUOUS
62
252
70
192
10
1.440000
20
0.090350
30
-0.029357
0
VERTEX
8
0
6
CONTINUOUS
62
252
70
192
10
1.440000
20
0.092924
30
-0.019752
0
VERTEX
8
0
6
CONTINUOUS
62
252
70
192
10
1.440000
20
0.094480
30
-0.009930
0
VERTEX
8
0
6
CONTINUOUS
62
252
70
192
10
1.440000
20
0.095000
30
0.000000
0
VERTEX
8
0
6
CONTINUOUS
62
252
70
192
10
1.440000
20
0.094480
30
0.009930
0
VERTEX
8
0
6
CONTINUOUS
62
252
70
192
10
1.440000
20
0.092924
30
0.019752
0
VERTEX
8
0
6
CONTINUOUS
62
252
70
192
10
1.440000
20
0.090350
30
0.029357
0
VERTEX
8
0
6
CONTINUOUS
62
252
70
192
10
1.440000
20
0.086787
30
0.038640
0
VERTEX
8
0
6
CONTINUOUS
62
252
70
192
10
1.440000
20
0.082272
30
0.047500
0
VERTEX
8
0
6
CONTINUOUS
62
252
70
192
10
1.440000
20
0.076857
30
0.055840
0
VERTEX
8
0
6
CONTINUOUS
62
252
70
192
10
1.440000
20
0.070599
30
0.063567
0
VERTEX
8
0
6
CONTINUOUS
62
252
70
192
10
1.440000
20
0.063567
30
0.070599
0
VERTEX
8
0
6
CONTINUOUS
62
252
70
192
10
1.440000
20
0.055840
30
0.076857
0
VERTEX
8
0
6
CONTINUOUS
62
252
70
192
10
1.440000
20
0.047500
30
0.082272
0
VERTEX
8
0
6
CONTINUOUS
62
252
70
192
10
1.440000
20
0.038640
30
0.086787
0
VERTEX
8
0
6
CONTINUOUS
62
252
70
192
10
1.440000
20
0.029357
30
0.090350
0
VERTEX
8
0
6
CONTINUOUS
62
252
70
192
10
1.440000
20
0.019752
30
0.092924
0
VERTEX
8
0
6
CONTINUOUS
62
252
70
192
10
1.440000
20
0.009930
30
0.094480
0
VERTEX
8
0
6
CONTINUOUS
62
252
70
192
10
1.440000
20
-0.000000
30
0.095000
0
VERTEX
8
0
6
CONTINUOUS
62
252
70
192
10
1.440000
20
-0.009930
30
0.094480
0
VERTEX
8
0
6
CONTINUOUS
62
252
70
192
10
1.440000
20
-0.019752
30
0.092924
0
VERTEX
8
0
6
CONTINUOUS
62
252
70
192
10
1.440000
20
-0.029357
30
0.090350
0
VERTEX
8
0
6
CONTINUOUS
62
252
70
192
10
1.440000
20
-0.038640
30
0.086787
0
VERTEX
8
0
6
CONTINUOUS
62
252
70
192
10
1.440000
20
-0.047500
30
0.082272
0
VERTEX
8
0
6
CONTINUOUS
62
252
70
192
10
1.440000
20
-0.055840
30
0.076857
0
VERTEX
8
0
6
CONTINUOUS
62
252
70
192
10
1.440000
20
-0.063567
30
0.070599
0
VERTEX
8
0
6
CONTINUOUS
62
252
70
192
10
1.440000
20
-0.070599
30
0.063567
0
VERTEX
8
0
6
CONTINUOUS
62
252
70
192
10
1.440000
20
-0.076857
30
0.055840
0
VERTEX
8
0
6
CONTINUOUS
62
252
70
192
10
1.440000
20
-0.082272
30
0.047500
0
VERTEX
8
0
6
CONTINUOUS
62
252
70
192
10
1.440000
20
-0.086787
30
0.038640
0
VERTEX
8
0
6
CONTINUOUS
62
252
70
192
10
1.440000
20
-0.090350
30
0.029357
0
VERTEX
8
0
6
CONTINUOUS
62
252
70
192
10
1.440000
20
-0.092924
30
0.019752
0
VERTEX
8
0
6
CONTINUOUS
62
252
70
192
10
1.440000
20
-0.094480
30
0.009930
0
VERTEX
8
0
6
CONTINUOUS
62
252
70
192
10
1.440000
20
-0.095000
30
-0.000000
0
VERTEX
8
0
6
CONTINUOUS
62
252
70
192
10
1.440000
20
-0.094480
30
-0.009930
0
VERTEX
8
0
6
CONTINUOUS
62
252
70
192
10
1.440000
20
-0.092924
30
-0.019752
0
VERTEX
8
0
6
CONTINUOUS
62
252
70
192
10
1.440000
20
-0.090350
30
-0.029357
0
VERTEX
8
0
6
CONTINUOUS
62
252
70
192
10
1.440000
20
-0.086787
30
-0.038640
0
VERTEX
8
0
6
CONTINUOUS
62
252
70
192
10
1.440000
20
-0.082272
30
-0.047500
0
VERTEX
8
0
6
CONTINUOUS
62
252
70
192
10
1.440000
20
-0.076857
30
-0.055840
0
VERTEX
8
0
6
CONTINUOUS
62
252
70
192
10
1.440000
20
-0.070599
30
-0.063567
0
VERTEX
8
0
6
CONTINUOUS
62
252
70
192
10
1.440000
20
-0.063567
30
-0.070599
0
VERTEX
8
0
6
CONTINUOUS
62
252
70
192
10
1.440000
20
-0.055840
30
-0.076857
0
VERTEX
8
0
6
CONTINUOUS
62
252
70
192
10
1.440000
20
-0.047500
30
-0.082272
0
VERTEX
8
0
6
CONTINUOUS
62
252
70
192
10
1.440000
20
-0.038640
30
-0.086787
0
VERTEX
8
0
6
CONTINUOUS
62
252
70
192
10
1.440000
20
-0.029357
30
-0.090350
0
VERTEX
8
0
6
CONTINUOUS
62
252
70
192
10
1.440000
20
-0.019752
30
-0.092924
0
VERTEX
8
0
6
CONTINUOUS
62
252
70
192
10
1.440000
20
-0.009930
30
-0.094480
0
VERTEX
8
0
6
CONTINUOUS
62
252
70
128
10
0.000000
20
0.000000
30
0.000000
71
2
72
120
73
1
0
VERTEX
8
0
6
CONTINUOUS
62
252
70
128
10
0.000000
20
0.000000
30
0.000000
71
1
72
120
73
61
0
VERTEX
8
0
6
CONTINUOUS
62
252
70
128
10
0.000000
20
0.000000
30
0.000000
71
1
72
61
73
60
0
VERTEX
8
0
6
CONTINUOUS
62
252
70
128
10
0.000000
20
0.000000
30
0.000000
71
60
72
61
73
62
0
VERTEX
8
0
6
CONTINUOUS
62
252
70
128
10
0.000000
20
0.000000
30
0.000000
71
60
72
62
73
59
0
VERTEX
8
0
6
CONTINUOUS
62
252
70
128
10
0.000000
20
0.000000
30
0.000000
71
59
72
62
73
63
0
VERTEX
8
0
6
CONTINUOUS
62
252
70
128
10
0.000000
20
0.000000
30
0.000000
71
59
72
63
73
58
0
VERTEX
8
0
6
CONTINUOUS
62
252
70
128
10
0.000000
20
0.000000
30
0.000000
71
58
72
63
73
64
0
VERTEX
8
0
6
CONTINUOUS
62
252
70
128
10
0.000000
20
0.000000
30
0.000000
71
58
72
64
73
57
0
VERTEX
8
0
6
CONTINUOUS
62
252
70
128
10
0.000000
20
0.000000
30
0.000000
71
57
72
64
73
65
0
VERTEX
8
0
6
CONTINUOUS
62
252
70
128
10
0.000000
20
0.000000
30
0.000000
71
57
72
65
73
56
0
VERTEX
8
0
6
CONTINUOUS
62
252
70
128
10
0.000000
20
0.000000
30
0.000000
71
56
72
65
73
66
0
VERTEX
8
0
6
CONTINUOUS
62
252
70
128
10
0.000000
20
0.000000
30
0.000000
71
56
72
66
73
55
0
VERTEX
8
0
6
CONTINUOUS
62
252
70
128
10
0.000000
20
0.000000
30
0.000000
71
55
72
66
73
67
0
VERTEX
8
0
6
CONTINUOUS
62
252
70
128
10
0.000000
20
0.000000
30
0.000000
71
55
72
67
73
54
0
VERTEX
8
0
6
CONTINUOUS
62
252
70
128
10
0.000000
20
0.000000
30
0.000000
71
54
72
67
73
68
0
VERTEX
8
0
6
CONTINUOUS
62
252
70
128
10
0.000000
20
0.000000
30
0.000000
71
54
72
68
73
53
0
VERTEX
8
0
6
CONTINUOUS
62
252
70
128
10
0.000000
20
0.000000
30
0.000000
71
53
72
68
73
69
0
VERTEX
8
0
6
CONTINUOUS
62
252
70
128
10
0.000000
20
0.000000
30
0.000000
71
53
72
69
73
52
0
VERTEX
8
0
6
CONTINUOUS
62
252
70
128
10
0.000000
20
0.000000
30
0.000000
71
52
72
69
73
70
0
VERTEX
8
0
6
CONTINUOUS
62
252
70
128
10
0.000000
20
0.000000
30
0.000000
71
52
72
70
73
51
0
VERTEX
8
0
6
CONTINUOUS
62
252
70
128
10
0.000000
20
0.000000
30
0.000000
71
51
72
70
73
71
0
VERTEX
8
0
6
CONTINUOUS
62
252
70
128
10
0.000000
20
0.000000
30
0.000000
71
51
72
71
73
50
0
VERTEX
8
0
6
CONTINUOUS
62
252
70
128
10
0.000000
20
0.000000
30
0.000000
71
50
72
71
73
72
0
VERTEX
8
0
6
CONTINUOUS
62
252
70
128
10
0.000000
20
0.000000
30
0.000000
71
50
72
72
73
49
0
VERTEX
8
0
6
CONTINUOUS
62
252
70
128
10
0.000000
20
0.000000
30
0.000000
71
49
72
72
73
73
0
VERTEX
8
0
6
CONTINUOUS
62
252
70
128
10
0.000000
20
0.000000
30
0.000000
71
49
72
73
73
48
0
VERTEX
8
0
6
CONTINUOUS
62
252
70
128
10
0.000000
20
0.000000
30
0.000000
71
48
72
73
73
74
0
VERTEX
8
0
6
CONTINUOUS
62
252
70
128
10
0.000000
20
0.000000
30
0.000000
71
48
72
74
73
47
0
VERTEX
8
0
6
CONTINUOUS
62
252
70
128
10
0.000000
20
0.000000
30
0.000000
71
47
72
74
73
75
0
VERTEX
8
0
6
CONTINUOUS
62
252
70
128
10
0.000000
20
0.000000
30
0.000000
71
47
72
75
73
46
0
VERTEX
8
0
6
CONTINUOUS
62
252
70
128
10
0.000000
20
0.000000
30
0.000000
71
46
72
75
73
76
0
VERTEX
8
0
6
CONTINUOUS
62
252
70
128
10
0.000000
20
0.000000
30
0.000000
71
46
72
76
73
77
0
VERTEX
8
0
6
CONTINUOUS
62
252
70
128
10
0.000000
20
0.000000
30
0.000000
71
120
72
2
73
119
0
VERTEX
8
0
6
CONTINUOUS
62
252
70
128
10
0.000000
20
0.000000
30
0.000000
71
119
72
2
73
3
0
VERTEX
8
0
6
CONTINUOUS
62
252
70
128
10
0.000000
20
0.000000
30
0.000000
71
119
72
3
73
118
0
VERTEX
8
0
6
CONTINUOUS
62
252
70
128
10
0.000000
20
0.000000
30
0.000000
71
118
72
3
73
4
0
VERTEX
8
0
6
CONTINUOUS
62
252
70
128
10
0.000000
20
0.000000
30
0.000000
71
118
72
4
73
117
0
VERTEX
8
0
6
CONTINUOUS
62
252
70
128
10
0.000000
20
0.000000
30
0.000000
71
117
72
4
73
5
0
VERTEX
8
0
6
CONTINUOUS
62
252
70
128
10
0.000000
20
0.000000
30
0.000000
71
117
72
5
73
116
0
VERTEX
8
0
6
CONTINUOUS
62
252
70
128
10
0.000000
20
0.000000
30
0.000000
71
116
72
5
73
6
0
VERTEX
8
0
6
CONTINUOUS
62
252
70
128
10
0.000000
20
0.000000
30
0.000000
71
116
72
6
73
115
0
VERTEX
8
0
6
CONTINUOUS
62
252
70
128
10
0.000000
20
0.000000
30
0.000000
71
115
72
6
73
7
0
VERTEX
8
0
6
CONTINUOUS
62
252
70
128
10
0.000000
20
0.000000
30
0.000000
71
115
72
7
73
114
0
VERTEX
8
0
6
CONTINUOUS
62
252
70
128
10
0.000000
20
0.000000
30
0.000000
71
114
72
7
73
8
0
VERTEX
8
0
6
CONTINUOUS
62
252
70
128
10
0.000000
20
0.000000
30
0.000000
71
114
72
8
73
113
0
VERTEX
8
0
6
CONTINUOUS
62
252
70
128
10
0.000000
20
0.000000
30
0.000000
71
113
72
8
73
9
0
VERTEX
8
0
6
CONTINUOUS
62
252
70
128
10
0.000000
20
0.000000
30
0.000000
71
113
72
9
73
112
0
VERTEX
8
0
6
CONTINUOUS
62
252
70
128
10
0.000000
20
0.000000
30
0.000000
71
112
72
9
73
10
0
VERTEX
8
0
6
CONTINUOUS
62
252
70
128
10
0.000000
20
0.000000
30
0.000000
71
112
72
10
73
111
0
VERTEX
8
0
6
CONTINUOUS
62
252
70
128
10
0.000000
20
0.000000
30
0.000000
71
111
72
10
73
11
0
VERTEX
8
0
6
CONTINUOUS
62
252
70
128
10
0.000000
20
0.000000
30
0.000000
71
111
72
11
73
110
0
VERTEX
8
0
6
CONTINUOUS
62
252
70
128
10
0.000000
20
0.000000
30
0.000000
71
110
72
11
73
12
0
VERTEX
8
0
6
CONTINUOUS
62
252
70
128
10
0.000000
20
0.000000
30
0.000000
71
110
72
12
73
109
0
VERTEX
8
0
6
CONTINUOUS
62
252
70
128
10
0.000000
20
0.000000
30
0.000000
71
109
72
12
73
13
0
VERTEX
8
0
6
CONTINUOUS
62
252
70
128
10
0.000000
20
0.000000
30
0.000000
71
109
72
13
73
108
0
VERTEX
8
0
6
CONTINUOUS
62
252
70
128
10
0.000000
20
0.000000
30
0.000000
71
108
72
13
73
14
0
VERTEX
8
0
6
CONTINUOUS
62
252
70
128
10
0.000000
20
0.000000
30
0.000000
71
108
72
14
73
107
0
VERTEX
8
0
6
CONTINUOUS
62
252
70
128
10
0.000000
20
0.000000
30
0.000000
71
107
72
14
73
15
0
VERTEX
8
0
6
CONTINUOUS
62
252
70
128
10
0.000000
20
0.000000
30
0.000000
71
107
72
15
73
106
0
VERTEX
8
0
6
CONTINUOUS
62
252
70
128
10
0.000000
20
0.000000
30
0.000000
71
106
72
15
73
16
0
VERTEX
8
0
6
CONTINUOUS
62
252
70
128
10
0.000000
20
0.000000
30
0.000000
71
106
72
16
73
105
0
VERTEX
8
0
6
CONTINUOUS
62
252
70
128
10
0.000000
20
0.000000
30
0.000000
71
105
72
16
73
17
0
VERTEX
8
0
6
CONTINUOUS
62
252
70
128
10
0.000000
20
0.000000
30
0.000000
71
105
72
17
73
104
0
VERTEX
8
0
6
CONTINUOUS
62
252
70
128
10
0.000000
20
0.000000
30
0.000000
71
104
72
17
73
18
0
VERTEX
8
0
6
CONTINUOUS
62
252
70
128
10
0.000000
20
0.000000
30
0.000000
71
104
72
18
73
103
0
VERTEX
8
0
6
CONTINUOUS
62
252
70
128
10
0.000000
20
0.000000
30
0.000000
71
103
72
18
73
19
0
VERTEX
8
0
6
CONTINUOUS
62
252
70
128
10
0.000000
20
0.000000
30
0.000000
71
103
72
19
73
102
0
VERTEX
8
0
6
CONTINUOUS
62
252
70
128
10
0.000000
20
0.000000
30
0.000000
71
102
72
19
73
20
0
VERTEX
8
0
6
CONTINUOUS
62
252
70
128
10
0.000000
20
0.000000
30
0.000000
71
102
72
20
73
101
0
VERTEX
8
0
6
CONTINUOUS
62
252
70
128
10
0.000000
20
0.000000
30
0.000000
71
101
72
20
73
21
0
VERTEX
8
0
6
CONTINUOUS
62
252
70
128
10
0.000000
20
0.000000
30
0.000000
71
101
72
21
73
22
0
VERTEX
8
0
6
CONTINUOUS
62
252
70
128
10
0.000000
20
0.000000
30
0.000000
71
101
72
22
73
100
0
VERTEX
8
0
6
CONTINUOUS
62
252
70
128
10
0.000000
20
0.000000
30
0.000000
71
100
72
22
73
23
0
VERTEX
8
0
6
CONTINUOUS
62
252
70
128
10
0.000000
20
0.000000
30
0.000000
71
100
72
23
73
99
0
VERTEX
8
0
6
CONTINUOUS
62
252
70
128
10
0.000000
20
0.000000
30
0.000000
71
99
72
23
73
24
0
VERTEX
8
0
6
CONTINUOUS
62
252
70
128
10
0.000000
20
0.000000
30
0.000000
71
99
72
24
73
98
0
VERTEX
8
0
6
CONTINUOUS
62
252
70
128
10
0.000000
20
0.000000
30
0.000000
71
98
72
24
73
25
0
VERTEX
8
0
6
CONTINUOUS
62
252
70
128
10
0.000000
20
0.000000
30
0.000000
71
98
72
25
73
97
0
VERTEX
8
0
6
CONTINUOUS
62
252
70
128
10
0.000000
20
0.000000
30
0.000000
71
97
72
25
73
26
0
VERTEX
8
0
6
CONTINUOUS
62
252
70
128
10
0.000000
20
0.000000
30
0.000000
71
97
72
26
73
96
0
VERTEX
8
0
6
CONTINUOUS
62
252
70
128
10
0.000000
20
0.000000
30
0.000000
71
96
72
26
73
27
0
VERTEX
8
0
6
CONTINUOUS
62
252
70
128
10
0.000000
20
0.000000
30
0.000000
71
96
72
27
73
95
0
VERTEX
8
0
6
CONTINUOUS
62
252
70
128
10
0.000000
20
0.000000
30
0.000000
71
95
72
27
73
28
0
VERTEX
8
0
6
CONTINUOUS
62
252
70
128
10
0.000000
20
0.000000
30
0.000000
71
95
72
28
73
94
0
VERTEX
8
0
6
CONTINUOUS
62
252
70
128
10
0.000000
20
0.000000
30
0.000000
71
94
72
28
73
29
0
VERTEX
8
0
6
CONTINUOUS
62
252
70
128
10
0.000000
20
0.000000
30
0.000000
71
94
72
29
73
93
0
VERTEX
8
0
6
CONTINUOUS
62
252
70
128
10
0.000000
20
0.000000
30
0.000000
71
93
72
29
73
30
0
VERTEX
8
0
6
CONTINUOUS
62
252
70
128
10
0.000000
20
0.000000
30
0.000000
71
93
72
30
73
92
0
VERTEX
8
0
6
CONTINUOUS
62
252
70
128
10
0.000000
20
0.000000
30
0.000000
71
92
72
30
73
31
0
VERTEX
8
0
6
CONTINUOUS
62
252
70
128
10
0.000000
20
0.000000
30
0.000000
71
92
72
31
73
91
0
VERTEX
8
0
6
CONTINUOUS
62
252
70
128
10
0.000000
20
0.000000
30
0.000000
71
91
72
31
73
32
0
VERTEX
8
0
6
CONTINUOUS
62
252
70
128
10
0.000000
20
0.000000
30
0.000000
71
91
72
32
73
90
0
VERTEX
8
0
6
CONTINUOUS
62
252
70
128
10
0.000000
20
0.000000
30
0.000000
71
90
72
32
73
33
0
VERTEX
8
0
6
CONTINUOUS
62
252
70
128
10
0.000000
20
0.000000
30
0.000000
71
90
72
33
73
89
0
VERTEX
8
0
6
CONTINUOUS
62
252
70
128
10
0.000000
20
0.000000
30
0.000000
71
89
72
33
73
34
0
VERTEX
8
0
6
CONTINUOUS
62
252
70
128
10
0.000000
20
0.000000
30
0.000000
71
89
72
34
73
88
0
VERTEX
8
0
6
CONTINUOUS
62
252
70
128
10
0.000000
20
0.000000
30
0.000000
71
88
72
34
73
35
0
VERTEX
8
0
6
CONTINUOUS
62
252
70
128
10
0.000000
20
0.000000
30
0.000000
71
88
72
35
73
87
0
VERTEX
8
0
6
CONTINUOUS
62
252
70
128
10
0.000000
20
0.000000
30
0.000000
71
87
72
35
73
36
0
VERTEX
8
0
6
CONTINUOUS
62
252
70
128
10
0.000000
20
0.000000
30
0.000000
71
87
72
36
73
86
0
VERTEX
8
0
6
CONTINUOUS
62
252
70
128
10
0.000000
20
0.000000
30
0.000000
71
86
72
36
73
37
0
VERTEX
8
0
6
CONTINUOUS
62
252
70
128
10
0.000000
20
0.000000
30
0.000000
71
86
72
37
73
85
0
VERTEX
8
0
6
CONTINUOUS
62
252
70
128
10
0.000000
20
0.000000
30
0.000000
71
85
72
37
73
38
0
VERTEX
8
0
6
CONTINUOUS
62
252
70
128
10
0.000000
20
0.000000
30
0.000000
71
85
72
38
73
84
0
VERTEX
8
0
6
CONTINUOUS
62
252
70
128
10
0.000000
20
0.000000
30
0.000000
71
84
72
38
73
39
0
VERTEX
8
0
6
CONTINUOUS
62
252
70
128
10
0.000000
20
0.000000
30
0.000000
71
84
72
39
73
83
0
VERTEX
8
0
6
CONTINUOUS
62
252
70
128
10
0.000000
20
0.000000
30
0.000000
71
83
72
39
73
40
0
VERTEX
8
0
6
CONTINUOUS
62
252
70
128
10
0.000000
20
0.000000
30
0.000000
71
83
72
40
73
82
0
VERTEX
8
0
6
CONTINUOUS
62
252
70
128
10
0.000000
20
0.000000
30
0.000000
71
82
72
40
73
41
0
VERTEX
8
0
6
CONTINUOUS
62
252
70
128
10
0.000000
20
0.000000
30
0.000000
71
82
72
41
73
81
0
VERTEX
8
0
6
CONTINUOUS
62
252
70
128
10
0.000000
20
0.000000
30
0.000000
71
81
72
41
73
42
0
VERTEX
8
0
6
CONTINUOUS
62
252
70
128
10
0.000000
20
0.000000
30
0.000000
71
81
72
42
73
80
0
VERTEX
8
0
6
CONTINUOUS
62
252
70
128
10
0.000000
20
0.000000
30
0.000000
71
80
72
42
73
43
0
VERTEX
8
0
6
CONTINUOUS
62
252
70
128
10
0.000000
20
0.000000
30
0.000000
71
80
72
43
73
79
0
VERTEX
8
0
6
CONTINUOUS
62
252
70
128
10
0.000000
20
0.000000
30
0.000000
71
79
72
43
73
44
0
VERTEX
8
0
6
CONTINUOUS
62
252
70
128
10
0.000000
20
0.000000
30
0.000000
71
79
72
44
73
78
0
VERTEX
8
0
6
CONTINUOUS
62
252
70
128
10
0.000000
20
0.000000
30
0.000000
71
78
72
44
73
45
0
VERTEX
8
0
6
CONTINUOUS
62
252
70
128
10
0.000000
20
0.000000
30
0.000000
71
78
72
45
73
77
0
VERTEX
8
0
6
CONTINUOUS
62
252
70
128
10
0.000000
20
0.000000
30
0.000000
71
77
72
45
73
46
0
SEQEND
0
POLYLINE
66
1
8
0
6
CONTINUOUS
62
252
70
64
75
0
10
0.000000
20
0.000000
30
0.000000
0
VERTEX
8
0
6
CONTINUOUS
62
252
70
192
10
1.440000
20
0.000000
30
-0.095000
0
VERTEX
8
0
6
CONTINUOUS
62
252
70
192
10
1.440000
20
-0.009930
30
-0.094480
0
VERTEX
8
0
6
CONTINUOUS
62
252
70
192
10
1.440000
20
-0.019752
30
-0.092924
0
VERTEX
8
0
6
CONTINUOUS
62
252
70
192
10
1.440000
20
-0.029357
30
-0.090350
0
VERTEX
8
0
6
CONTINUOUS
62
252
70
192
10
1.440000
20
-0.038640
30
-0.086787
0
VERTEX
8
0
6
CONTINUOUS
62
252
70
192
10
1.440000
20
-0.047500
30
-0.082272
0
VERTEX
8
0
6
CONTINUOUS
62
252
70
192
10
1.440000
20
-0.055840
30
-0.076857
0
VERTEX
8
0
6
CONTINUOUS
62
252
70
192
10
1.440000
20
-0.063567
30
-0.070599
0
VERTEX
8
0
6
CONTINUOUS
62
252
70
192
10
1.440000
20
-0.070599
30
-0.063567
0
VERTEX
8
0
6
CONTINUOUS
62
252
70
192
10
1.440000
20
-0.076857
30
-0.055840
0
VERTEX
8
0
6
CONTINUOUS
62
252
70
192
10
1.440000
20
-0.082272
30
-0.047500
0
VERTEX
8
0
6
CONTINUOUS
62
252
70
192
10
1.440000
20
-0.086787
30
-0.038640
0
VERTEX
8
0
6
CONTINUOUS
62
252
70
192
10
1.440000
20
-0.090350
30
-0.029357
0
VERTEX
8
0
6
CONTINUOUS
62
252
70
192
10
1.440000
20
-0.092924
30
-0.019752
0
VERTEX
8
0
6
CONTINUOUS
62
252
70
192
10
1.440000
20
-0.094480
30
-0.009930
0
VERTEX
8
0
6
CONTINUOUS
62
252
70
192
10
1.440000
20
-0.095000
30
-0.000000
0
VERTEX
8
0
6
CONTINUOUS
62
252
70
192
10
1.440000
20
-0.094480
30
0.009930
0
VERTEX
8
0
6
CONTINUOUS
62
252
70
192
10
1.440000
20
-0.092924
30
0.019752
0
VERTEX
8
0
6
CONTINUOUS
62
252
70
192
10
1.440000
20
-0.090350
30
0.029357
0
VERTEX
8
0
6
CONTINUOUS
62
252
70
192
10
1.440000
20
-0.086787
30
0.038640
0
VERTEX
8
0
6
CONTINUOUS
62
252
70
192
10
1.440000
20
-0.082272
30
0.047500
0
VERTEX
8
0
6
CONTINUOUS
62
252
70
192
10
1.440000
20
-0.076857
30
0.055840
0
VERTEX
8
0
6
CONTINUOUS
62
252
70
192
10
1.440000
20
-0.070599
30
0.063567
0
VERTEX
8
0
6
CONTINUOUS
62
252
70
192
10
1.440000
20
-0.063567
30
0.070599
0
VERTEX
8
0
6
CONTINUOUS
62
252
70
192
10
1.440000
20
-0.055840
30
0.076857
0
VERTEX
8
0
6
CONTINUOUS
62
252
70
192
10
1.440000
20
-0.047500
30
0.082272
0
VERTEX
8
0
6
CONTINUOUS
62
252
70
192
10
1.440000
20
-0.038640
30
0.086787
0
VERTEX
8
0
6
CONTINUOUS
62
252
70
192
10
1.440000
20
-0.029357
30
0.090350
0
VERTEX
8
0
6
CONTINUOUS
62
252
70
192
10
1.440000
20
-0.019752
30
0.092924
0
VERTEX
8
0
6
CONTINUOUS
62
252
70
192
10
1.440000
20
-0.009930
30
0.094480
0
VERTEX
8
0
6
CONTINUOUS
62
252
70
192
10
1.440000
20
-0.000000
30
0.095000
0
VERTEX
8
0
6
CONTINUOUS
62
252
70
192
10
1.440000
20
0.009930
30
0.094480
0
VERTEX
8
0
6
CONTINUOUS
62
252
70
192
10
1.440000
20
0.019752
30
0.092924
0
VERTEX
8
0
6
CONTINUOUS
62
252
70
192
10
1.440000
20
0.029357
30
0.090350
0
VERTEX
8
0
6
CONTINUOUS
62
252
70
192
10
1.440000
20
0.038640
30
0.086787
0
VERTEX
8
0
6
CONTINUOUS
62
252
70
192
10
1.440000
20
0.047500
30
0.082272
0
VERTEX
8
0
6
CONTINUOUS
62
252
70
192
10
1.440000
20
0.055840
30
0.076857
0
VERTEX
8
0
6
CONTINUOUS
62
252
70
192
10
1.440000
20
0.063567
30
0.070599
0
VERTEX
8
0
6
CONTINUOUS
62
252
70
192
10
1.440000
20
0.070599
30
0.063567
0
VERTEX
8
0
6
CONTINUOUS
62
252
70
192
10
1.440000
20
0.076857
30
0.055840
0
VERTEX
8
0
6
CONTINUOUS
62
252
70
192
10
1.440000
20
0.082272
30
0.047500
0
VERTEX
8
0
6
CONTINUOUS
62
252
70
192
10
1.440000
20
0.086787
30
0.038640
0
VERTEX
8
0
6
CONTINUOUS
62
252
70
192
10
1.440000
20
0.090350
30
0.029357
0
VERTEX
8
0
6
CONTINUOUS
62
252
70
192
10
1.440000
20
0.092924
30
0.019752
0
VERTEX
8
0
6
CONTINUOUS
62
252
70
192
10
1.440000
20
0.094480
30
0.009930
0
VERTEX
8
0
6
CONTINUOUS
62
252
70
192
10
1.440000
20
0.095000
30
0.000000
0
VERTEX
8
0
6
CONTINUOUS
62
252
70
192
10
1.440000
20
0.094480
30
-0.009930
0
VERTEX
8
0
6
CONTINUOUS
62
252
70
192
10
1.440000
20
0.092924
30
-0.019752
0
VERTEX
8
0
6
CONTINUOUS
62
252
70
192
10
1.440000
20
0.090350
30
-0.029357
0
VERTEX
8
0
6
CONTINUOUS
62
252
70
192
10
1.440000
20
0.086787
30
-0.038640
0
VERTEX
8
0
6
CONTINUOUS
62
252
70
192
10
1.440000
20
0.082272
30
-0.047500
0
VERTEX
8
0
6
CONTINUOUS
62
252
70
192
10
1.440000
20
0.076857
30
-0.055840
0
VERTEX
8
0
6
CONTINUOUS
62
252
70
192
10
1.440000
20
0.070599
30
-0.063567
0
VERTEX
8
0
6
CONTINUOUS
62
252
70
192
10
1.440000
20
0.063567
30
-0.070599
0
VERTEX
8
0
6
CONTINUOUS
62
252
70
192
10
1.440000
20
0.055840
30
-0.076857
0
VERTEX
8
0
6
CONTINUOUS
62
252
70
192
10
1.440000
20
0.047500
30
-0.082272
0
VERTEX
8
0
6
CONTINUOUS
62
252
70
192
10
1.440000
20
0.038640
30
-0.086787
0
VERTEX
8
0
6
CONTINUOUS
62
252
70
192
10
1.440000
20
0.029357
30
-0.090350
0
VERTEX
8
0
6
CONTINUOUS
62
252
70
192
10
1.440000
20
0.019752
30
-0.092924
0
VERTEX
8
0
6
CONTINUOUS
62
252
70
192
10
1.440000
20
0.009930
30
-0.094480
0
VERTEX
8
0
6
CONTINUOUS
62
252
70
192
10
1.440000
20
-0.000000
30
0.125000
0
VERTEX
8
0
6
CONTINUOUS
62
252
70
192
10
1.440000
20
-0.013066
30
0.124315
0
VERTEX
8
0
6
CONTINUOUS
62
252
70
192
10
1.440000
20
-0.025989
30
0.122268
0
VERTEX
8
0
6
CONTINUOUS
62
252
70
192
10
1.440000
20
-0.038627
30
0.118882
0
VERTEX
8
0
6
CONTINUOUS
62
252
70
192
10
1.440000
20
-0.050842
30
0.114193
0
VERTEX
8
0
6
CONTINUOUS
62
252
70
192
10
1.440000
20
-0.062500
30
0.108253
0
VERTEX
8
0
6
CONTINUOUS
62
252
70
192
10
1.440000
20
-0.073473
30
0.101127
0
VERTEX
8
0
6
CONTINUOUS
62
252
70
192
10
1.440000
20
-0.083641
30
0.092893
0
VERTEX
8
0
6
CONTINUOUS
62
252
70
192
10
1.440000
20
-0.092893
30
0.083641
0
VERTEX
8
0
6
CONTINUOUS
62
252
70
192
10
1.440000
20
-0.101127
30
0.073473
0
VERTEX
8
0
6
CONTINUOUS
62
252
70
192
10
1.440000
20
-0.108253
30
0.062500
0
VERTEX
8
0
6
CONTINUOUS
62
252
70
192
10
1.440000
20
-0.114193
30
0.050842
0
VERTEX
8
0
6
CONTINUOUS
62
252
70
192
10
1.440000
20
-0.118882
30
0.038627
0
VERTEX
8
0
6
CONTINUOUS
62
252
70
192
10
1.440000
20
-0.122268
30
0.025989
0
VERTEX
8
0
6
CONTINUOUS
62
252
70
192
10
1.440000
20
-0.124315
30
0.013066
0
VERTEX
8
0
6
CONTINUOUS
62
252
70
192
10
1.440000
20
-0.125000
30
-0.000000
0
VERTEX
8
0
6
CONTINUOUS
62
252
70
192
10
1.440000
20
-0.124315
30
-0.013066
0
VERTEX
8
0
6
CONTINUOUS
62
252
70
192
10
1.440000
20
-0.122268
30
-0.025989
0
VERTEX
8
0
6
CONTINUOUS
62
252
70
192
10
1.440000
20
-0.118882
30
-0.038627
0
VERTEX
8
0
6
CONTINUOUS
62
252
70
192
10
1.440000
20
-0.114193
30
-0.050842
0
VERTEX
8
0
6
CONTINUOUS
62
252
70
192
10
1.440000
20
-0.108253
30
-0.062500
0
VERTEX
8
0
6
CONTINUOUS
62
252
70
192
10
1.440000
20
-0.101127
30
-0.073473
0
VERTEX
8
0
6
CONTINUOUS
62
252
70
192
10
1.440000
20
-0.092893
30
-0.083641
0
VERTEX
8
0
6
CONTINUOUS
62
252
70
192
10
1.440000
20
-0.083641
30
-0.092893
0
VERTEX
8
0
6
CONTINUOUS
62
252
70
192
10
1.440000
20
-0.073473
30
-0.101127
0
VERTEX
8
0
6
CONTINUOUS
62
252
70
192
10
1.440000
20
-0.062500
30
-0.108253
0
VERTEX
8
0
6
CONTINUOUS
62
252
70
192
10
1.440000
20
-0.050842
30
-0.114193
0
VERTEX
8
0
6
CONTINUOUS
62
252
70
192
10
1.440000
20
-0.038627
30
-0.118882
0
VERTEX
8
0
6
CONTINUOUS
62
252
70
192
10
1.440000
20
-0.025989
30
-0.122268
0
VERTEX
8
0
6
CONTINUOUS
62
252
70
192
10
1.440000
20
-0.013066
30
-0.124315
0
VERTEX
8
0
6
CONTINUOUS
62
252
70
192
10
1.440000
20
0.000000
30
-0.125000
0
VERTEX
8
0
6
CONTINUOUS
62
252
70
192
10
1.440000
20
0.013066
30
-0.124315
0
VERTEX
8
0
6
CONTINUOUS
62
252
70
192
10
1.440000
20
0.025989
30
-0.122268
0
VERTEX
8
0
6
CONTINUOUS
62
252
70
192
10
1.440000
20
0.038627
30
-0.118882
0
VERTEX
8
0
6
CONTINUOUS
62
252
70
192
10
1.440000
20
0.050842
30
-0.114193
0
VERTEX
8
0
6
CONTINUOUS
62
252
70
192
10
1.440000
20
0.062500
30
-0.108253
0
VERTEX
8
0
6
CONTINUOUS
62
252
70
192
10
1.440000
20
0.073473
30
-0.101127
0
VERTEX
8
0
6
CONTINUOUS
62
252
70
192
10
1.440000
20
0.083641
30
-0.092893
0
VERTEX
8
0
6
CONTINUOUS
62
252
70
192
10
1.440000
20
0.092893
30
-0.083641
0
VERTEX
8
0
6
CONTINUOUS
62
252
70
192
10
1.440000
20
0.101127
30
-0.073473
0
VERTEX
8
0
6
CONTINUOUS
62
252
70
192
10
1.440000
20
0.108253
30
-0.062500
0
VERTEX
8
0
6
CONTINUOUS
62
252
70
192
10
1.440000
20
0.114193
30
-0.050842
0
VERTEX
8
0
6
CONTINUOUS
62
252
70
192
10
1.440000
20
0.118882
30
-0.038627
0
VERTEX
8
0
6
CONTINUOUS
62
252
70
192
10
1.440000
20
0.122268
30
-0.025989
0
VERTEX
8
0
6
CONTINUOUS
62
252
70
192
10
1.440000
20
0.124315
30
-0.013066
0
VERTEX
8
0
6
CONTINUOUS
62
252
70
192
10
1.440000
20
0.125000
30
-0.000000
0
VERTEX
8
0
6
CONTINUOUS
62
252
70
192
10
1.440000
20
0.124315
30
0.013066
0
VERTEX
8
0
6
CONTINUOUS
62
252
70
192
10
1.440000
20
0.122268
30
0.025989
0
VERTEX
8
0
6
CONTINUOUS
62
252
70
192
10
1.440000
20
0.118882
30
0.038627
0
VERTEX
8
0
6
CONTINUOUS
62
252
70
192
10
1.440000
20
0.114193
30
0.050842
0
VERTEX
8
0
6
CONTINUOUS
62
252
70
192
10
1.440000
20
0.108253
30
0.062500
0
VERTEX
8
0
6
CONTINUOUS
62
252
70
192
10
1.440000
20
0.101127
30
0.073473
0
VERTEX
8
0
6
CONTINUOUS
62
252
70
192
10
1.440000
20
0.092893
30
0.083641
0
VERTEX
8
0
6
CONTINUOUS
62
252
70
192
10
1.440000
20
0.083641
30
0.092893
0
VERTEX
8
0
6
CONTINUOUS
62
252
70
192
10
1.440000
20
0.073473
30
0.101127
0
VERTEX
8
0
6
CONTINUOUS
62
252
70
192
10
1.440000
20
0.062500
30
0.108253
0
VERTEX
8
0
6
CONTINUOUS
62
252
70
192
10
1.440000
20
0.050842
30
0.114193
0
VERTEX
8
0
6
CONTINUOUS
62
252
70
192
10
1.440000
20
0.038627
30
0.118882
0
VERTEX
8
0
6
CONTINUOUS
62
252
70
192
10
1.440000
20
0.025989
30
0.122268
0
VERTEX
8
0
6
CONTINUOUS
62
252
70
192
10
1.440000
20
0.013066
30
0.124315
0
VERTEX
8
0
6
CONTINUOUS
62
252
70
128
10
0.000000
20
0.000000
30
0.000000
71
60
72
1
73
91
0
VERTEX
8
0
6
CONTINUOUS
62
252
70
128
10
0.000000
20
0.000000
30
0.000000
71
91
72
1
73
2
0
VERTEX
8
0
6
CONTINUOUS
62
252
70
128
10
0.000000
20
0.000000
30
0.000000
71
91
72
2
73
90
0
VERTEX
8
0
6
CONTINUOUS
62
252
70
128
10
0.000000
20
0.000000
30
0.000000
71
90
72
2
73
3
0
VERTEX
8
0
6
CONTINUOUS
62
252
70
128
10
0.000000
20
0.000000
30
0.000000
71
90
72
3
73
89
0
VERTEX
8
0
6
CONTINUOUS
62
252
70
128
10
0.000000
20
0.000000
30
0.000000
71
89
72
3
73
4
0
VERTEX
8
0
6
CONTINUOUS
62
252
70
128
10
0.000000
20
0.000000
30
0.000000
71
89
72
4
73
88
0
VERTEX
8
0
6
CONTINUOUS
62
252
70
128
10
0.000000
20
0.000000
30
0.000000
71
88
72
4
73
5
0
VERTEX
8
0
6
CONTINUOUS
62
252
70
128
10
0.000000
20
0.000000
30
0.000000
71
88
72
5
73
87
0
VERTEX
8
0
6
CONTINUOUS
62
252
70
128
10
0.000000
20
0.000000
30
0.000000
71
87
72
5
73
6
0
VERTEX
8
0
6
CONTINUOUS
62
252
70
128
10
0.000000
20
0.000000
30
0.000000
71
87
72
6
73
86
0
VERTEX
8
0
6
CONTINUOUS
62
252
70
128
10
0.000000
20
0.000000
30
0.000000
71
86
72
6
73
7
0
VERTEX
8
0
6
CONTINUOUS
62
252
70
128
10
0.000000
20
0.000000
30
0.000000
71
86
72
7
73
85
0
VERTEX
8
0
6
CONTINUOUS
62
252
70
128
10
0.000000
20
0.000000
30
0.000000
71
85
72
7
73
8
0
VERTEX
8
0
6
CONTINUOUS
62
252
70
128
10
0.000000
20
0.000000
30
0.000000
71
85
72
8
73
84
0
VERTEX
8
0
6
CONTINUOUS
62
252
70
128
10
0.000000
20
0.000000
30
0.000000
71
84
72
8
73
9
0
VERTEX
8
0
6
CONTINUOUS
62
252
70
128
10
0.000000
20
0.000000
30
0.000000
71
84
72
9
73
83
0
VERTEX
8
0
6
CONTINUOUS
62
252
70
128
10
0.000000
20
0.000000
30
0.000000
71
83
72
9
73
10
0
VERTEX
8
0
6
CONTINUOUS
62
252
70
128
10
0.000000
20
0.000000
30
0.000000
71
83
72
10
73
82
0
VERTEX
8
0
6
CONTINUOUS
62
252
70
128
10
0.000000
20
0.000000
30
0.000000
71
82
72
10
73
11
0
VERTEX
8
0
6
CONTINUOUS
62
252
70
128
10
0.000000
20
0.000000
30
0.000000
71
82
72
11
73
81
0
VERTEX
8
0
6
CONTINUOUS
62
252
70
128
10
0.000000
20
0.000000
30
0.000000
71
81
72
11
73
12
0
VERTEX
8
0
6
CONTINUOUS
62
252
70
128
10
0.000000
20
0.000000
30
0.000000
71
81
72
12
73
80
0
VERTEX
8
0
6
CONTINUOUS
62
252
70
128
10
0.000000
20
0.000000
30
0.000000
71
80
72
12
73
13
0
VERTEX
8
0
6
CONTINUOUS
62
252
70
128
10
0.000000
20
0.000000
30
0.000000
71
80
72
13
73
79
0
VERTEX
8
0
6
CONTINUOUS
62
252
70
128
10
0.000000
20
0.000000
30
0.000000
71
79
72
13
73
14
0
VERTEX
8
0
6
CONTINUOUS
62
252
70
128
10
0.000000
20
0.000000
30
0.000000
71
79
72
14
73
78
0
VERTEX
8
0
6
CONTINUOUS
62
252
70
128
10
0.000000
20
0.000000
30
0.000000
71
78
72
14
73
15
0
VERTEX
8
0
6
CONTINUOUS
62
252
70
128
10
0.000000
20
0.000000
30
0.000000
71
78
72
15
73
77
0
VERTEX
8
0
6
CONTINUOUS
62
252
70
128
10
0.000000
20
0.000000
30
0.000000
71
77
72
15
73
16
0
VERTEX
8
0
6
CONTINUOUS
62
252
70
128
10
0.000000
20
0.000000
30
0.000000
71
77
72
16
73
76
0
VERTEX
8
0
6
CONTINUOUS
62
252
70
128
10
0.000000
20
0.000000
30
0.000000
71
76
72
16
73
75
0
VERTEX
8
0
6
CONTINUOUS
62
252
70
128
10
0.000000
20
0.000000
30
0.000000
71
75
72
16
73
17
0
VERTEX
8
0
6
CONTINUOUS
62
252
70
128
10
0.000000
20
0.000000
30
0.000000
71
75
72
17
73
74
0
VERTEX
8
0
6
CONTINUOUS
62
252
70
128
10
0.000000
20
0.000000
30
0.000000
71
74
72
17
73
18
0
VERTEX
8
0
6
CONTINUOUS
62
252
70
128
10
0.000000
20
0.000000
30
0.000000
71
74
72
18
73
73
0
VERTEX
8
0
6
CONTINUOUS
62
252
70
128
10
0.000000
20
0.000000
30
0.000000
71
73
72
18
73
19
0
VERTEX
8
0
6
CONTINUOUS
62
252
70
128
10
0.000000
20
0.000000
30
0.000000
71
73
72
19
73
72
0
VERTEX
8
0
6
CONTINUOUS
62
252
70
128
10
0.000000
20
0.000000
30
0.000000
71
72
72
19
73
20
0
VERTEX
8
0
6
CONTINUOUS
62
252
70
128
10
0.000000
20
0.000000
30
0.000000
71
72
72
20
73
71
0
VERTEX
8
0
6
CONTINUOUS
62
252
70
128
10
0.000000
20
0.000000
30
0.000000
71
71
72
20
73
21
0
VERTEX
8
0
6
CONTINUOUS
62
252
70
128
10
0.000000
20
0.000000
30
0.000000
71
71
72
21
73
70
0
VERTEX
8
0
6
CONTINUOUS
62
252
70
128
10
0.000000
20
0.000000
30
0.000000
71
70
72
21
73
22
0
VERTEX
8
0
6
CONTINUOUS
62
252
70
128
10
0.000000
20
0.000000
30
0.000000
71
70
72
22
73
69
0
VERTEX
8
0
6
CONTINUOUS
62
252
70
128
10
0.000000
20
0.000000
30
0.000000
71
69
72
22
73
23
0
VERTEX
8
0
6
CONTINUOUS
62
252
70
128
10
0.000000
20
0.000000
30
0.000000
71
69
72
23
73
68
0
VERTEX
8
0
6
CONTINUOUS
62
252
70
128
10
0.000000
20
0.000000
30
0.000000
71
68
72
23
73
24
0
VERTEX
8
0
6
CONTINUOUS
62
252
70
128
10
0.000000
20
0.000000
30
0.000000
71
68
72
24
73
67
0
VERTEX
8
0
6
CONTINUOUS
62
252
70
128
10
0.000000
20
0.000000
30
0.000000
71
67
72
24
73
25
0
VERTEX
8
0
6
CONTINUOUS
62
252
70
128
10
0.000000
20
0.000000
30
0.000000
71
67
72
25
73
66
0
VERTEX
8
0
6
CONTINUOUS
62
252
70
128
10
0.000000
20
0.000000
30
0.000000
71
66
72
25
73
26
0
VERTEX
8
0
6
CONTINUOUS
62
252
70
128
10
0.000000
20
0.000000
30
0.000000
71
66
72
26
73
65
0
VERTEX
8
0
6
CONTINUOUS
62
252
70
128
10
0.000000
20
0.000000
30
0.000000
71
65
72
26
73
27
0
VERTEX
8
0
6
CONTINUOUS
62
252
70
128
10
0.000000
20
0.000000
30
0.000000
71
65
72
27
73
64
0
VERTEX
8
0
6
CONTINUOUS
62
252
70
128
10
0.000000
20
0.000000
30
0.000000
71
64
72
27
73
28
0
VERTEX
8
0
6
CONTINUOUS
62
252
70
128
10
0.000000
20
0.000000
30
0.000000
71
64
72
28
73
63
0
VERTEX
8
0
6
CONTINUOUS
62
252
70
128
10
0.000000
20
0.000000
30
0.000000
71
63
72
28
73
29
0
VERTEX
8
0
6
CONTINUOUS
62
252
70
128
10
0.000000
20
0.000000
30
0.000000
71
63
72
29
73
62
0
VERTEX
8
0
6
CONTINUOUS
62
252
70
128
10
0.000000
20
0.000000
30
0.000000
71
62
72
29
73
30
0
VERTEX
8
0
6
CONTINUOUS
62
252
70
128
10
0.000000
20
0.000000
30
0.000000
71
62
72
30
73
61
0
VERTEX
8
0
6
CONTINUOUS
62
252
70
128
10
0.000000
20
0.000000
30
0.000000
71
61
72
30
73
31
0
VERTEX
8
0
6
CONTINUOUS
62
252
70
128
10
0.000000
20
0.000000
30
0.000000
71
61
72
31
73
32
0
VERTEX
8
0
6
CONTINUOUS
62
252
70
128
10
0.000000
20
0.000000
30
0.000000
71
61
72
32
73
120
0
VERTEX
8
0
6
CONTINUOUS
62
252
70
128
10
0.000000
20
0.000000
30
0.000000
71
120
72
32
73
33
0
VERTEX
8
0
6
CONTINUOUS
62
252
70
128
10
0.000000
20
0.000000
30
0.000000
71
120
72
33
73
119
0
VERTEX
8
0
6
CONTINUOUS
62
252
70
128
10
0.000000
20
0.000000
30
0.000000
71
119
72
33
73
34
0
VERTEX
8
0
6
CONTINUOUS
62
252
70
128
10
0.000000
20
0.000000
30
0.000000
71
119
72
34
73
118
0
VERTEX
8
0
6
CONTINUOUS
62
252
70
128
10
0.000000
20
0.000000
30
0.000000
71
118
72
34
73
35
0
VERTEX
8
0
6
CONTINUOUS
62
252
70
128
10
0.000000
20
0.000000
30
0.000000
71
118
72
35
73
117
0
VERTEX
8
0
6
CONTINUOUS
62
252
70
128
10
0.000000
20
0.000000
30
0.000000
71
117
72
35
73
36
0
VERTEX
8
0
6
CONTINUOUS
62
252
70
128
10
0.000000
20
0.000000
30
0.000000
71
117
72
36
73
116
0
VERTEX
8
0
6
CONTINUOUS
62
252
70
128
10
0.000000
20
0.000000
30
0.000000
71
116
72
36
73
37
0
VERTEX
8
0
6
CONTINUOUS
62
252
70
128
10
0.000000
20
0.000000
30
0.000000
71
116
72
37
73
115
0
VERTEX
8
0
6
CONTINUOUS
62
252
70
128
10
0.000000
20
0.000000
30
0.000000
71
115
72
37
73
38
0
VERTEX
8
0
6
CONTINUOUS
62
252
70
128
10
0.000000
20
0.000000
30
0.000000
71
115
72
38
73
114
0
VERTEX
8
0
6
CONTINUOUS
62
252
70
128
10
0.000000
20
0.000000
30
0.000000
71
114
72
38
73
39
0
VERTEX
8
0
6
CONTINUOUS
62
252
70
128
10
0.000000
20
0.000000
30
0.000000
71
114
72
39
73
113
0
VERTEX
8
0
6
CONTINUOUS
62
252
70
128
10
0.000000
20
0.000000
30
0.000000
71
113
72
39
73
40
0
VERTEX
8
0
6
CONTINUOUS
62
252
70
128
10
0.000000
20
0.000000
30
0.000000
71
113
72
40
73
112
0
VERTEX
8
0
6
CONTINUOUS
62
252
70
128
10
0.000000
20
0.000000
30
0.000000
71
112
72
40
73
41
0
VERTEX
8
0
6
CONTINUOUS
62
252
70
128
10
0.000000
20
0.000000
30
0.000000
71
112
72
41
73
111
0
VERTEX
8
0
6
CONTINUOUS
62
252
70
128
10
0.000000
20
0.000000
30
0.000000
71
111
72
41
73
42
0
VERTEX
8
0
6
CONTINUOUS
62
252
70
128
10
0.000000
20
0.000000
30
0.000000
71
111
72
42
73
110
0
VERTEX
8
0
6
CONTINUOUS
62
252
70
128
10
0.000000
20
0.000000
30
0.000000
71
110
72
42
73
43
0
VERTEX
8
0
6
CONTINUOUS
62
252
70
128
10
0.000000
20
0.000000
30
0.000000
71
110
72
43
73
109
0
VERTEX
8
0
6
CONTINUOUS
62
252
70
128
10
0.000000
20
0.000000
30
0.000000
71
109
72
43
73
44
0
VERTEX
8
0
6
CONTINUOUS
62
252
70
128
10
0.000000
20
0.000000
30
0.000000
71
109
72
44
73
108
0
VERTEX
8
0
6
CONTINUOUS
62
252
70
128
10
0.000000
20
0.000000
30
0.000000
71
108
72
44
73
45
0
VERTEX
8
0
6
CONTINUOUS
62
252
70
128
10
0.000000
20
0.000000
30
0.000000
71
108
72
45
73
107
0
VERTEX
8
0
6
CONTINUOUS
62
252
70
128
10
0.000000
20
0.000000
30
0.000000
71
107
72
45
73
46
0
VERTEX
8
0
6
CONTINUOUS
62
252
70
128
10
0.000000
20
0.000000
30
0.000000
71
107
72
46
73
106
0
VERTEX
8
0
6
CONTINUOUS
62
252
70
128
10
0.000000
20
0.000000
30
0.000000
71
106
72
46
73
105
0
VERTEX
8
0
6
CONTINUOUS
62
252
70
128
10
0.000000
20
0.000000
30
0.000000
71
105
72
46
73
47
0
VERTEX
8
0
6
CONTINUOUS
62
252
70
128
10
0.000000
20
0.000000
30
0.000000
71
105
72
47
73
104
0
VERTEX
8
0
6
CONTINUOUS
62
252
70
128
10
0.000000
20
0.000000
30
0.000000
71
104
72
47
73
48
0
VERTEX
8
0
6
CONTINUOUS
62
252
70
128
10
0.000000
20
0.000000
30
0.000000
71
104
72
48
73
103
0
VERTEX
8
0
6
CONTINUOUS
62
252
70
128
10
0.000000
20
0.000000
30
0.000000
71
103
72
48
73
49
0
VERTEX
8
0
6
CONTINUOUS
62
252
70
128
10
0.000000
20
0.000000
30
0.000000
71
103
72
49
73
102
0
VERTEX
8
0
6
CONTINUOUS
62
252
70
128
10
0.000000
20
0.000000
30
0.000000
71
102
72
49
73
50
0
VERTEX
8
0
6
CONTINUOUS
62
252
70
128
10
0.000000
20
0.000000
30
0.000000
71
102
72
50
73
101
0
VERTEX
8
0
6
CONTINUOUS
62
252
70
128
10
0.000000
20
0.000000
30
0.000000
71
101
72
50
73
51
0
VERTEX
8
0
6
CONTINUOUS
62
252
70
128
10
0.000000
20
0.000000
30
0.000000
71
101
72
51
73
100
0
VERTEX
8
0
6
CONTINUOUS
62
252
70
128
10
0.000000
20
0.000000
30
0.000000
71
100
72
51
73
52
0
VERTEX
8
0
6
CONTINUOUS
62
252
70
128
10
0.000000
20
0.000000
30
0.000000
71
100
72
52
73
99
0
VERTEX
8
0
6
CONTINUOUS
62
252
70
128
10
0.000000
20
0.000000
30
0.000000
71
99
72
52
73
53
0
VERTEX
8
0
6
CONTINUOUS
62
252
70
128
10
0.000000
20
0.000000
30
0.000000
71
99
72
53
73
98
0
VERTEX
8
0
6
CONTINUOUS
62
252
70
128
10
0.000000
20
0.000000
30
0.000000
71
98
72
53
73
54
0
VERTEX
8
0
6
CONTINUOUS
62
252
70
128
10
0.000000
20
0.000000
30
0.000000
71
98
72
54
73
97
0
VERTEX
8
0
6
CONTINUOUS
62
252
70
128
10
0.000000
20
0.000000
30
0.000000
71
97
72
54
73
55
0
VERTEX
8
0
6
CONTINUOUS
62
252
70
128
10
0.000000
20
0.000000
30
0.000000
71
97
72
55
73
96
0
VERTEX
8
0
6
CONTINUOUS
62
252
70
128
10
0.000000
20
0.000000
30
0.000000
71
96
72
55
73
56
0
VERTEX
8
0
6
CONTINUOUS
62
252
70
128
10
0.000000
20
0.000000
30
0.000000
71
96
72
56
73
95
0
VERTEX
8
0
6
CONTINUOUS
62
252
70
128
10
0.000000
20
0.000000
30
0.000000
71
95
72
56
73
57
0
VERTEX
8
0
6
CONTINUOUS
62
252
70
128
10
0.000000
20
0.000000
30
0.000000
71
95
72
57
73
94
0
VERTEX
8
0
6
CONTINUOUS
62
252
70
128
10
0.000000
20
0.000000
30
0.000000
71
94
72
57
73
58
0
VERTEX
8
0
6
CONTINUOUS
62
252
70
128
10
0.000000
20
0.000000
30
0.000000
71
94
72
58
73
93
0
VERTEX
8
0
6
CONTINUOUS
62
252
70
128
10
0.000000
20
0.000000
30
0.000000
71
93
72
58
73
59
0
VERTEX
8
0
6
CONTINUOUS
62
252
70
128
10
0.000000
20
0.000000
30
0.000000
71
93
72
59
73
92
0
VERTEX
8
0
6
CONTINUOUS
62
252
70
128
10
0.000000
20
0.000000
30
0.000000
71
92
72
59
73
60
0
VERTEX
8
0
6
CONTINUOUS
62
252
70
128
10
0.000000
20
0.000000
30
0.000000
71
92
72
60
73
91
0
SEQEND
0
POLYLINE
66
1
8
0
6
CONTINUOUS
62
252
70
64
75
0
10
0.000000
20
0.000000
30
0.000000
0
VERTEX
8
0
6
CONTINUOUS
62
252
70
192
10
0.750000
20
0.000000
30
0.125000
0
VERTEX
8
0
6
CONTINUOUS
62
252
70
192
10
0.750000
20
-0.013066
30
0.124315
0
VERTEX
8
0
6
CONTINUOUS
62
252
70
192
10
0.750000
20
-0.025989
30
0.122268
0
VERTEX
8
0
6
CONTINUOUS
62
252
70
192
10
0.750000
20
-0.038627
30
0.118882
0
VERTEX
8
0
6
CONTINUOUS
62
252
70
192
10
0.750000
20
-0.050842
30
0.114193
0
VERTEX
8
0
6
CONTINUOUS
62
252
70
192
10
0.750000
20
-0.062500
30
0.108253
0
VERTEX
8
0
6
CONTINUOUS
62
252
70
192
10
0.750000
20
-0.073473
30
0.101127
0
VERTEX
8
0
6
CONTINUOUS
62
252
70
192
10
0.750000
20
-0.083641
30
0.092893
0
VERTEX
8
0
6
CONTINUOUS
62
252
70
192
10
0.750000
20
-0.092893
30
0.083641
0
VERTEX
8
0
6
CONTINUOUS
62
252
70
192
10
0.750000
20
-0.101127
30
0.073473
0
VERTEX
8
0
6
CONTINUOUS
62
252
70
192
10
0.750000
20
-0.108253
30
0.062500
0
VERTEX
8
0
6
CONTINUOUS
62
252
70
192
10
0.750000
20
-0.114193
30
0.050842
0
VERTEX
8
0
6
CONTINUOUS
62
252
70
192
10
0.750000
20
-0.118882
30
0.038627
0
VERTEX
8
0
6
CONTINUOUS
62
252
70
192
10
0.750000
20
-0.122268
30
0.025989
0
VERTEX
8
0
6
CONTINUOUS
62
252
70
192
10
0.750000
20
-0.124315
30
0.013066
0
VERTEX
8
0
6
CONTINUOUS
62
252
70
192
10
0.750000
20
-0.125000
30
-0.000000
0
VERTEX
8
0
6
CONTINUOUS
62
252
70
192
10
0.750000
20
-0.124315
30
-0.013066
0
VERTEX
8
0
6
CONTINUOUS
62
252
70
192
10
0.750000
20
-0.122268
30
-0.025989
0
VERTEX
8
0
6
CONTINUOUS
62
252
70
192
10
0.750000
20
-0.118882
30
-0.038627
0
VERTEX
8
0
6
CONTINUOUS
62
252
70
192
10
0.750000
20
-0.114193
30
-0.050842
0
VERTEX
8
0
6
CONTINUOUS
62
252
70
192
10
0.750000
20
-0.108253
30
-0.062500
0
VERTEX
8
0
6
CONTINUOUS
62
252
70
192
10
0.750000
20
-0.101127
30
-0.073473
0
VERTEX
8
0
6
CONTINUOUS
62
252
70
192
10
0.750000
20
-0.092893
30
-0.083641
0
VERTEX
8
0
6
CONTINUOUS
62
252
70
192
10
0.750000
20
-0.083641
30
-0.092893
0
VERTEX
8
0
6
CONTINUOUS
62
252
70
192
10
0.750000
20
-0.073473
30
-0.101127
0
VERTEX
8
0
6
CONTINUOUS
62
252
70
192
10
0.750000
20
-0.062500
30
-0.108253
0
VERTEX
8
0
6
CONTINUOUS
62
252
70
192
10
0.750000
20
-0.050842
30
-0.114193
0
VERTEX
8
0
6
CONTINUOUS
62
252
70
192
10
0.750000
20
-0.038627
30
-0.118882
0
VERTEX
8
0
6
CONTINUOUS
62
252
70
192
10
0.750000
20
-0.025989
30
-0.122268
0
VERTEX
8
0
6
CONTINUOUS
62
252
70
192
10
0.750000
20
-0.013066
30
-0.124315
0
VERTEX
8
0
6
CONTINUOUS
62
252
70
192
10
0.750000
20
0.000000
30
-0.125000
0
VERTEX
8
0
6
CONTINUOUS
62
252
70
192
10
0.750000
20
0.013066
30
-0.124315
0
VERTEX
8
0
6
CONTINUOUS
62
252
70
192
10
0.750000
20
0.025989
30
-0.122268
0
VERTEX
8
0
6
CONTINUOUS
62
252
70
192
10
0.750000
20
0.038627
30
-0.118882
0
VERTEX
8
0
6
CONTINUOUS
62
252
70
192
10
0.750000
20
0.050842
30
-0.114193
0
VERTEX
8
0
6
CONTINUOUS
62
252
70
192
10
0.750000
20
0.062500
30
-0.108253
0
VERTEX
8
0
6
CONTINUOUS
62
252
70
192
10
0.750000
20
0.073473
30
-0.101127
0
VERTEX
8
0
6
CONTINUOUS
62
252
70
192
10
0.750000
20
0.083641
30
-0.092893
0
VERTEX
8
0
6
CONTINUOUS
62
252
70
192
10
0.750000
20
0.092893
30
-0.083641
0
VERTEX
8
0
6
CONTINUOUS
62
252
70
192
10
0.750000
20
0.101127
30
-0.073473
0
VERTEX
8
0
6
CONTINUOUS
62
252
70
192
10
0.750000
20
0.108253
30
-0.062500
0
VERTEX
8
0
6
CONTINUOUS
62
252
70
192
10
0.750000
20
0.114193
30
-0.050842
0
VERTEX
8
0
6
CONTINUOUS
62
252
70
192
10
0.750000
20
0.118882
30
-0.038627
0
VERTEX
8
0
6
CONTINUOUS
62
252
70
192
10
0.750000
20
0.122268
30
-0.025989
0
VERTEX
8
0
6
CONTINUOUS
62
252
70
192
10
0.750000
20
0.124315
30
-0.013066
0
VERTEX
8
0
6
CONTINUOUS
62
252
70
192
10
0.750000
20
0.125000
30
0.000000
0
VERTEX
8
0
6
CONTINUOUS
62
252
70
192
10
0.750000
20
0.124315
30
0.013066
0
VERTEX
8
0
6
CONTINUOUS
62
252
70
192
10
0.750000
20
0.122268
30
0.025989
0
VERTEX
8
0
6
CONTINUOUS
62
252
70
192
10
0.750000
20
0.118882
30
0.038627
0
VERTEX
8
0
6
CONTINUOUS
62
252
70
192
10
0.750000
20
0.114193
30
0.050842
0
VERTEX
8
0
6
CONTINUOUS
62
252
70
192
10
0.750000
20
0.108253
30
0.062500
0
VERTEX
8
0
6
CONTINUOUS
62
252
70
192
10
0.750000
20
0.101127
30
0.073473
0
VERTEX
8
0
6
CONTINUOUS
62
252
70
192
10
0.750000
20
0.092893
30
0.083641
0
VERTEX
8
0
6
CONTINUOUS
62
252
70
192
10
0.750000
20
0.083641
30
0.092893
0
VERTEX
8
0
6
CONTINUOUS
62
252
70
192
10
0.750000
20
0.073473
30
0.101127
0
VERTEX
8
0
6
CONTINUOUS
62
252
70
192
10
0.750000
20
0.062500
30
0.108253
0
VERTEX
8
0
6
CONTINUOUS
62
252
70
192
10
0.750000
20
0.050842
30
0.114193
0
VERTEX
8
0
6
CONTINUOUS
62
252
70
192
10
0.750000
20
0.038627
30
0.118882
0
VERTEX
8
0
6
CONTINUOUS
62
252
70
192
10
0.750000
20
0.025989
30
0.122268
0
VERTEX
8
0
6
CONTINUOUS
62
252
70
192
10
0.750000
20
0.013066
30
0.124315
0
VERTEX
8
0
6
CONTINUOUS
62
252
70
192
10
1.440000
20
-0.000000
30
0.125000
0
VERTEX
8
0
6
CONTINUOUS
62
252
70
192
10
1.440000
20
0.013066
30
0.124315
0
VERTEX
8
0
6
CONTINUOUS
62
252
70
192
10
1.440000
20
0.025989
30
0.122268
0
VERTEX
8
0
6
CONTINUOUS
62
252
70
192
10
1.440000
20
0.038627
30
0.118882
0
VERTEX
8
0
6
CONTINUOUS
62
252
70
192
10
1.440000
20
0.050842
30
0.114193
0
VERTEX
8
0
6
CONTINUOUS
62
252
70
192
10
1.440000
20
0.062500
30
0.108253
0
VERTEX
8
0
6
CONTINUOUS
62
252
70
192
10
1.440000
20
0.073473
30
0.101127
0
VERTEX
8
0
6
CONTINUOUS
62
252
70
192
10
1.440000
20
0.083641
30
0.092893
0
VERTEX
8
0
6
CONTINUOUS
62
252
70
192
10
1.440000
20
0.092893
30
0.083641
0
VERTEX
8
0
6
CONTINUOUS
62
252
70
192
10
1.440000
20
0.101127
30
0.073473
0
VERTEX
8
0
6
CONTINUOUS
62
252
70
192
10
1.440000
20
0.108253
30
0.062500
0
VERTEX
8
0
6
CONTINUOUS
62
252
70
192
10
1.440000
20
0.114193
30
0.050842
0
VERTEX
8
0
6
CONTINUOUS
62
252
70
192
10
1.440000
20
0.118882
30
0.038627
0
VERTEX
8
0
6
CONTINUOUS
62
252
70
192
10
1.440000
20
0.122268
30
0.025989
0
VERTEX
8
0
6
CONTINUOUS
62
252
70
192
10
1.440000
20
0.124315
30
0.013066
0
VERTEX
8
0
6
CONTINUOUS
62
252
70
192
10
1.440000
20
0.125000
30
-0.000000
0
VERTEX
8
0
6
CONTINUOUS
62
252
70
192
10
1.440000
20
0.124315
30
-0.013066
0
VERTEX
8
0
6
CONTINUOUS
62
252
70
192
10
1.440000
20
0.122268
30
-0.025989
0
VERTEX
8
0
6
CONTINUOUS
62
252
70
192
10
1.440000
20
0.118882
30
-0.038627
0
VERTEX
8
0
6
CONTINUOUS
62
252
70
192
10
1.440000
20
0.114193
30
-0.050842
0
VERTEX
8
0
6
CONTINUOUS
62
252
70
192
10
1.440000
20
0.108253
30
-0.062500
0
VERTEX
8
0
6
CONTINUOUS
62
252
70
192
10
1.440000
20
0.101127
30
-0.073473
0
VERTEX
8
0
6
CONTINUOUS
62
252
70
192
10
1.440000
20
0.092893
30
-0.083641
0
VERTEX
8
0
6
CONTINUOUS
62
252
70
192
10
1.440000
20
0.083641
30
-0.092893
0
VERTEX
8
0
6
CONTINUOUS
62
252
70
192
10
1.440000
20
0.073473
30
-0.101127
0
VERTEX
8
0
6
CONTINUOUS
62
252
70
192
10
1.440000
20
0.062500
30
-0.108253
0
VERTEX
8
0
6
CONTINUOUS
62
252
70
192
10
1.440000
20
0.050842
30
-0.114193
0
VERTEX
8
0
6
CONTINUOUS
62
252
70
192
10
1.440000
20
0.038627
30
-0.118882
0
VERTEX
8
0
6
CONTINUOUS
62
252
70
192
10
1.440000
20
0.025989
30
-0.122268
0
VERTEX
8
0
6
CONTINUOUS
62
252
70
192
10
1.440000
20
0.013066
30
-0.124315
0
VERTEX
8
0
6
CONTINUOUS
62
252
70
192
10
1.440000
20
0.000000
30
-0.125000
0
VERTEX
8
0
6
CONTINUOUS
62
252
70
192
10
1.440000
20
-0.013066
30
-0.124315
0
VERTEX
8
0
6
CONTINUOUS
62
252
70
192
10
1.440000
20
-0.025989
30
-0.122268
0
VERTEX
8
0
6
CONTINUOUS
62
252
70
192
10
1.440000
20
-0.038627
30
-0.118882
0
VERTEX
8
0
6
CONTINUOUS
62
252
70
192
10
1.440000
20
-0.050842
30
-0.114193
0
VERTEX
8
0
6
CONTINUOUS
62
252
70
192
10
1.440000
20
-0.062500
30
-0.108253
0
VERTEX
8
0
6
CONTINUOUS
62
252
70
192
10
1.440000
20
-0.073473
30
-0.101127
0
VERTEX
8
0
6
CONTINUOUS
62
252
70
192
10
1.440000
20
-0.083641
30
-0.092893
0
VERTEX
8
0
6
CONTINUOUS
62
252
70
192
10
1.440000
20
-0.092893
30
-0.083641
0
VERTEX
8
0
6
CONTINUOUS
62
252
70
192
10
1.440000
20
-0.101127
30
-0.073473
0
VERTEX
8
0
6
CONTINUOUS
62
252
70
192
10
1.440000
20
-0.108253
30
-0.062500
0
VERTEX
8
0
6
CONTINUOUS
62
252
70
192
10
1.440000
20
-0.114193
30
-0.050842
0
VERTEX
8
0
6
CONTINUOUS
62
252
70
192
10
1.440000
20
-0.118882
30
-0.038627
0
VERTEX
8
0
6
CONTINUOUS
62
252
70
192
10
1.440000
20
-0.122268
30
-0.025989
0
VERTEX
8
0
6
CONTINUOUS
62
252
70
192
10
1.440000
20
-0.124315
30
-0.013066
0
VERTEX
8
0
6
CONTINUOUS
62
252
70
192
10
1.440000
20
-0.125000
30
-0.000000
0
VERTEX
8
0
6
CONTINUOUS
62
252
70
192
10
1.440000
20
-0.124315
30
0.013066
0
VERTEX
8
0
6
CONTINUOUS
62
252
70
192
10
1.440000
20
-0.122268
30
0.025989
0
VERTEX
8
0
6
CONTINUOUS
62
252
70
192
10
1.440000
20
-0.118882
30
0.038627
0
VERTEX
8
0
6
CONTINUOUS
62
252
70
192
10
1.440000
20
-0.114193
30
0.050842
0
VERTEX
8
0
6
CONTINUOUS
62
252
70
192
10
1.440000
20
-0.108253
30
0.062500
0
VERTEX
8
0
6
CONTINUOUS
62
252
70
192
10
1.440000
20
-0.101127
30
0.073473
0
VERTEX
8
0
6
CONTINUOUS
62
252
70
192
10
1.440000
20
-0.092893
30
0.083641
0
VERTEX
8
0
6
CONTINUOUS
62
252
70
192
10
1.440000
20
-0.083641
30
0.092893
0
VERTEX
8
0
6
CONTINUOUS
62
252
70
192
10
1.440000
20
-0.073473
30
0.101127
0
VERTEX
8
0
6
CONTINUOUS
62
252
70
192
10
1.440000
20
-0.062500
30
0.108253
0
VERTEX
8
0
6
CONTINUOUS
62
252
70
192
10
1.440000
20
-0.050842
30
0.114193
0
VERTEX
8
0
6
CONTINUOUS
62
252
70
192
10
1.440000
20
-0.038627
30
0.118882
0
VERTEX
8
0
6
CONTINUOUS
62
252
70
192
10
1.440000
20
-0.025989
30
0.122268
0
VERTEX
8
0
6
CONTINUOUS
62
252
70
192
10
1.440000
20
-0.013066
30
0.124315
0
VERTEX
8
0
6
CONTINUOUS
62
252
70
128
10
0.000000
20
0.000000
30
0.000000
71
2
72
61
73
1
0
VERTEX
8
0
6
CONTINUOUS
62
252
70
128
10
0.000000
20
0.000000
30
0.000000
71
1
72
61
73
62
0
VERTEX
8
0
6
CONTINUOUS
62
252
70
128
10
0.000000
20
0.000000
30
0.000000
71
1
72
62
73
60
0
VERTEX
8
0
6
CONTINUOUS
62
252
70
128
10
0.000000
20
0.000000
30
0.000000
71
60
72
62
73
63
0
VERTEX
8
0
6
CONTINUOUS
62
252
70
128
10
0.000000
20
0.000000
30
0.000000
71
60
72
63
73
59
0
VERTEX
8
0
6
CONTINUOUS
62
252
70
128
10
0.000000
20
0.000000
30
0.000000
71
59
72
63
73
64
0
VERTEX
8
0
6
CONTINUOUS
62
252
70
128
10
0.000000
20
0.000000
30
0.000000
71
59
72
64
73
58
0
VERTEX
8
0
6
CONTINUOUS
62
252
70
128
10
0.000000
20
0.000000
30
0.000000
71
58
72
64
73
65
0
VERTEX
8
0
6
CONTINUOUS
62
252
70
128
10
0.000000
20
0.000000
30
0.000000
71
58
72
65
73
57
0
VERTEX
8
0
6
CONTINUOUS
62
252
70
128
10
0.000000
20
0.000000
30
0.000000
71
57
72
65
73
66
0
VERTEX
8
0
6
CONTINUOUS
62
252
70
128
10
0.000000
20
0.000000
30
0.000000
71
57
72
66
73
56
0
VERTEX
8
0
6
CONTINUOUS
62
252
70
128
10
0.000000
20
0.000000
30
0.000000
71
56
72
66
73
67
0
VERTEX
8
0
6
CONTINUOUS
62
252
70
128
10
0.000000
20
0.000000
30
0.000000
71
56
72
67
73
55
0
VERTEX
8
0
6
CONTINUOUS
62
252
70
128
10
0.000000
20
0.000000
30
0.000000
71
55
72
67
73
68
0
VERTEX
8
0
6
CONTINUOUS
62
252
70
128
10
0.000000
20
0.000000
30
0.000000
71
55
72
68
73
54
0
VERTEX
8
0
6
CONTINUOUS
62
252
70
128
10
0.000000
20
0.000000
30
0.000000
71
54
72
68
73
69
0
VERTEX
8
0
6
CONTINUOUS
62
252
70
128
10
0.000000
20
0.000000
30
0.000000
71
54
72
69
73
53
0
VERTEX
8
0
6
CONTINUOUS
62
252
70
128
10
0.000000
20
0.000000
30
0.000000
71
53
72
69
73
70
0
VERTEX
8
0
6
CONTINUOUS
62
252
70
128
10
0.000000
20
0.000000
30
0.000000
71
53
72
70
73
52
0
VERTEX
8
0
6
CONTINUOUS
62
252
70
128
10
0.000000
20
0.000000
30
0.000000
71
52
72
70
73
71
0
VERTEX
8
0
6
CONTINUOUS
62
252
70
128
10
0.000000
20
0.000000
30
0.000000
71
52
72
71
73
51
0
VERTEX
8
0
6
CONTINUOUS
62
252
70
128
10
0.000000
20
0.000000
30
0.000000
71
51
72
71
73
72
0
VERTEX
8
0
6
CONTINUOUS
62
252
70
128
10
0.000000
20
0.000000
30
0.000000
71
51
72
72
73
50
0
VERTEX
8
0
6
CONTINUOUS
62
252
70
128
10
0.000000
20
0.000000
30
0.000000
71
50
72
72
73
73
0
VERTEX
8
0
6
CONTINUOUS
62
252
70
128
10
0.000000
20
0.000000
30
0.000000
71
50
72
73
73
49
0
VERTEX
8
0
6
CONTINUOUS
62
252
70
128
10
0.000000
20
0.000000
30
0.000000
71
49
72
73
73
74
0
VERTEX
8
0
6
CONTINUOUS
62
252
70
128
10
0.000000
20
0.000000
30
0.000000
71
49
72
74
73
48
0
VERTEX
8
0
6
CONTINUOUS
62
252
70
128
10
0.000000
20
0.000000
30
0.000000
71
48
72
74
73
75
0
VERTEX
8
0
6
CONTINUOUS
62
252
70
128
10
0.000000
20
0.000000
30
0.000000
71
48
72
75
73
47
0
VERTEX
8
0
6
CONTINUOUS
62
252
70
128
10
0.000000
20
0.000000
30
0.000000
71
47
72
75
73
76
0
VERTEX
8
0
6
CONTINUOUS
62
252
70
128
10
0.000000
20
0.000000
30
0.000000
71
47
72
76
73
46
0
VERTEX
8
0
6
CONTINUOUS
62
252
70
128
10
0.000000
20
0.000000
30
0.000000
71
46
72
76
73
77
0
VERTEX
8
0
6
CONTINUOUS
62
252
70
128
10
0.000000
20
0.000000
30
0.000000
71
46
72
77
73
45
0
VERTEX
8
0
6
CONTINUOUS
62
252
70
128
10
0.000000
20
0.000000
30
0.000000
71
45
72
77
73
78
0
VERTEX
8
0
6
CONTINUOUS
62
252
70
128
10
0.000000
20
0.000000
30
0.000000
71
45
72
78
73
44
0
VERTEX
8
0
6
CONTINUOUS
62
252
70
128
10
0.000000
20
0.000000
30
0.000000
71
44
72
78
73
79
0
VERTEX
8
0
6
CONTINUOUS
62
252
70
128
10
0.000000
20
0.000000
30
0.000000
71
44
72
79
73
43
0
VERTEX
8
0
6
CONTINUOUS
62
252
70
128
10
0.000000
20
0.000000
30
0.000000
71
43
72
79
73
80
0
VERTEX
8
0
6
CONTINUOUS
62
252
70
128
10
0.000000
20
0.000000
30
0.000000
71
43
72
80
73
42
0
VERTEX
8
0
6
CONTINUOUS
62
252
70
128
10
0.000000
20
0.000000
30
0.000000
71
42
72
80
73
81
0
VERTEX
8
0
6
CONTINUOUS
62
252
70
128
10
0.000000
20
0.000000
30
0.000000
71
42
72
81
73
41
0
VERTEX
8
0
6
CONTINUOUS
62
252
70
128
10
0.000000
20
0.000000
30
0.000000
71
41
72
81
73
82
0
VERTEX
8
0
6
CONTINUOUS
62
252
70
128
10
0.000000
20
0.000000
30
0.000000
71
41
72
82
73
40
0
VERTEX
8
0
6
CONTINUOUS
62
252
70
128
10
0.000000
20
0.000000
30
0.000000
71
40
72
82
73
83
0
VERTEX
8
0
6
CONTINUOUS
62
252
70
128
10
0.000000
20
0.000000
30
0.000000
71
40
72
83
73
39
0
VERTEX
8
0
6
CONTINUOUS
62
252
70
128
10
0.000000
20
0.000000
30
0.000000
71
39
72
83
73
84
0
VERTEX
8
0
6
CONTINUOUS
62
252
70
128
10
0.000000
20
0.000000
30
0.000000
71
39
72
84
73
38
0
VERTEX
8
0
6
CONTINUOUS
62
252
70
128
10
0.000000
20
0.000000
30
0.000000
71
38
72
84
73
85
0
VERTEX
8
0
6
CONTINUOUS
62
252
70
128
10
0.000000
20
0.000000
30
0.000000
71
38
72
85
73
37
0
VERTEX
8
0
6
CONTINUOUS
62
252
70
128
10
0.000000
20
0.000000
30
0.000000
71
37
72
85
73
86
0
VERTEX
8
0
6
CONTINUOUS
62
252
70
128
10
0.000000
20
0.000000
30
0.000000
71
37
72
86
73
36
0
VERTEX
8
0
6
CONTINUOUS
62
252
70
128
10
0.000000
20
0.000000
30
0.000000
71
36
72
86
73
87
0
VERTEX
8
0
6
CONTINUOUS
62
252
70
128
10
0.000000
20
0.000000
30
0.000000
71
36
72
87
73
35
0
VERTEX
8
0
6
CONTINUOUS
62
252
70
128
10
0.000000
20
0.000000
30
0.000000
71
35
72
87
73
88
0
VERTEX
8
0
6
CONTINUOUS
62
252
70
128
10
0.000000
20
0.000000
30
0.000000
71
35
72
88
73
34
0
VERTEX
8
0
6
CONTINUOUS
62
252
70
128
10
0.000000
20
0.000000
30
0.000000
71
34
72
88
73
89
0
VERTEX
8
0
6
CONTINUOUS
62
252
70
128
10
0.000000
20
0.000000
30
0.000000
71
34
72
89
73
33
0
VERTEX
8
0
6
CONTINUOUS
62
252
70
128
10
0.000000
20
0.000000
30
0.000000
71
33
72
89
73
90
0
VERTEX
8
0
6
CONTINUOUS
62
252
70
128
10
0.000000
20
0.000000
30
0.000000
71
33
72
90
73
32
0
VERTEX
8
0
6
CONTINUOUS
62
252
70
128
10
0.000000
20
0.000000
30
0.000000
71
32
72
90
73
91
0
VERTEX
8
0
6
CONTINUOUS
62
252
70
128
10
0.000000
20
0.000000
30
0.000000
71
32
72
91
73
31
0
VERTEX
8
0
6
CONTINUOUS
62
252
70
128
10
0.000000
20
0.000000
30
0.000000
71
31
72
91
73
92
0
VERTEX
8
0
6
CONTINUOUS
62
252
70
128
10
0.000000
20
0.000000
30
0.000000
71
31
72
92
73
30
0
VERTEX
8
0
6
CONTINUOUS
62
252
70
128
10
0.000000
20
0.000000
30
0.000000
71
30
72
92
73
93
0
VERTEX
8
0
6
CONTINUOUS
62
252
70
128
10
0.000000
20
0.000000
30
0.000000
71
30
72
93
73
29
0
VERTEX
8
0
6
CONTINUOUS
62
252
70
128
10
0.000000
20
0.000000
30
0.000000
71
29
72
93
73
94
0
VERTEX
8
0
6
CONTINUOUS
62
252
70
128
10
0.000000
20
0.000000
30
0.000000
71
29
72
94
73
28
0
VERTEX
8
0
6
CONTINUOUS
62
252
70
128
10
0.000000
20
0.000000
30
0.000000
71
28
72
94
73
95
0
VERTEX
8
0
6
CONTINUOUS
62
252
70
128
10
0.000000
20
0.000000
30
0.000000
71
28
72
95
73
27
0
VERTEX
8
0
6
CONTINUOUS
62
252
70
128
10
0.000000
20
0.000000
30
0.000000
71
27
72
95
73
96
0
VERTEX
8
0
6
CONTINUOUS
62
252
70
128
10
0.000000
20
0.000000
30
0.000000
71
27
72
96
73
26
0
VERTEX
8
0
6
CONTINUOUS
62
252
70
128
10
0.000000
20
0.000000
30
0.000000
71
26
72
96
73
97
0
VERTEX
8
0
6
CONTINUOUS
62
252
70
128
10
0.000000
20
0.000000
30
0.000000
71
26
72
97
73
25
0
VERTEX
8
0
6
CONTINUOUS
62
252
70
128
10
0.000000
20
0.000000
30
0.000000
71
25
72
97
73
98
0
VERTEX
8
0
6
CONTINUOUS
62
252
70
128
10
0.000000
20
0.000000
30
0.000000
71
25
72
98
73
24
0
VERTEX
8
0
6
CONTINUOUS
62
252
70
128
10
0.000000
20
0.000000
30
0.000000
71
24
72
98
73
99
0
VERTEX
8
0
6
CONTINUOUS
62
252
70
128
10
0.000000
20
0.000000
30
0.000000
71
24
72
99
73
23
0
VERTEX
8
0
6
CONTINUOUS
62
252
70
128
10
0.000000
20
0.000000
30
0.000000
71
23
72
99
73
100
0
VERTEX
8
0
6
CONTINUOUS
62
252
70
128
10
0.000000
20
0.000000
30
0.000000
71
23
72
100
73
22
0
VERTEX
8
0
6
CONTINUOUS
62
252
70
128
10
0.000000
20
0.000000
30
0.000000
71
22
72
100
73
21
0
VERTEX
8
0
6
CONTINUOUS
62
252
70
128
10
0.000000
20
0.000000
30
0.000000
71
21
72
100
73
101
0
VERTEX
8
0
6
CONTINUOUS
62
252
70
128
10
0.000000
20
0.000000
30
0.000000
71
21
72
101
73
20
0
VERTEX
8
0
6
CONTINUOUS
62
252
70
128
10
0.000000
20
0.000000
30
0.000000
71
20
72
101
73
102
0
VERTEX
8
0
6
CONTINUOUS
62
252
70
128
10
0.000000
20
0.000000
30
0.000000
71
20
72
102
73
19
0
VERTEX
8
0
6
CONTINUOUS
62
252
70
128
10
0.000000
20
0.000000
30
0.000000
71
19
72
102
73
103
0
VERTEX
8
0
6
CONTINUOUS
62
252
70
128
10
0.000000
20
0.000000
30
0.000000
71
19
72
103
73
18
0
VERTEX
8
0
6
CONTINUOUS
62
252
70
128
10
0.000000
20
0.000000
30
0.000000
71
18
72
103
73
104
0
VERTEX
8
0
6
CONTINUOUS
62
252
70
128
10
0.000000
20
0.000000
30
0.000000
71
18
72
104
73
17
0
VERTEX
8
0
6
CONTINUOUS
62
252
70
128
10
0.000000
20
0.000000
30
0.000000
71
17
72
104
73
105
0
VERTEX
8
0
6
CONTINUOUS
62
252
70
128
10
0.000000
20
0.000000
30
0.000000
71
17
72
105
73
16
0
VERTEX
8
0
6
CONTINUOUS
62
252
70
128
10
0.000000
20
0.000000
30
0.000000
71
16
72
105
73
106
0
VERTEX
8
0
6
CONTINUOUS
62
252
70
128
10
0.000000
20
0.000000
30
0.000000
71
16
72
106
73
15
0
VERTEX
8
0
6
CONTINUOUS
62
252
70
128
10
0.000000
20
0.000000
30
0.000000
71
15
72
106
73
107
0
VERTEX
8
0
6
CONTINUOUS
62
252
70
128
10
0.000000
20
0.000000
30
0.000000
71
15
72
107
73
14
0
VERTEX
8
0
6
CONTINUOUS
62
252
70
128
10
0.000000
20
0.000000
30
0.000000
71
14
72
107
73
108
0
VERTEX
8
0
6
CONTINUOUS
62
252
70
128
10
0.000000
20
0.000000
30
0.000000
71
14
72
108
73
13
0
VERTEX
8
0
6
CONTINUOUS
62
252
70
128
10
0.000000
20
0.000000
30
0.000000
71
13
72
108
73
109
0
VERTEX
8
0
6
CONTINUOUS
62
252
70
128
10
0.000000
20
0.000000
30
0.000000
71
13
72
109
73
12
0
VERTEX
8
0
6
CONTINUOUS
62
252
70
128
10
0.000000
20
0.000000
30
0.000000
71
12
72
109
73
110
0
VERTEX
8
0
6
CONTINUOUS
62
252
70
128
10
0.000000
20
0.000000
30
0.000000
71
12
72
110
73
11
0
VERTEX
8
0
6
CONTINUOUS
62
252
70
128
10
0.000000
20
0.000000
30
0.000000
71
11
72
110
73
111
0
VERTEX
8
0
6
CONTINUOUS
62
252
70
128
10
0.000000
20
0.000000
30
0.000000
71
11
72
111
73
10
0
VERTEX
8
0
6
CONTINUOUS
62
252
70
128
10
0.000000
20
0.000000
30
0.000000
71
10
72
111
73
112
0
VERTEX
8
0
6
CONTINUOUS
62
252
70
128
10
0.000000
20
0.000000
30
0.000000
71
10
72
112
73
9
0
VERTEX
8
0
6
CONTINUOUS
62
252
70
128
10
0.000000
20
0.000000
30
0.000000
71
9
72
112
73
113
0
VERTEX
8
0
6
CONTINUOUS
62
252
70
128
10
0.000000
20
0.000000
30
0.000000
71
9
72
113
73
8
0
VERTEX
8
0
6
CONTINUOUS
62
252
70
128
10
0.000000
20
0.000000
30
0.000000
71
8
72
113
73
114
0
VERTEX
8
0
6
CONTINUOUS
62
252
70
128
10
0.000000
20
0.000000
30
0.000000
71
8
72
114
73
7
0
VERTEX
8
0
6
CONTINUOUS
62
252
70
128
10
0.000000
20
0.000000
30
0.000000
71
7
72
114
73
115
0
VERTEX
8
0
6
CONTINUOUS
62
252
70
128
10
0.000000
20
0.000000
30
0.000000
71
7
72
115
73
6
0
VERTEX
8
0
6
CONTINUOUS
62
252
70
128
10
0.000000
20
0.000000
30
0.000000
71
6
72
115
73
116
0
VERTEX
8
0
6
CONTINUOUS
62
252
70
128
10
0.000000
20
0.000000
30
0.000000
71
6
72
116
73
5
0
VERTEX
8
0
6
CONTINUOUS
62
252
70
128
10
0.000000
20
0.000000
30
0.000000
71
5
72
116
73
117
0
VERTEX
8
0
6
CONTINUOUS
62
252
70
128
10
0.000000
20
0.000000
30
0.000000
71
5
72
117
73
4
0
VERTEX
8
0
6
CONTINUOUS
62
252
70
128
10
0.000000
20
0.000000
30
0.000000
71
4
72
117
73
118
0
VERTEX
8
0
6
CONTINUOUS
62
252
70
128
10
0.000000
20
0.000000
30
0.000000
71
4
72
118
73
3
0
VERTEX
8
0
6
CONTINUOUS
62
252
70
128
10
0.000000
20
0.000000
30
0.000000
71
3
72
118
73
119
0
VERTEX
8
0
6
CONTINUOUS
62
252
70
128
10
0.000000
20
0.000000
30
0.000000
71
3
72
119
73
2
0
VERTEX
8
0
6
CONTINUOUS
62
252
70
128
10
0.000000
20
0.000000
30
0.000000
71
2
72
119
73
120
0
VERTEX
8
0
6
CONTINUOUS
62
252
70
128
10
0.000000
20
0.000000
30
0.000000
71
2
72
120
73
61
0
SEQEND
0
ENDSEC
0
EOF
