  0
SECTION
  2
HEADER
  9
$ACADVER
  1
AC1009
  9
$INSBASE
 10
0
 20
0
  9
$EXTMIN
 10
0
 20
-48.2657544380043
  9
$EXTMAX
 10
6.15000000000009
 20
14.3342455619957
  9
$LIMMIN
 10
0
 20
-48.2657544380043
  9
$LIMMAX
 10
6.15000000000009
 20
14.3342455619957
  9
$VIEWCTR
 10
10
 20
10
  9
$VIEWSIZE
 40
10
  9
$SNAPMODE
 70
0
  9
$SNAPUNIT
 10
1
 20
1
  9
$SNAPBASE
 10
0
 20
0
  9
$SNAPANG
 50
0
  9
$SNAPSTYLE
 70
0
  9
$SNAPISOPAIR
 70
0
  9
$GRIDMODE
 70
0
  9
$GRIDUNIT
 10
0
 20
0
  9
$ORTHOMODE
 70
0
  9
$REGENMODE
 70
1
  9
$FILLMODE
 70
1
  9
$QTEXTMODE
 70
0
  9
$DRAGMODE
 70
2
  9
$LTSCALE
 40
1
  9
$OSMODE
 70
0
  9
$ATTMODE
 70
1
  9
$TEXTSIZE
 40
3.5
  9
$TRACEWID
 40
0.5
  9
$TEXTSTYLE
  7
STANDARD
  9
$CLAYER
  8
0
  9
$CELTYPE
  6
BYLAYER
  9
$CECOLOR
 62
256
  9
$DIMSCALE
 40
1
  9
$DIMASZ
 40
0.18
  9
$DIMEXO
 40
0.0625
  9
$DIMDLI
 40
0.38
  9
$DIMRND
 40
0
  9
$DIMDLE
 40
0
  9
$DIMEXE
 40
0.18
  9
$DIMTP
 40
0
  9
$DIMTM
 40
0
  9
$DIMTXT
 40
0.18
  9
$DIMCEN
 40
0.09
  9
$DIMTSZ
 40
0
  9
$DIMTOL
 70
0
  9
$DIMLIM
 70
0
  9
$DIMTIH
 70
1
  9
$DIMTOH
 70
1
  9
$DIMSE1
 70
0
  9
$DIMSE2
 70
0
  9
$DIMTAD
 70
0
  9
$DIMZIN
 70
0
  9
$DIMBLK
  1

  9
$DIMASO
 70
1
  9
$DIMSHO
 70
1
  9
$DIMPOST
  1

  9
$DIMAPOST
  1

  9
$DIMALT
 70
0
  9
$DIMALTD
 70
2
  9
$DIMALTF
 40
25.4
  9
$DIMLFAC
 40
1
  9
$DIMTOFL
 70
0
  9
$DIMTVP
 40
0
  9
$DIMTIX
 70
0
  9
$DIMSOXD
 70
0
  9
$DIMSAH
 70
0
  9
$DIMBLK1
  1

  9
$DIMBLK2
  1

  9
$DIMSTYLE
  2
*UNNAMED
  9
$DIMCLRD
 70
0
  9
$DIMCLRE
 70
0
  9
$DIMCLRT
 70
0
  9
$DIMTFAC
 40
1
  9
$DIMGAP
 40
0.09
  9
$LUNITS
 70
2
  9
$LUPREC
 70
4
  9
$AXISMODE
 70
0
  9
$AXISUNIT
 10
0
 20
0
  9
$SKETCHINC
 40
0.1
  9
$FILLETRAD
 40
2
  9
$AUNITS
 70
0
  9
$AUPREC
 70
0
  9
$MENU
  1
ACAD
  9
$ELEVATION
 40
0
  9
$THICKNESS
 40
0
  9
$VIEWDIR
 10
0
 20
0
 30
1
  9
$LIMCHECK
 70
0
  9
$BLIPMODE
 70
1
  9
$CHAMFERA
 40
0
  9
$CHAMFERB
 40
0
  9
$FASTZOOM
 70
1
  9
$SKPOLY
 70
0
  9
$ANGBASE
 50
0
  9
$ANGDIR
 70
0
  9
$PDMODE
 70
0
  9
$PDSIZE
 40
0
  9
$PLINEWID
 40
0
  9
$COORDS
 70
2
  0
ENDSEC
  0
SECTION
  2
TABLES
  0
TABLE
  2
DIMSTYLE
 70
0
  0
ENDTAB
  0
TABLE
  2
LTYPE
 70
9
  0
LTYPE
  2
CONTINUOUS
 70
64
  3
Solid line
 72
65
 73
0
 40
0
  0
LTYPE
  2
BORDER
 70
64
  3
__ __ . __ __ .
 72
65
 73
6
 40
2.882894736842105
 49
0.8236842105263158
 49
-0.4118421052631579
 49
0.8236842105263158
 49
-0.4118421052631579
 49
0
 49
-0.4118421052631579
  0
LTYPE
  2
CENTER
 70
64
  3
____ _ ____ _
 72
65
 73
4
 40
3.294736842105263
 49
2.059210526315789
 49
-0.4118421052631579
 49
0.4118421052631579
 49
-0.4118421052631579
  0
LTYPE
  2
DASHDOT
 70
64
  3
__ . __ . __ .
 72
65
 73
4
 40
1.647368421052632
 49
0.8236842105263158
 49
-0.4118421052631579
 49
0
 49
-0.4118421052631579
  0
LTYPE
  2
DASHED
 70
64
  3
__ __ __ __ __
 72
65
 73
2
 40
1.235526315789474
 49
0.8236842105263158
 49
-0.4118421052631579
  0
LTYPE
  2
DIVIDE
 70
64
  3
__ . . __ . . 
 72
65
 73
6
 40
2.059210526315789
 49
0.8236842105263158
 49
-0.4118421052631579
 49
0
 49
-0.4118421052631579
 49
0
 49
-0.4118421052631579
  0
LTYPE
  2
DOT
 70
64
  3
..............
 72
65
 73
4
 40
0.8236842105263158
 49
0
 49
-0.4118421052631579
 49
0
 49
-0.4118421052631579
  0
LTYPE
  2
HIDDEN
 70
64
  3
_ _ _ _ _ _ _
 72
65
 73
2
 40
0.6177631578947369
 49
0.4118421052631579
 49
-0.2059210526315789
  0
LTYPE
  2
PHANTOM
 70
64
  3
_____ _ _ _____ _ _ 
 72
65
 73
6
 40
4.118421052631579
 49
2.059210526315789
 49
-0.4118421052631579
 49
0.4118421052631579
 49
-0.4118421052631579
 49
0.4118421052631579
 49
-0.4118421052631579
  0
ENDTAB
  0
TABLE
  2
LAYER
 70
4
  0
LAYER
  2
0
 70
0
 62
7
  6
CONTINUOUS
  0
LAYER
  2
1
 70
0
 62
7
  6
CONTINUOUS
  0
LAYER
  2
CONSTRUCTION
 70
0
 62
7
  6
CONTINUOUS
  0
ENDTAB
  0
TABLE
  2
STYLE
 70
4
  0
STYLE
  2
STANDARD
 70
0
 40
0
 41
1
 50
0
 71
0
 42
3.5
  3
txt
  4

  0
STYLE
  2
SIMPLEX
 70
0
 40
0
 41
1
 50
0
 71
0
 42
3.5
  3
simplex
  4

  0
STYLE
  2
COMPLEX
 70
0
 40
0
 41
1
 50
0
 71
0
 42
3.5
  3
complex
  4

  0
STYLE
  2
ITALIC
 70
0
 40
0
 41
1
 50
0
 71
0
 42
3.5
  3
italic
  4

  0
ENDTAB
  0
TABLE
  2
VIEW
 70
0
  0
ENDTAB
  0
ENDSEC
  0
SECTION
  2
BLOCKS
  0
ENDSEC
  0
SECTION
  2
ENTITIES
  0
POINT
  8
1
 62
7
  6
DOT
 10
0
 20
0
 30
0
  0
LINE
  8
1
 62
7
 10
3.41628947353456e-11
 20
-48.2657544380043
 30
0
 11
3.41628947353456e-11
 21
14.3342455619957
 31
0
  0
LINE
  8
1
 62
7
 10
6.14999999996587
 20
14.3342455619957
 30
0
 11
6.14999999996587
 21
-48.2657544380043
 31
0
  0
LINE
  8
0
 62
7
 10
3.41628947353456e-11
 20
14.3342455619957
 30
0
 11
6.14999999996587
 21
14.3342455619957
 31
0
  0
LINE
  8
0
 62
7
 10
6.15000000000009
 20
-14.9893651947579
 30
0
 11
0
 21
-14.9893651947579
 31
0
  0
LINE
  8
0
 62
7
 10
0
 20
-9.525000000001169
 30
0
 11
6.14999999996593
 21
-9.525000000001111
 31
0
  0
LINE
  8
0
 62
7
 10
0
 20
-14.9750000000001
 30
0
 11
6.14999999996587
 21
-14.9750000000001
 31
0
  0
LINE
  8
0
 62
7
 10
0
 20
-15.547001145633
 30
0
 11
6.15000000000009
 21
-15.547001145633
 31
0
  0
LINE
  8
0
 62
7
 10
5.49999999996589
 20
-22.0500000000198
 30
0
 11
0.650000000000034
 21
-22.0500000000198
 31
0
  0
LINE
  8
0
 62
7
 10
5.49999999996589
 20
-22.0500000000198
 30
0
 11
5.49999999996589
 21
-18.2000000000011
 31
0
  0
LINE
  8
0
 62
7
 10
4.9977319635077
 20
-20.8477319635182
 30
0
 11
4.99773196350816
 21
-18.7022680365218
 31
0
  0
LINE
  8
0
 62
7
 10
4.99773196347354
 20
-23.5522680365209
 30
0
 11
4.99773196347348
 21
-25.6977319635178
 31
0
  0
LINE
  8
0
 62
7
 10
5.49999999996595
 20
-26.200000000001
 30
0
 11
5.49999999996589
 21
-22.3499999999814
 31
0
  0
LINE
  8
0
 62
7
 10
4.99773196347348
 20
-25.6977319635178
 30
0
 11
0.951274025679709
 21
-25.6977319635178
 31
0
  0
LINE
  8
0
 62
7
 10
0.951274025679254
 20
-23.5522680365214
 30
0
 11
0.951274025679709
 21
-25.6977319635178
 31
0
  0
LINE
  8
0
 62
7
 10
0.951274025679254
 20
-23.5522680365214
 30
0
 11
4.99773196347354
 21
-23.5522680365209
 31
0
  0
LINE
  8
0
 62
7
 10
0.951274025713815
 20
-20.8477319635182
 30
0
 11
4.9977319635077
 21
-20.8477319635182
 31
0
  0
LINE
  8
0
 62
7
 10
4.99773196350816
 20
-18.7022680365218
 30
0
 11
0.951274025713815
 21
-18.7022680365213
 31
0
  0
LINE
  8
0
 62
7
 10
0.951274025713815
 20
-18.7022680365213
 30
0
 11
0.951274025713815
 21
-20.8477319635182
 31
0
  0
LINE
  8
0
 62
7
 10
0.649999999965871
 20
-22.3499999999815
 30
0
 11
5.49999999996589
 21
-22.3499999999814
 31
0
  0
LINE
  8
0
 62
7
 10
0
 20
14.3342455619957
 30
0
 11
3.41628947353456e-11
 21
14.3342455619957
 31
0
  0
LINE
  8
0
 62
7
 10
0
 20
12.5516236409617
 30
0
 11
6.14999999996587
 21
12.5516236409617
 31
0
  0
LINE
  8
0
 62
7
 10
0
 20
-8.95299885436663
 30
0
 11
6.15000000000003
 21
-8.95299885436668
 31
0
  0
LINE
  8
0
 62
7
 10
6.14999999996587
 20
-8.03749999999968
 30
0
 11
0
 21
-8.03749999999968
 31
0
  0
LINE
  8
1
 62
7
 10
0
 20
13.7162022718899
 30
0
 11
6.14999999996587
 21
13.7162022718899
 31
0
  0
LINE
  8
1
 62
7
 10
5.25000000000006
 20
-6.24999999999909
 30
0
 11
0.85000000000008
 21
-6.2499999999992
 31
0
  0
LINE
  8
1
 62
7
 10
0.550000000000068
 20
-5.94999999999919
 30
0
 11
0.550000000000068
 21
-0.949999999999193
 31
0
  0
LINE
  8
1
 62
7
 10
5.55000000000007
 20
-5.94999999999914
 30
0
 11
5.55000000000007
 21
-0.949999999999136
 31
0
  0
LINE
  8
1
 62
7
 10
0.550000000000068
 20
-0.949999999999193
 30
0
 11
5.55000000000007
 21
-0.949999999999136
 31
0
  0
LINE
  8
1
 62
7
 10
0
 20
3.04076238283668
 30
0
 11
6.14999999996587
 21
3.04076238283668
 31
0
  0
LINE
  8
1
 62
7
 10
6.14999999996587
 20
-18.2000000000199
 30
0
 11
0
 21
-18.2000000000199
 31
0
  0
LINE
  8
1
 62
7
 10
0.650000000000034
 20
-22.0500000000198
 30
0
 11
0.650000000000034
 21
-18.2000000000199
 31
0
  0
LINE
  8
1
 62
7
 10
0.649999999965871
 20
-22.3499999999815
 30
0
 11
0.6499999999659281
 21
-26.2000000000009
 31
0
  0
LINE
  8
1
 62
7
 10
6.14999999996587
 20
-26.2000000000193
 30
0
 11
0
 21
-26.2000000000193
 31
0
  0
LINE
  8
0
 62
7
 10
6.15000000000003
 20
-48.2657544380043
 30
0
 11
6.14999999996587
 21
-48.2657544380043
 31
0
  0
LINE
  8
0
 62
7
 10
3.41486838806304e-11
 20
-27.2499999986782
 30
0
 11
6.15000000000003
 21
-27.2499999986782
 31
0
  0
LINE
  8
1
 62
7
 10
6.15000000000003
 20
-47.6477111478985
 30
0
 11
3.41628947353456e-11
 21
-47.6477111478985
 31
0
  0
LINE
  8
0
 62
7
 10
6.15000000000001
 20
-46.4831325169703
 30
0
 11
3.41486838806304e-11
 21
-46.4831325169704
 31
0
  0
LINE
  8
1
 62
7
 10
0.8999999999999631
 20
-27.6815088760096
 30
0
 11
5.29999999999994
 21
-27.6815088760094
 31
0
  0
LINE
  8
1
 62
7
 10
5.59999999999995
 20
-27.9815088760094
 30
0
 11
5.59999999999995
 21
-32.9815088760094
 31
0
  0
LINE
  8
1
 62
7
 10
0.599999999999952
 20
-27.9815088760095
 30
0
 11
0.599999999999952
 21
-32.9815088760095
 31
0
  0
LINE
  8
1
 62
7
 10
5.59999999999995
 20
-32.9815088760094
 30
0
 11
0.599999999999952
 21
-32.9815088760095
 31
0
  0
LINE
  8
1
 62
7
 10
6.15000000000002
 20
-36.9722712588453
 30
0
 11
3.41628947353456e-11
 21
-36.9722712588453
 31
0
  0
LINE
  8
0
 62
7
 10
6.14999999996587
 20
-48.2657544380043
 30
0
 11
3.41628947353456e-11
 21
-48.2657544380043
 31
0
  0
ARC
  8
0
 62
7
 10
5.25
 20
-5.94999999999914
 30
0
 40
0.2999999999999492
 50
270.0000000000115
 51
0
  0
ARC
  8
0
 62
7
 10
0.85000000000008
 20
-5.94999999999919
 30
0
 40
0.300000000000012
 50
180
 51
270
  0
ARC
  8
1
 62
7
 10
1.49921329849272
 20
11.0521533149362
 30
0
 40
1.500000000000038
 50
91.52268159538821
 51
178.1442649317309
  0
ARC
  8
1
 62
7
 10
4.65077733783952
 20
11.052443181607
 30
0
 40
1.500000000000014
 50
1.844657201658218
 51
88.10592564122376
  0
ARC
  8
0
 62
7
 10
0.90000000000002
 20
-27.9815088760095
 30
0
 40
0.2999999999998977
 50
90.00000000001087
 51
180
  0
ARC
  8
0
 62
7
 10
5.29999999999996
 20
-27.9815088760094
 30
0
 40
0.2999999999999901
 50
0
 51
90
  0
ARC
  8
1
 62
7
 10
4.65078670150732
 20
-44.9836621909449
 30
0
 40
1.499999999999939
 50
271.522681595388
 51
358.1442649317346
  0
ARC
  8
1
 62
7
 10
1.49922266216051
 20
-44.9839520576156
 30
0
 40
1.500000000000024
 50
181.844657201658
 51
268.1059256412238
  0
CIRCLE
  8
1
 62
7
 10
3.07499999998294
 20
8.108781609030011
 30
0
 40
2.5
  0
CIRCLE
  8
1
 62
7
 10
3.0750000000171
 20
-42.0402904850386
 30
0
 40
2.50000000000001
  0
ENDSEC
  0
EOF
