  0
SECTION
  2
HEADER
  9
$ACADVER
  1
AC1009
  9
$DWGCODEPAGE
  3
ansi_1252
  9
$INSBASE
 10
0.0
 20
0.0
 30
0.0
  9
$EXTMIN
 10
-2.57500000001545
 20
-52.22499999998419
 30
0.0
  9
$EXTMAX
 10
6.15000000001697
 20
17.67500000002491
 30
0.0
  9
$LIMMIN
 10
0.0
 20
0.0
  9
$LIMMAX
 10
12.0
 20
9.0
  9
$ORTHOMODE
 70
     0
  9
$REGENMODE
 70
     1
  9
$FILLMODE
 70
     1
  9
$QTEXTMODE
 70
     0
  9
$MIRRTEXT
 70
     1
  9
$DRAGMODE
 70
     2
  9
$LTSCALE
 40
1.0
  9
$OSMODE
 70
    37
  9
$ATTMODE
 70
     1
  9
$TEXTSIZE
 40
0.2
  9
$TRACEWID
 40
0.05
  9
$TEXTSTYLE
  7
STANDARD
  9
$CLAYER
  8
0
  9
$CELTYPE
  6
BYLAYER
  9
$CECOLOR
 62
   256
  9
$DIMSCALE
 40
1.0
  9
$DIMASZ
 40
0.18
  9
$DIMEXO
 40
0.0625
  9
$DIMDLI
 40
0.38
  9
$DIMRND
 40
0.0
  9
$DIMDLE
 40
0.0
  9
$DIMEXE
 40
0.18
  9
$DIMTP
 40
0.0
  9
$DIMTM
 40
0.0
  9
$DIMTXT
 40
0.18
  9
$DIMCEN
 40
0.09
  9
$DIMTSZ
 40
0.0
  9
$DIMTOL
 70
     0
  9
$DIMLIM
 70
     0
  9
$DIMTIH
 70
     1
  9
$DIMTOH
 70
     1
  9
$DIMSE1
 70
     0
  9
$DIMSE2
 70
     0
  9
$DIMTAD
 70
     0
  9
$DIMZIN
 70
     0
  9
$DIMBLK
  1

  9
$DIMASO
 70
     1
  9
$DIMSHO
 70
     1
  9
$DIMPOST
  1

  9
$DIMAPOST
  1

  9
$DIMALT
 70
     0
  9
$DIMALTD
 70
     2
  9
$DIMALTF
 40
25.4
  9
$DIMLFAC
 40
1.0
  9
$DIMTOFL
 70
     0
  9
$DIMTVP
 40
0.0
  9
$DIMTIX
 70
     0
  9
$DIMSOXD
 70
     0
  9
$DIMSAH
 70
     0
  9
$DIMBLK1
  1

  9
$DIMBLK2
  1

  9
$DIMSTYLE
  2
STANDARD
  9
$DIMCLRD
 70
     0
  9
$DIMCLRE
 70
     0
  9
$DIMCLRT
 70
     0
  9
$DIMTFAC
 40
1.0
  9
$DIMGAP
 40
0.09
  9
$LUNITS
 70
     2
  9
$LUPREC
 70
     4
  9
$SKETCHINC
 40
0.1
  9
$FILLETRAD
 40
0.5
  9
$AUNITS
 70
     0
  9
$AUPREC
 70
     0
  9
$MENU
  1
.
  9
$ELEVATION
 40
0.0
  9
$PELEVATION
 40
0.0
  9
$THICKNESS
 40
0.0
  9
$LIMCHECK
 70
     0
  9
$CHAMFERA
 40
0.5
  9
$CHAMFERB
 40
0.5
  9
$SKPOLY
 70
     0
  9
$TDCREATE
 40
2453713.637869768
  9
$TDUPDATE
 40
2453713.63786978
  9
$TDINDWG
 40
0.0000000116
  9
$TDUSRTIMER
 40
0.0000000116
  9
$USRTIMER
 70
     1
  9
$ANGBASE
 50
0.0
  9
$ANGDIR
 70
     0
  9
$PDMODE
 70
     0
  9
$PDSIZE
 40
0.0
  9
$PLINEWID
 40
0.0
  9
$COORDS
 70
     1
  9
$SPLFRAME
 70
     0
  9
$SPLINETYPE
 70
     6
  9
$SPLINESEGS
 70
     8
  9
$ATTDIA
 70
     0
  9
$ATTREQ
 70
     1
  9
$HANDLING
 70
     1
  9
$HANDSEED
  5
90
  9
$SURFTAB1
 70
     6
  9
$SURFTAB2
 70
     6
  9
$SURFTYPE
 70
     6
  9
$SURFU
 70
     6
  9
$SURFV
 70
     6
  9
$UCSNAME
  2

  9
$UCSORG
 10
0.0
 20
0.0
 30
0.0
  9
$UCSXDIR
 10
1.0
 20
0.0
 30
0.0
  9
$UCSYDIR
 10
0.0
 20
1.0
 30
0.0
  9
$PUCSNAME
  2

  9
$PUCSORG
 10
0.0
 20
0.0
 30
0.0
  9
$PUCSXDIR
 10
1.0
 20
0.0
 30
0.0
  9
$PUCSYDIR
 10
0.0
 20
1.0
 30
0.0
  9
$USERI1
 70
     0
  9
$USERI2
 70
     0
  9
$USERI3
 70
     0
  9
$USERI4
 70
     0
  9
$USERI5
 70
     0
  9
$USERR1
 40
13.01
  9
$USERR2
 40
0.0
  9
$USERR3
 40
0.0
  9
$USERR4
 40
0.0
  9
$USERR5
 40
0.0
  9
$WORLDVIEW
 70
     1
  9
$SHADEDGE
 70
     3
  9
$SHADEDIF
 70
    70
  9
$TILEMODE
 70
     1
  9
$MAXACTVP
 70
    64
  9
$PLIMCHECK
 70
     0
  9
$PEXTMIN
 10
1.00000000000000E+20
 20
1.00000000000000E+20
 30
1.00000000000000E+20
  9
$PEXTMAX
 10
-1.00000000000000E+20
 20
-1.00000000000000E+20
 30
-1.00000000000000E+20
  9
$PLIMMIN
 10
0.0
 20
0.0
  9
$PLIMMAX
 10
12.0
 20
9.0
  9
$UNITMODE
 70
     0
  9
$VISRETAIN
 70
     1
  9
$PLINEGEN
 70
     0
  9
$PSLTSCALE
 70
     1
  0
ENDSEC
  0
SECTION
  2
TABLES
  0
TABLE
  2
VPORT
 70
     2
  0
VPORT
  2
*ACTIVE
 70
     0
 10
0.0
 20
0.0
 11
1.0
 21
1.0
 12
1.78750000000076
 22
-17.27499999997964
 13
0.0
 23
0.0
 14
0.5
 24
0.5
 15
0.5
 25
0.5
 16
0.0
 26
0.0
 36
1.0
 17
0.0
 27
0.0
 37
0.0
 40
76.89000000001002
 41
1.60267857142857
 42
50.0
 43
0.0
 44
0.0
 50
0.0
 51
0.0
 71
     0
 72
   100
 73
     1
 74
     3
 75
     0
 76
     0
 77
     0
 78
     0
  0
ENDTAB
  0
TABLE
  2
LTYPE
 70
     8
  0
LTYPE
  2
CONTINUOUS
 70
     0
  3
Solid line
 72
    65
 73
     0
 40
0.0
  0
LTYPE
  2
DASHED
 70
     0
  3
Dashed
 72
    65
 73
     2
 40
15.0
 49
7.0
 49
-8.0
  0
LTYPE
  2
DOTTED
 70
     0
  3
Dotted
 72
    65
 73
     2
 40
1.0
 49
0.0
 49
-1.0
  0
LTYPE
  2
DOT_CENTER
 70
     0
  3
Dot_Center
 72
    65
 73
     4
 40
14.0
 49
12.0
 49
-1.0
 49
0.0
 49
-1.0
  0
LTYPE
  2
LONG_DASHED
 70
     0
  3
Long_Dashed
 72
    65
 73
     2
 40
15.0
 49
10.0
 49
-5.0
  0
LTYPE
  2
DASH_CENTER
 70
     0
  3
Dash_Center
 72
    65
 73
     4
 40
14.0
 49
11.0
 49
-1.0
 49
1.0
 49
-1.0
  0
LTYPE
  2
PHANTOM
 70
     0
  3
Phantom
 72
    65
 73
     6
 40
13.0
 49
10.0
 49
-1.0
 49
0.0
 49
-1.0
 49
0.0
 49
-1.0
  0
LTYPE
  2
CENTER_DASH_DASH
 70
     0
  3
Center_Dash_Dash
 72
    65
 73
     6
 40
14.0
 49
9.0
 49
-1.0
 49
1.0
 49
-1.0
 49
1.0
 49
-1.0
  0
ENDTAB
  0
TABLE
  2
LAYER
 70
     2
  0
LAYER
  2
0
 70
     0
 62
     7
  6
CONTINUOUS
  0
LAYER
  2
1
 70
     0
 62
     7
  6
CONTINUOUS
  0
ENDTAB
  0
TABLE
  2
STYLE
 70
     1
  0
STYLE
  2
STANDARD
 70
     0
 40
0.0
 41
1.0
 50
0.0
 71
     0
 42
0.2
  3
txt
  4

  0
ENDTAB
  0
TABLE
  2
VIEW
 70
     0
  0
ENDTAB
  0
TABLE
  2
UCS
 70
     0
  0
ENDTAB
  0
TABLE
  2
APPID
 70
     1
  0
APPID
  2
ACAD
 70
     0
  0
ENDTAB
  0
TABLE
  2
DIMSTYLE
 70
     1
  0
DIMSTYLE
  2
STANDARD
 70
     0
  3

  4

  5

  6

  7

 40
1.0
 41
0.18
 42
0.0625
 43
0.38
 44
0.18
 45
0.0
 46
0.0
 47
0.0
 48
0.0
140
0.18
141
0.09
142
0.0
143
25.4
144
1.0
145
0.0
146
1.0
147
0.09
 71
     0
 72
     0
 73
     1
 74
     1
 75
     0
 76
     0
 77
     0
 78
     0
170
     0
171
     2
172
     0
173
     0
174
     0
175
     0
176
     0
177
     0
178
     0
  0
ENDTAB
  0
ENDSEC
  0
SECTION
  2
BLOCKS
  0
BLOCK
  8
0
  2
$MODEL_SPACE
 70
     0
 10
0.0
 20
0.0
 30
0.0
  3
$MODEL_SPACE
  1

  0
ENDBLK
  5
21
  8
0
  0
BLOCK
 67
     1
  8
0
  2
$PAPER_SPACE
 70
     0
 10
0.0
 20
0.0
 30
0.0
  3
$PAPER_SPACE
  1

  0
ENDBLK
  5
1D
 67
     1
  8
0
  0
ENDSEC
  0
SECTION
  2
ENTITIES
  0
POINT
  5
36
  8
1
 62
     7
 10
0.0
 20
0.0
 30
0.0
  0
LINE
  5
37
  8
1
  6
CONTINUOUS
 62
     7
 10
-2.57500000001545
 20
-22.34999999997669
 30
0.0
 11
3.57499999996597
 21
-22.3499999999832
 31
0.0
  0
LINE
  5
38
  8
1
  6
CONTINUOUS
 62
     7
 10
3.57499999998456
 20
-4.79131407746999
 30
0.0
 11
3.57499999998502
 21
-4.34999999997339
 31
0.0
  0
LINE
  5
39
  8
1
  6
CONTINUOUS
 62
     7
 10
3.57499999998456
 20
-4.79131407746999
 30
0.0
 11
3.57499999994691
 21
-40.349999999993
 31
0.0
  0
LINE
  5
3A
  8
1
  6
CONTINUOUS
 62
     7
 10
-2.57500000001545
 20
-40.34999999998649
 30
0.0
 11
6.14999999995554
 21
-40.34999999999573
 31
0.0
  0
LINE
  5
3B
  8
1
  6
CONTINUOUS
 62
     7
 10
-2.57500000001545
 20
-4.34999999996688
 30
0.0
 11
6.14999999999365
 21
-4.34999999997612
 31
0.0
  0
LINE
  5
3C
  8
1
  6
CONTINUOUS
 62
     7
 10
0.00000000002447
 20
17.67500000002491
 30
0.0
 11
-0.00000000000463
 21
-4.34999999996677
 31
0.0
  0
LINE
  5
3D
  8
1
  6
CONTINUOUS
 62
     7
 10
-2.57500000001545
 20
-40.34999999998649
 30
0.0
 11
-2.57500000001545
 21
-4.34999999996688
 31
0.0
  0
LINE
  5
3E
  8
1
  6
CONTINUOUS
 62
     7
 10
-0.00000000004883
 20
-52.22499999998419
 30
0.0
 11
-0.00000000003683
 21
-40.34999999998649
 31
0.0
  0
LINE
  5
3F
  8
1
  6
CONTINUOUS
 62
     7
 10
6.14999999994296
 20
-52.22499999998419
 30
0.0
 11
6.15000000001697
 21
17.67500000002491
 31
0.0
  0
LINE
  5
40
  8
0
  6
CONTINUOUS
 62
     7
 10
2.43493359152086
 20
-14.18995884469368
 30
0.0
 11
0.01004115527616
 21
-11.76506640844889
 31
0.0
  0
LINE
  5
41
  8
1
  6
CONTINUOUS
 62
     7
 10
5.51615456955236
 20
0.20781879614005
 30
0.0
 11
6.14999999999882
 21
0.20781879613937
 31
0.0
  0
LINE
  5
42
  8
1
  6
CONTINUOUS
 62
     7
 10
5.51615456955236
 20
0.20781879614005
 30
0.0
 11
0.00000000000022
 21
0.20781879614592
 31
0.0
  0
LINE
  5
43
  8
0
  6
CONTINUOUS
 62
     7
 10
0.00000000002086
 20
16.30509787394732
 30
0.0
 11
6.15000000001555
 21
16.30509787394931
 31
0.0
  0
LINE
  5
44
  8
0
  6
CONTINUOUS
 62
     7
 10
1.93995884469027
 20
-32.93493359153359
 30
0.0
 11
2.01923628122475
 21
-33.01421102806827
 31
0.0
  0
LINE
  5
45
  8
0
  6
CONTINUOUS
 62
     7
 10
0.01004115527616
 20
-30.01506640845818
 30
0.0
 11
-0.06923628126452
 21
-29.93578897191779
 31
0.0
  0
LINE
  5
46
  8
0
  6
CONTINUOUS
 62
     7
 10
2.51421102805645
 20
-32.51923628123879
 30
0.0
 11
2.43493359152086
 21
-32.43995884470297
 31
0.0
  0
LINE
  5
47
  8
0
  6
CONTINUOUS
 62
     7
 10
-0.56421102809415
 20
-30.43076371874938
 30
0.0
 11
-0.48493359155444
 21
-30.51004115528878
 31
0.0
  0
LINE
  5
48
  8
0
  6
CONTINUOUS
 62
     7
 10
2.43493359152086
 20
-32.43995884470297
 30
0.0
 11
0.01004115527616
 21
-30.01506640845818
 31
0.0
  0
LINE
  5
49
  8
0
  6
CONTINUOUS
 62
     7
 10
-0.48493359155444
 20
-30.51004115528878
 30
0.0
 11
1.93995884469027
 21
-32.93493359153359
 31
0.0
  0
LINE
  5
4A
  8
0
  6
CONTINUOUS
 62
     7
 10
2.58504115527447
 20
-41.89006640845599
 30
0.0
 11
2.50576371873348
 21
-41.81078897191577
 31
0.0
  0
LINE
  5
4B
  8
0
  6
CONTINUOUS
 62
     7
 10
5.08921102805456
 20
-44.39423628123677
 30
0.0
 11
5.00993359151926
 21
-44.31495884470067
 31
0.0
  0
LINE
  5
4C
  8
0
  6
CONTINUOUS
 62
     7
 10
2.09006640844387
 20
-42.38504115528647
 30
0.0
 11
4.51495884468866
 21
-44.80993359153129
 31
0.0
  0
LINE
  5
4D
  8
0
  6
CONTINUOUS
 62
     7
 10
2.01078897190408
 20
-42.30576371874747
 30
0.0
 11
2.09006640844387
 21
-42.38504115528647
 31
0.0
  0
LINE
  5
4E
  8
0
  6
CONTINUOUS
 62
     7
 10
4.51495884468866
 20
-44.80993359153129
 30
0.0
 11
4.59423628122278
 21
-44.88921102806617
 31
0.0
  0
LINE
  5
4F
  8
0
  6
CONTINUOUS
 62
     7
 10
5.00993359151926
 20
-44.31495884470067
 30
0.0
 11
2.58504115527447
 21
-41.89006640845599
 31
0.0
  0
LINE
  5
50
  8
0
  6
CONTINUOUS
 62
     7
 10
-0.48493359155444
 20
-12.26004115527948
 30
0.0
 11
1.93995884469027
 21
-14.68493359152427
 31
0.0
  0
LINE
  5
51
  8
0
  6
CONTINUOUS
 62
     7
 10
-0.56421102809415
 20
-12.18076371874008
 30
0.0
 11
-0.48493359155444
 21
-12.26004115527948
 31
0.0
  0
LINE
  5
52
  8
0
  6
CONTINUOUS
 62
     7
 10
2.51421102805645
 20
-14.2692362812295
 30
0.0
 11
2.43493359152086
 21
-14.18995884469368
 31
0.0
  0
LINE
  5
53
  8
0
  6
CONTINUOUS
 62
     7
 10
0.01004115527616
 20
-11.76506640844889
 30
0.0
 11
-0.06923628126452
 21
-11.68578897190849
 31
0.0
  0
LINE
  5
54
  8
0
  6
CONTINUOUS
 62
     7
 10
1.93995884469027
 20
-14.68493359152427
 30
0.0
 11
2.01923628122475
 21
-14.76421102805898
 31
0.0
  0
LINE
  5
55
  8
0
  6
CONTINUOUS
 62
     7
 10
5.00993359151926
 20
7.83504115529311
 30
0.0
 11
2.58504115527447
 21
10.25993359153782
 31
0.0
  0
LINE
  5
56
  8
0
  6
CONTINUOUS
 62
     7
 10
4.51495884468866
 20
7.34006640846252
 30
0.0
 11
4.59423628122278
 21
7.26078897192761
 31
0.0
  0
LINE
  5
57
  8
0
  6
CONTINUOUS
 62
     7
 10
2.01078897190408
 20
9.84423628124631
 30
0.0
 11
2.09006640844387
 21
9.76495884470731
 31
0.0
  0
LINE
  5
58
  8
0
  6
CONTINUOUS
 62
     7
 10
2.09006640844387
 20
9.76495884470731
 30
0.0
 11
4.51495884468866
 21
7.34006640846252
 31
0.0
  0
LINE
  5
59
  8
0
  6
CONTINUOUS
 62
     7
 10
5.08921102805456
 20
7.75576371875701
 30
0.0
 11
5.00993359151926
 21
7.83504115529311
 31
0.0
  0
LINE
  5
5A
  8
0
  6
CONTINUOUS
 62
     7
 10
2.58504115527447
 20
10.25993359153782
 30
0.0
 11
2.50576371873348
 21
10.33921102807801
 31
0.0
  0
LINE
  5
5B
  8
0
  6
CONTINUOUS
 62
     7
 10
6.15000000000495
 20
5.40000000000302
 30
0.0
 11
-0.00000000000503
 21
5.40000000000302
 31
0.0
  0
LINE
  5
5C
  8
0
  6
CONTINUOUS
 62
     7
 10
0.00000000002447
 20
17.67500000002491
 30
0.0
 11
6.15000000001697
 21
17.67500000002491
 31
0.0
  0
LINE
  5
5D
  8
0
  6
CONTINUOUS
 62
     7
 10
0.00000000000617
 20
13.67312706735532
 30
0.0
 11
6.15000000001257
 21
13.67312706735532
 31
0.0
  0
LINE
  5
5E
  8
0
  6
CONTINUOUS
 62
     7
 10
0.00000000000236
 20
12.29764973081271
 30
0.0
 11
6.15000000001226
 21
12.29764973081271
 31
0.0
  0
LINE
  5
5F
  8
0
  6
CONTINUOUS
 62
     7
 10
-2.57500000001545
 20
-9.72735026917897
 30
0.0
 11
3.57499999998456
 21
-9.72735026917897
 31
0.0
  0
LINE
  5
60
  8
0
  6
CONTINUOUS
 62
     7
 10
-2.57500000001545
 20
-8.35187293263638
 30
0.0
 11
3.57499999998456
 21
-8.35187293263638
 31
0.0
  0
LINE
  5
61
  8
0
  6
CONTINUOUS
 62
     7
 10
-2.57500000001545
 20
-4.79131407747008
 30
0.0
 11
3.57499999998456
 21
-4.79131407746999
 31
0.0
  0
LINE
  5
62
  8
0
  6
CONTINUOUS
 62
     7
 10
0.00000000000446
 20
4.20000000000292
 30
0.0
 11
-0.00000000000463
 21
-4.34999999996677
 31
0.0
  0
LINE
  5
63
  8
0
  6
CONTINUOUS
 62
     7
 10
-2.57500000001545
 20
-17.26974254127688
 30
0.0
 11
3.57499999998456
 21
-17.26974254127688
 31
0.0
  0
LINE
  5
64
  8
0
  6
CONTINUOUS
 62
     7
 10
3.57499999998456
 20
-7.10560684968959
 30
0.0
 11
-2.57500000001545
 21
-7.10560684968968
 31
0.0
  0
LINE
  5
65
  8
0
  6
CONTINUOUS
 62
     7
 10
-0.00000000004883
 20
-52.22499999998419
 30
0.0
 11
6.14999999994296
 21
-52.22499999998419
 31
0.0
  0
LINE
  5
66
  8
0
  6
CONTINUOUS
 62
     7
 10
-0.00000000005943
 20
-48.22312706733888
 30
0.0
 11
6.14999999994805
 21
-48.22312706733888
 31
0.0
  0
LINE
  5
67
  8
0
  6
CONTINUOUS
 62
     7
 10
6.14999999994455
 20
-50.85509787392709
 30
0.0
 11
-0.00000000004903
 21
-50.85509787392709
 31
0.0
  0
LINE
  5
68
  8
0
  6
CONTINUOUS
 62
     7
 10
-0.00000000005895
 20
-46.84764973079629
 30
0.0
 11
6.14999999994956
 21
-46.84764973079629
 31
0.0
  0
LINE
  5
69
  8
0
  6
CONTINUOUS
 62
     7
 10
-2.57500000001545
 20
-27.43025745870079
 30
0.0
 11
3.57499999998456
 21
-27.43025745870079
 31
0.0
  0
LINE
  5
6A
  8
0
  6
CONTINUOUS
 62
     7
 10
-2.57500000001545
 20
-34.97264973079859
 30
0.0
 11
3.57499999998456
 21
-34.97264973079859
 31
0.0
  0
LINE
  5
6B
  8
0
  6
CONTINUOUS
 62
     7
 10
3.57499999998456
 20
-39.90868592250487
 30
0.0
 11
-2.57500000001545
 21
-39.90868592250479
 31
0.0
  0
LINE
  5
6C
  8
0
  6
CONTINUOUS
 62
     7
 10
3.57499999998456
 20
-37.59439315028709
 30
0.0
 11
-2.57500000001545
 21
-37.59439315028718
 31
0.0
  0
LINE
  5
6D
  8
0
  6
CONTINUOUS
 62
     7
 10
-2.57500000001545
 20
-36.3481270673411
 30
0.0
 11
3.57499999998456
 21
-36.3481270673411
 31
0.0
  0
LINE
  5
6E
  8
0
  6
CONTINUOUS
 62
     7
 10
-0.82999999546763
 20
-18.72499999999479
 30
0.0
 11
-0.82999999546743
 21
-21.12499999999298
 31
0.0
  0
LINE
  5
6F
  8
0
  6
CONTINUOUS
 62
     7
 10
-0.82999999546743
 20
-21.12499999999298
 30
0.0
 11
1.87000000453037
 21
-21.12499999999298
 31
0.0
  0
LINE
  5
70
  8
0
  6
CONTINUOUS
 62
     7
 10
1.87000000453057
 20
-18.72499999999479
 30
0.0
 11
-0.82999999546763
 21
-18.72499999999479
 31
0.0
  0
LINE
  5
71
  8
0
  6
CONTINUOUS
 62
     7
 10
-0.82999999546703
 20
-25.97499999999067
 30
0.0
 11
-0.82999999546723
 21
-23.5749999999934
 31
0.0
  0
LINE
  5
72
  8
0
  6
CONTINUOUS
 62
     7
 10
1.87000000452997
 20
-25.97499999999067
 30
0.0
 11
-0.82999999546703
 21
-25.97499999999067
 31
0.0
  0
LINE
  5
73
  8
0
  6
CONTINUOUS
 62
     7
 10
-0.82999999546723
 20
-23.5749999999934
 30
0.0
 11
1.87000000453017
 21
-23.5749999999934
 31
0.0
  0
LINE
  5
74
  8
0
  6
CONTINUOUS
 62
     7
 10
1.87000000452997
 20
-25.97499999999067
 30
0.0
 11
1.87000000453017
 21
-23.5749999999934
 31
0.0
  0
LINE
  5
75
  8
0
  6
CONTINUOUS
 62
     7
 10
1.87000000453057
 20
-18.72499999999479
 30
0.0
 11
1.87000000453037
 21
-21.12499999999298
 31
0.0
  0
LINE
  5
76
  8
0
  6
CONTINUOUS
 62
     7
 10
4.44499999998476
 20
1.42500000003463
 30
0.0
 11
1.74499999998477
 21
1.42500000003463
 31
0.0
  0
LINE
  5
77
  8
0
  6
CONTINUOUS
 62
     7
 10
1.74499999998466
 20
3.8250000000348
 30
0.0
 11
4.44499999998487
 21
3.8250000000348
 31
0.0
  0
LINE
  5
78
  8
0
  6
CONTINUOUS
 62
     7
 10
4.44499999998487
 20
3.8250000000348
 30
0.0
 11
4.44499999998476
 21
1.42500000003463
 31
0.0
  0
LINE
  5
79
  8
0
  6
CONTINUOUS
 62
     7
 10
1.74499999998477
 20
-3.42499999996377
 30
0.0
 11
4.44499999998476
 21
-3.42499999996369
 31
0.0
  0
LINE
  5
7A
  8
0
  6
CONTINUOUS
 62
     7
 10
4.44499999998476
 20
-3.42499999996369
 30
0.0
 11
4.44499999998476
 21
-1.02499999996368
 31
0.0
  0
LINE
  5
7B
  8
0
  6
CONTINUOUS
 62
     7
 10
1.74499999998477
 20
-1.02499999996368
 30
0.0
 11
1.74499999998477
 21
-3.42499999996377
 31
0.0
  0
LINE
  5
7C
  8
0
  6
CONTINUOUS
 62
     7
 10
1.74499999998477
 20
1.42500000003463
 30
0.0
 11
1.74499999998466
 21
3.8250000000348
 31
0.0
  0
LINE
  5
7D
  8
0
  6
CONTINUOUS
 62
     7
 10
4.44499999998476
 20
-1.02499999996368
 30
0.0
 11
1.74499999998477
 21
-1.02499999996368
 31
0.0
  0
LINE
  5
7E
  8
0
  6
CONTINUOUS
 62
     7
 10
-0.82999999546763
 20
-18.72499999999479
 30
0.0
 11
-0.82999999546743
 21
-21.12499999999298
 31
0.0
  0
LINE
  5
7F
  8
0
  6
CONTINUOUS
 62
     7
 10
-0.82999999546743
 20
-21.12499999999298
 30
0.0
 11
1.87000000453037
 21
-21.12499999999298
 31
0.0
  0
LINE
  5
80
  8
0
  6
CONTINUOUS
 62
     7
 10
1.87000000453057
 20
-18.72499999999479
 30
0.0
 11
-0.82999999546763
 21
-18.72499999999479
 31
0.0
  0
LINE
  5
81
  8
0
  6
CONTINUOUS
 62
     7
 10
-0.82999999546703
 20
-25.97499999999067
 30
0.0
 11
-0.82999999546723
 21
-23.5749999999934
 31
0.0
  0
LINE
  5
82
  8
0
  6
CONTINUOUS
 62
     7
 10
1.87000000452997
 20
-25.97499999999067
 30
0.0
 11
-0.82999999546703
 21
-25.97499999999067
 31
0.0
  0
LINE
  5
83
  8
0
  6
CONTINUOUS
 62
     7
 10
-0.82999999546723
 20
-23.5749999999934
 30
0.0
 11
1.87000000453017
 21
-23.5749999999934
 31
0.0
  0
LINE
  5
84
  8
0
  6
CONTINUOUS
 62
     7
 10
1.87000000452997
 20
-25.97499999999067
 30
0.0
 11
1.87000000453017
 21
-23.5749999999934
 31
0.0
  0
LINE
  5
85
  8
0
  6
CONTINUOUS
 62
     7
 10
1.87000000453057
 20
-18.72499999999479
 30
0.0
 11
1.87000000453037
 21
-21.12499999999298
 31
0.0
  0
CIRCLE
  5
86
  8
0
  6
CONTINUOUS
 62
     7
 10
0.97499999998337
 20
-13.22499999998658
 30
0.0
 40
1.860000000004499
  0
CIRCLE
  5
87
  8
0
  6
CONTINUOUS
 62
     7
 10
3.54999999998177
 20
8.80000000000533
 30
0.0
 40
1.860000000004389
  0
CIRCLE
  5
88
  8
0
  6
CONTINUOUS
 62
     7
 10
3.54999999998177
 20
-43.34999999998848
 30
0.0
 40
1.860000000004384
  0
CIRCLE
  5
89
  8
0
  6
CONTINUOUS
 62
     7
 10
0.97499999998337
 20
-31.47499999999099
 30
0.0
 40
1.860000000004511
  0
ENDSEC
  0
EOF
