  0
SECTION
  2
HEADER
  9
$ACADVER
  1
AC1009
  9
$INSBASE
 10
0
 20
0
  9
$EXTMIN
 10
-2.614797267597169e-12
 20
-41.49999999999073
  9
$EXTMAX
 10
10.14999999999748
 20
6.500000000008981
  9
$LIMMIN
 10
-2.614797267597169e-12
 20
-41.49999999999073
  9
$LIMMAX
 10
10.14999999999748
 20
6.500000000008981
  9
$VIEWCTR
 10
10
 20
10
  9
$VIEWSIZE
 40
10
  9
$SNAPMODE
 70
0
  9
$SNAPUNIT
 10
1
 20
1
  9
$SNAPBASE
 10
0
 20
0
  9
$SNAPANG
 50
0
  9
$SNAPSTYLE
 70
0
  9
$SNAPISOPAIR
 70
0
  9
$GRIDMODE
 70
0
  9
$GRIDUNIT
 10
0
 20
0
  9
$ORTHOMODE
 70
0
  9
$REGENMODE
 70
1
  9
$FILLMODE
 70
1
  9
$QTEXTMODE
 70
0
  9
$DRAGMODE
 70
2
  9
$LTSCALE
 40
1
  9
$OSMODE
 70
0
  9
$ATTMODE
 70
1
  9
$TEXTSIZE
 40
3.5
  9
$TRACEWID
 40
0.5
  9
$TEXTSTYLE
  7
STANDARD
  9
$CLAYER
  8
0
  9
$CELTYPE
  6
BYLAYER
  9
$CECOLOR
 62
256
  9
$DIMSCALE
 40
1
  9
$DIMASZ
 40
0.18
  9
$DIMEXO
 40
0.0625
  9
$DIMDLI
 40
0.38
  9
$DIMRND
 40
0
  9
$DIMDLE
 40
0
  9
$DIMEXE
 40
0.18
  9
$DIMTP
 40
0
  9
$DIMTM
 40
0
  9
$DIMTXT
 40
0.18
  9
$DIMCEN
 40
0.09
  9
$DIMTSZ
 40
0
  9
$DIMTOL
 70
0
  9
$DIMLIM
 70
0
  9
$DIMTIH
 70
1
  9
$DIMTOH
 70
1
  9
$DIMSE1
 70
0
  9
$DIMSE2
 70
0
  9
$DIMTAD
 70
0
  9
$DIMZIN
 70
0
  9
$DIMBLK
  1

  9
$DIMASO
 70
1
  9
$DIMSHO
 70
1
  9
$DIMPOST
  1

  9
$DIMAPOST
  1

  9
$DIMALT
 70
0
  9
$DIMALTD
 70
2
  9
$DIMALTF
 40
25.4
  9
$DIMLFAC
 40
1
  9
$DIMTOFL
 70
0
  9
$DIMTVP
 40
0
  9
$DIMTIX
 70
0
  9
$DIMSOXD
 70
0
  9
$DIMSAH
 70
0
  9
$DIMBLK1
  1

  9
$DIMBLK2
  1

  9
$DIMSTYLE
  2
*UNNAMED
  9
$DIMCLRD
 70
0
  9
$DIMCLRE
 70
0
  9
$DIMCLRT
 70
0
  9
$DIMTFAC
 40
1
  9
$DIMGAP
 40
0.09
  9
$LUNITS
 70
2
  9
$LUPREC
 70
4
  9
$AXISMODE
 70
0
  9
$AXISUNIT
 10
0
 20
0
  9
$SKETCHINC
 40
0.1
  9
$FILLETRAD
 40
2
  9
$AUNITS
 70
0
  9
$AUPREC
 70
0
  9
$MENU
  1
ACAD
  9
$ELEVATION
 40
0
  9
$THICKNESS
 40
0
  9
$VIEWDIR
 10
0
 20
0
 30
1
  9
$LIMCHECK
 70
0
  9
$BLIPMODE
 70
1
  9
$CHAMFERA
 40
0
  9
$CHAMFERB
 40
0
  9
$FASTZOOM
 70
1
  9
$SKPOLY
 70
0
  9
$ANGBASE
 50
0
  9
$ANGDIR
 70
0
  9
$PDMODE
 70
0
  9
$PDSIZE
 40
0
  9
$PLINEWID
 40
0
  9
$COORDS
 70
2
  0
ENDSEC
  0
SECTION
  2
TABLES
  0
TABLE
  2
DIMSTYLE
 70
0
  0
ENDTAB
  0
TABLE
  2
LTYPE
 70
9
  0
LTYPE
  2
CONTINUOUS
 70
64
  3
Solid line
 72
65
 73
0
 40
0
  0
LTYPE
  2
BORDER
 70
64
  3
__ __ . __ __ .
 72
65
 73
6
 40
2.21052631578946
 49
0.6315789473684172
 49
-0.3157894736842086
 49
0.6315789473684172
 49
-0.3157894736842086
 49
0
 49
-0.3157894736842086
  0
LTYPE
  2
CENTER
 70
64
  3
____ _ ____ _
 72
65
 73
4
 40
2.526315789473669
 49
1.578947368421043
 49
-0.3157894736842086
 49
0.3157894736842086
 49
-0.3157894736842086
  0
LTYPE
  2
DASHDOT
 70
64
  3
__ . __ . __ .
 72
65
 73
4
 40
1.263157894736834
 49
0.6315789473684172
 49
-0.3157894736842086
 49
0
 49
-0.3157894736842086
  0
LTYPE
  2
DASHED
 70
64
  3
__ __ __ __ __
 72
65
 73
2
 40
0.9473684210526259
 49
0.6315789473684172
 49
-0.3157894736842086
  0
LTYPE
  2
DIVIDE
 70
64
  3
__ . . __ . . 
 72
65
 73
6
 40
1.578947368421043
 49
0.6315789473684172
 49
-0.3157894736842086
 49
0
 49
-0.3157894736842086
 49
0
 49
-0.3157894736842086
  0
LTYPE
  2
DOT
 70
64
  3
..............
 72
65
 73
4
 40
0.6315789473684172
 49
0
 49
-0.3157894736842086
 49
0
 49
-0.3157894736842086
  0
LTYPE
  2
HIDDEN
 70
64
  3
_ _ _ _ _ _ _
 72
65
 73
2
 40
0.4736842105263129
 49
0.3157894736842086
 49
-0.1578947368421043
  0
LTYPE
  2
PHANTOM
 70
64
  3
_____ _ _ _____ _ _ 
 72
65
 73
6
 40
3.157894736842086
 49
1.578947368421043
 49
-0.3157894736842086
 49
0.3157894736842086
 49
-0.3157894736842086
 49
0.3157894736842086
 49
-0.3157894736842086
  0
ENDTAB
  0
TABLE
  2
LAYER
 70
3
  0
LAYER
  2
1
 70
0
 62
7
  6
CONTINUOUS
  0
LAYER
  2
0
 70
0
 62
7
  6
CONTINUOUS
  0
ENDTAB
  0
TABLE
  2
STYLE
 70
4
  0
STYLE
  2
STANDARD
 70
0
 40
0
 41
1
 50
0
 71
0
 42
3.5
  3
txt
  4

  0
STYLE
  2
SIMPLEX
 70
0
 40
0
 41
1
 50
0
 71
0
 42
3.5
  3
simplex
  4

  0
STYLE
  2
COMPLEX
 70
0
 40
0
 41
1
 50
0
 71
0
 42
3.5
  3
complex
  4

  0
STYLE
  2
ITALIC
 70
0
 40
0
 41
1
 50
0
 71
0
 42
3.5
  3
italic
  4

  0
ENDTAB
  0
TABLE
  2
VIEW
 70
0
  0
ENDTAB
  0
ENDSEC
  0
SECTION
  2
BLOCKS
  0
ENDSEC
  0
SECTION
  2
ENTITIES
  0
POINT
  8
1
 62
7
  6
CENTER
 10
0
 20
0
 30
0
  0
LINE
  8
1
 62
7
 10
-2.501110429875553e-12
 20
-41.49999999999073
 30
0
 11
-2.501110429875553e-12
 21
6.500000000008981
 31
0
  0
LINE
  8
1
 62
7
 10
10.14999999999748
 20
6.500000000008981
 30
0
 11
10.14999999999748
 21
-41.49999999999073
 31
0
  0
LINE
  8
1
 62
7
 10
2.700000000029888
 20
-20.95000000000016
 30
0
 11
3.200000000029888
 21
-21.45000000000022
 31
0
  0
LINE
  8
1
 62
7
 10
2.700000000029888
 20
-18.55000000000018
 30
0
 11
3.200000000029888
 21
-18.05000000000018
 31
0
  0
LINE
  8
1
 62
7
 10
2.700000000029888
 20
-16.45000000000027
 30
0
 11
3.200000000029888
 21
-16.95000000000027
 31
0
  0
LINE
  8
1
 62
7
 10
3.200000000029888
 20
-13.55000000000024
 30
0
 11
2.700000000029888
 21
-14.05000000000024
 31
0
  0
LINE
  8
1
 62
7
 10
7.800000000029911
 20
-20.95000000000016
 30
0
 11
7.300000000029911
 21
-21.45000000000022
 31
0
  0
LINE
  8
1
 62
7
 10
7.300000000029911
 20
-18.05000000000018
 30
0
 11
7.800000000029911
 21
-18.55000000000018
 31
0
  0
LINE
  8
1
 62
7
 10
7.800000000029911
 20
-16.45000000000027
 30
0
 11
7.300000000029911
 21
-16.95000000000027
 31
0
  0
LINE
  8
1
 62
7
 10
7.300000000029911
 20
-13.55000000000024
 30
0
 11
7.800000000029911
 21
-14.05000000000024
 31
0
  0
LINE
  8
0
 62
7
 10
-2.501110429875553e-12
 20
-21.96030737921433
 30
0
 11
10.14999999999748
 21
-21.96030737921433
 31
0
  0
LINE
  8
0
 62
7
 10
10.14999999999748
 20
-13.03969262078613
 30
0
 11
-2.501110429875553e-12
 21
-13.03969262078613
 31
0
  0
LINE
  8
0
 62
7
 10
10.14999999999748
 20
-38.16985614029409
 30
0
 11
-2.387423592153937e-12
 21
-38.16985614029409
 31
0
  0
LINE
  8
0
 62
7
 10
10.14999999999748
 20
-37.09987752008016
 30
0
 11
-2.387423592153937e-12
 21
-37.09987752007987
 31
0
  0
LINE
  8
0
 62
7
 10
1.13686837721616e-13
 20
-0.02980204575590051
 30
0
 11
0
 21
0
 31
0
  0
LINE
  8
0
 62
7
 10
-2.501110429875553e-12
 20
-41.49999999999073
 30
0
 11
10.14999999999748
 21
-41.49999999999073
 31
0
  0
LINE
  8
0
 62
7
 10
10.14999999999748
 20
-2.787518491205844
 30
0
 11
-2.387423592153937e-12
 21
-2.787518491204366
 31
0
  0
LINE
  8
0
 62
7
 10
10.14999999999748
 20
-30.39289321881336
 30
0
 11
-2.501110429875553e-12
 21
-30.39289321881336
 31
0
  0
LINE
  8
0
 62
7
 10
10.14999999999748
 20
-4.607106781187099
 30
0
 11
-2.501110429875553e-12
 21
-4.607106781185678
 31
0
  0
LINE
  8
0
 62
7
 10
-2.501110429875553e-12
 20
-12.41974254128831
 30
0
 11
10.14999999999748
 21
-12.41974254128831
 31
0
  0
LINE
  8
0
 62
7
 10
-2.501110429875553e-12
 20
-22.58025745871214
 30
0
 11
10.14999999999748
 21
-22.58025745871214
 31
0
  0
LINE
  8
0
 62
7
 10
10.14999999999748
 20
4.007106781186621
 30
0
 11
6.821210263296962e-13
 21
4.007106781188099
 31
0
  0
LINE
  8
0
 62
7
 10
10.14999999999748
 20
-39.00710678118708
 30
0
 11
-2.501110429875553e-12
 21
-39.00710678118708
 31
0
  0
LINE
  8
0
 62
7
 10
10.14999999999748
 20
-35.69999133448346
 30
0
 11
-2.501110429875553e-12
 21
-35.69999133448346
 31
0
  0
LINE
  8
0
 62
7
 10
10.14999999999748
 20
-32.21248150879461
 30
0
 11
-2.501110429875553e-12
 21
-32.21248150879461
 31
0
  0
LINE
  8
0
 62
7
 10
10.14999999999748
 20
3.169856140293632
 30
0
 11
-2.501110429875553e-12
 21
3.169856140293291
 31
0
  0
LINE
  8
0
 62
7
 10
10.14999999999748
 20
0.699991334483002
 30
0
 11
-2.614797267597169e-12
 21
0.6999913344844799
 31
0
  0
LINE
  8
0
 62
7
 10
10.14999999999742
 20
2.099877520079417
 30
0
 11
-2.614797267597169e-12
 21
2.099877520081236
 31
0
  0
LINE
  8
0
 62
7
 10
-2.501110429875553e-12
 20
6.500000000008981
 30
0
 11
10.14999999999748
 21
6.500000000008981
 31
0
  0
LINE
  8
0
 62
7
 10
7.800000000029911
 20
-14.05000000000024
 30
0
 11
7.800000000029911
 21
-16.45000000000027
 31
0
  0
LINE
  8
0
 62
7
 10
2.700000000029888
 20
-16.45000000000027
 30
0
 11
2.700000000029888
 21
-14.05000000000024
 31
0
  0
LINE
  8
0
 62
7
 10
2.700000000029888
 20
-18.55000000000018
 30
0
 11
2.700000000029888
 21
-20.95000000000016
 31
0
  0
LINE
  8
0
 62
7
 10
7.300000000029911
 20
-16.95000000000027
 30
0
 11
3.200000000029888
 21
-16.95000000000027
 31
0
  0
LINE
  8
0
 62
7
 10
3.200000000029888
 20
-13.55000000000024
 30
0
 11
7.300000000029911
 21
-13.55000000000024
 31
0
  0
LINE
  8
0
 62
7
 10
3.200000000029888
 20
-21.45000000000022
 30
0
 11
7.300000000029911
 21
-21.45000000000022
 31
0
  0
LINE
  8
0
 62
7
 10
7.300000000029911
 20
-18.05000000000018
 30
0
 11
3.200000000029888
 21
-18.05000000000018
 31
0
  0
LINE
  8
0
 62
7
 10
7.800000000029911
 20
-20.95000000000016
 30
0
 11
7.800000000029911
 21
-18.55000000000018
 31
0
  0
LINE
  8
0
 62
7
 10
7.440452043462585
 20
-28.59326950273601
 30
0
 11
4.281730497282069
 21
-25.43454795655543
 31
0
  0
LINE
  8
0
 62
7
 10
5.059547956587267
 20
-24.65673049725024
 30
0
 11
8.218269502767782
 21
-27.81545204343087
 31
0
  0
LINE
  8
0
 62
7
 10
4.201934858191009
 20
-25.35475231746432
 30
0
 11
4.281730497282069
 21
-25.43454795655543
 31
0
  0
LINE
  8
0
 62
7
 10
5.059547956587267
 20
-24.65673049725024
 30
0
 11
4.979752317494274
 21
-24.57693485815724
 31
0
  0
LINE
  8
0
 62
7
 10
7.440452043462585
 20
-28.59326950273601
 30
0
 11
7.520247682537217
 21
-28.67306514181058
 31
0
  0
LINE
  8
0
 62
7
 10
8.298065141844177
 20
-27.8952476825072
 30
0
 11
8.218269502767782
 21
-27.81545204343087
 31
0
  0
LINE
  8
0
 62
7
 10
4.20193485817822
 20
-7.104752317451641
 30
0
 11
4.281730497282069
 21
-7.184547956555434
 31
0
  0
LINE
  8
0
 62
7
 10
5.05954795658721
 20
-6.406730497250237
 30
0
 11
4.979752317490181
 21
-6.326934858153209
 31
0
  0
LINE
  8
0
 62
7
 10
5.05954795658721
 20
-6.406730497250237
 30
0
 11
8.218269502767782
 21
-9.56545204343081
 31
0
  0
LINE
  8
0
 62
7
 10
7.440452043462585
 20
-10.34326950273601
 30
0
 11
4.281730497282069
 21
-7.184547956555434
 31
0
  0
LINE
  8
0
 62
7
 10
7.440452043462585
 20
-10.34326950273601
 30
0
 11
7.520247682589286
 21
-10.42306514186265
 31
0
  0
LINE
  8
0
 62
7
 10
8.298065141887719
 20
-9.645247682550689
 30
0
 11
8.218269502767782
 21
-9.56545204343081
 31
0
  0
CIRCLE
  8
0
 62
7
 10
6.250000000020577
 20
-26.62499999999886
 30
0
 40
2.410000000006221
  0
CIRCLE
  8
0
 62
7
 10
6.250000000021885
 20
-8.375000000018986
 30
0
 40
2.410000000062833
  0
ENDSEC
  0
EOF
