  0
SECTION
  2
HEADER
  9
$ACADVER
  1
AC1009
  9
$INSBASE
 10
0
 20
0
  9
$EXTMIN
 10
-2.614797267597169e-12
 20
-41.47019795541536
  9
$EXTMAX
 10
8.149999999997533
 20
6.529802044585608
  9
$LIMMIN
 10
-2.614797267597169e-12
 20
-41.47019795541536
  9
$LIMMAX
 10
8.149999999997533
 20
6.529802044585608
  9
$VIEWCTR
 10
10
 20
10
  9
$VIEWSIZE
 40
10
  9
$SNAPMODE
 70
0
  9
$SNAPUNIT
 10
1
 20
1
  9
$SNAPBASE
 10
0
 20
0
  9
$SNAPANG
 50
0
  9
$SNAPSTYLE
 70
0
  9
$SNAPISOPAIR
 70
0
  9
$GRIDMODE
 70
0
  9
$GRIDUNIT
 10
0
 20
0
  9
$ORTHOMODE
 70
0
  9
$REGENMODE
 70
1
  9
$FILLMODE
 70
1
  9
$QTEXTMODE
 70
0
  9
$DRAGMODE
 70
2
  9
$LTSCALE
 40
1
  9
$OSMODE
 70
0
  9
$ATTMODE
 70
1
  9
$TEXTSIZE
 40
3.5
  9
$TRACEWID
 40
0.5
  9
$TEXTSTYLE
  7
STANDARD
  9
$CLAYER
  8
0
  9
$CELTYPE
  6
BYLAYER
  9
$CECOLOR
 62
256
  9
$DIMSCALE
 40
1
  9
$DIMASZ
 40
0.18
  9
$DIMEXO
 40
0.0625
  9
$DIMDLI
 40
0.38
  9
$DIMRND
 40
0
  9
$DIMDLE
 40
0
  9
$DIMEXE
 40
0.18
  9
$DIMTP
 40
0
  9
$DIMTM
 40
0
  9
$DIMTXT
 40
0.18
  9
$DIMCEN
 40
0.09
  9
$DIMTSZ
 40
0
  9
$DIMTOL
 70
0
  9
$DIMLIM
 70
0
  9
$DIMTIH
 70
1
  9
$DIMTOH
 70
1
  9
$DIMSE1
 70
0
  9
$DIMSE2
 70
0
  9
$DIMTAD
 70
0
  9
$DIMZIN
 70
0
  9
$DIMBLK
  1

  9
$DIMASO
 70
1
  9
$DIMSHO
 70
1
  9
$DIMPOST
  1

  9
$DIMAPOST
  1

  9
$DIMALT
 70
0
  9
$DIMALTD
 70
2
  9
$DIMALTF
 40
25.4
  9
$DIMLFAC
 40
1
  9
$DIMTOFL
 70
0
  9
$DIMTVP
 40
0
  9
$DIMTIX
 70
0
  9
$DIMSOXD
 70
0
  9
$DIMSAH
 70
0
  9
$DIMBLK1
  1

  9
$DIMBLK2
  1

  9
$DIMSTYLE
  2
*UNNAMED
  9
$DIMCLRD
 70
0
  9
$DIMCLRE
 70
0
  9
$DIMCLRT
 70
0
  9
$DIMTFAC
 40
1
  9
$DIMGAP
 40
0.09
  9
$LUNITS
 70
2
  9
$LUPREC
 70
4
  9
$AXISMODE
 70
0
  9
$AXISUNIT
 10
0
 20
0
  9
$SKETCHINC
 40
0.1
  9
$FILLETRAD
 40
2
  9
$AUNITS
 70
0
  9
$AUPREC
 70
0
  9
$MENU
  1
ACAD
  9
$ELEVATION
 40
0
  9
$THICKNESS
 40
0
  9
$VIEWDIR
 10
0
 20
0
 30
1
  9
$LIMCHECK
 70
0
  9
$BLIPMODE
 70
1
  9
$CHAMFERA
 40
0
  9
$CHAMFERB
 40
0
  9
$FASTZOOM
 70
1
  9
$SKPOLY
 70
0
  9
$ANGBASE
 50
0
  9
$ANGDIR
 70
0
  9
$PDMODE
 70
0
  9
$PDSIZE
 40
0
  9
$PLINEWID
 40
0
  9
$COORDS
 70
2
  0
ENDSEC
  0
SECTION
  2
TABLES
  0
TABLE
  2
DIMSTYLE
 70
0
  0
ENDTAB
  0
TABLE
  2
LTYPE
 70
9
  0
LTYPE
  2
CONTINUOUS
 70
64
  3
Solid line
 72
65
 73
0
 40
0
  0
LTYPE
  2
BORDER
 70
64
  3
__ __ . __ __ .
 72
65
 73
6
 40
2.210526315789518
 49
0.6315789473684338
 49
-0.3157894736842169
 49
0.6315789473684338
 49
-0.3157894736842169
 49
0
 49
-0.3157894736842169
  0
LTYPE
  2
CENTER
 70
64
  3
____ _ ____ _
 72
65
 73
4
 40
2.526315789473735
 49
1.578947368421084
 49
-0.3157894736842169
 49
0.3157894736842169
 49
-0.3157894736842169
  0
LTYPE
  2
DASHDOT
 70
64
  3
__ . __ . __ .
 72
65
 73
4
 40
1.263157894736868
 49
0.6315789473684338
 49
-0.3157894736842169
 49
0
 49
-0.3157894736842169
  0
LTYPE
  2
DASHED
 70
64
  3
__ __ __ __ __
 72
65
 73
2
 40
0.9473684210526507
 49
0.6315789473684338
 49
-0.3157894736842169
  0
LTYPE
  2
DIVIDE
 70
64
  3
__ . . __ . . 
 72
65
 73
6
 40
1.578947368421084
 49
0.6315789473684338
 49
-0.3157894736842169
 49
0
 49
-0.3157894736842169
 49
0
 49
-0.3157894736842169
  0
LTYPE
  2
DOT
 70
64
  3
..............
 72
65
 73
4
 40
0.6315789473684338
 49
0
 49
-0.3157894736842169
 49
0
 49
-0.3157894736842169
  0
LTYPE
  2
HIDDEN
 70
64
  3
_ _ _ _ _ _ _
 72
65
 73
2
 40
0.4736842105263254
 49
0.3157894736842169
 49
-0.1578947368421084
  0
LTYPE
  2
PHANTOM
 70
64
  3
_____ _ _ _____ _ _ 
 72
65
 73
6
 40
3.157894736842169
 49
1.578947368421084
 49
-0.3157894736842169
 49
0.3157894736842169
 49
-0.3157894736842169
 49
0.3157894736842169
 49
-0.3157894736842169
  0
ENDTAB
  0
TABLE
  2
LAYER
 70
3
  0
LAYER
  2
1
 70
0
 62
7
  6
CONTINUOUS
  0
LAYER
  2
0
 70
0
 62
7
  6
CONTINUOUS
  0
ENDTAB
  0
TABLE
  2
STYLE
 70
4
  0
STYLE
  2
STANDARD
 70
0
 40
0
 41
1
 50
0
 71
0
 42
3.5
  3
txt
  4

  0
STYLE
  2
SIMPLEX
 70
0
 40
0
 41
1
 50
0
 71
0
 42
3.5
  3
simplex
  4

  0
STYLE
  2
COMPLEX
 70
0
 40
0
 41
1
 50
0
 71
0
 42
3.5
  3
complex
  4

  0
STYLE
  2
ITALIC
 70
0
 40
0
 41
1
 50
0
 71
0
 42
3.5
  3
italic
  4

  0
ENDTAB
  0
TABLE
  2
VIEW
 70
0
  0
ENDTAB
  0
ENDSEC
  0
SECTION
  2
BLOCKS
  0
ENDSEC
  0
SECTION
  2
ENTITIES
  0
POINT
  8
1
 62
7
  6
CENTER
 10
-1.13686837721616e-13
 20
0.02980204457531954
 30
0
  0
LINE
  8
1
 62
7
 10
-2.614797267597169e-12
 20
-41.47019795541536
 30
0
 11
-2.614797267597169e-12
 21
6.529802044585608
 31
0
  0
LINE
  8
1
 62
7
 10
8.149999999969737
 20
6.529802044584358
 30
0
 11
8.149999999969737
 21
-41.47019795541536
 31
0
  0
LINE
  8
0
 62
7
 10
8.149999999969623
 20
0.7297933790583784
 30
0
 11
-2.614797267597169e-12
 21
0.7297933790595721
 31
0
  0
LINE
  8
0
 62
7
 10
0
 20
0
 30
0
 11
-1.13686837721616e-13
 21
0.02980204457531954
 31
0
  0
LINE
  8
0
 62
7
 10
8.149999999997533
 20
-23.02030172452174
 30
0
 11
-2.614797267597169e-12
 21
-23.02030172452174
 31
0
  0
LINE
  8
0
 62
7
 10
8.149999999969737
 20
3.199658184867133
 30
0
 11
-2.614797267597169e-12
 21
3.199658184868326
 31
0
  0
LINE
  8
0
 62
7
 10
8.149999999969737
 20
4.036908825761998
 30
0
 11
-2.614797267597169e-12
 21
4.036908825763192
 31
0
  0
LINE
  8
0
 62
7
 10
8.149999999997533
 20
-32.18267946421923
 30
0
 11
-2.614797267597169e-12
 21
-32.18267946421804
 31
0
  0
LINE
  8
0
 62
7
 10
8.149999999969737
 20
-30.36309117423792
 30
0
 11
-2.614797267597169e-12
 21
-30.36309117423679
 31
0
  0
LINE
  8
0
 62
7
 10
-2.614797267597169e-12
 20
6.529802044585608
 30
0
 11
8.149999999969737
 21
6.529802044584358
 31
0
  0
LINE
  8
0
 62
7
 10
-2.216893335571513e-12
 20
6.074444901726679
 30
0
 11
8.149999999994407
 21
6.074444901725428
 31
0
  0
LINE
  8
0
 62
7
 10
8.149999999969737
 20
-2.757716446630525
 30
0
 11
-2.614797267597169e-12
 21
-2.757716446629331
 31
0
  0
LINE
  8
0
 62
7
 10
-2.501110429875553e-12
 20
-4.577304736610699
 30
0
 11
8.149999999969737
 21
-4.577304736611836
 31
0
  0
LINE
  8
0
 62
7
 10
7.474999999998033
 20
-13.47019795541655
 30
0
 11
7.474999999997522
 21
-16.62019795542483
 31
0
  0
LINE
  8
0
 62
7
 10
8.149999999969737
 20
-11.92009418631204
 30
0
 11
-2.614797267597169e-12
 21
-11.92009418631204
 31
0
  0
LINE
  8
0
 62
7
 10
8.149999999969623
 20
-38.9773047366117
 30
0
 11
-2.614797267597169e-12
 21
-38.97730473661056
 31
0
  0
LINE
  8
0
 62
7
 10
-2.501110429875553e-12
 20
-35.67018928990689
 30
0
 11
8.149999999969737
 21
-35.67018928990808
 31
0
  0
LINE
  8
0
 62
7
 10
8.14999999999452
 20
-38.14005409571865
 30
0
 11
-2.614797267597169e-12
 21
-38.14005409571746
 31
0
  0
LINE
  8
0
 62
7
 10
8.149999999969737
 20
-37.07007547550478
 30
0
 11
-2.501110429875553e-12
 21
-37.07007547550359
 31
0
  0
LINE
  8
0
 62
7
 10
8.149999999969737
 20
2.129679564655476
 30
0
 11
-2.614797267597169e-12
 21
2.129679564656499
 31
0
  0
LINE
  8
0
 62
7
 10
-2.614797267597169e-12
 20
-41.47019795541536
 30
0
 11
8.149999999969737
 21
-41.47019795541536
 31
0
  0
LINE
  8
0
 62
7
 10
-2.614797267597169e-12
 20
-40.78735524293739
 30
0
 11
8.149999999969737
 21
-40.78735524294075
 31
0
  0
LINE
  8
0
 62
7
 10
7.474999999997522
 20
-16.62019795542483
 30
0
 11
5.474999999974898
 21
-16.62019795542483
 31
0
  0
LINE
  8
0
 62
7
 10
7.474999999996896
 20
-21.47019795541706
 30
0
 11
7.474999999997408
 21
-18.32019795542476
 31
0
  0
LINE
  8
0
 62
7
 10
-2.614797267597169e-12
 20
-21.47019795541598
 30
0
 11
8.149999999969737
 21
-21.47019795541718
 31
0
  0
LINE
  8
0
 62
7
 10
2.824999999974921
 20
-18.32019795542476
 30
0
 11
2.824999999974125
 21
-17.77019795541611
 31
0
  0
LINE
  8
0
 62
7
 10
7.474999999997408
 20
-18.32019795542476
 30
0
 11
5.324999999982936
 21
-18.32019795542476
 31
0
  0
LINE
  8
0
 62
7
 10
2.824999999974921
 20
-18.32019795542476
 30
0
 11
0.7500000016395916
 21
-18.32019795542476
 31
0
  0
LINE
  8
0
 62
7
 10
5.324999999974125
 20
-17.77019795541611
 30
0
 11
2.824999999974125
 21
-17.77019795541611
 31
0
  0
LINE
  8
0
 62
7
 10
5.324999999982936
 20
-18.32019795542476
 30
0
 11
5.324999999974125
 21
-17.77019795541611
 31
0
  0
LINE
  8
0
 62
7
 10
5.474999999931299
 20
-17.1701979554166
 30
0
 11
2.674999999974091
 21
-17.1701979554166
 31
0
  0
LINE
  8
0
 62
7
 10
5.474999999931299
 20
-17.1701979554166
 30
0
 11
5.474999999974898
 21
-16.62019795542483
 31
0
  0
LINE
  8
0
 62
7
 10
-2.614797267597169e-12
 20
-13.47019795541661
 30
0
 11
8.149999999969737
 21
-13.47019795541661
 31
0
  0
LINE
  8
0
 62
7
 10
2.674999999974887
 20
-16.62019795542483
 30
0
 11
0.7500000016395916
 21
-16.62019795542483
 31
0
  0
LINE
  8
0
 62
7
 10
0.7500000016395916
 20
-13.47019795541661
 30
0
 11
0.7500000016395916
 21
-16.62019795542483
 31
0
  0
LINE
  8
0
 62
7
 10
2.674999999974091
 20
-17.1701979554166
 30
0
 11
2.674999999974887
 21
-16.62019795542483
 31
0
  0
LINE
  8
0
 62
7
 10
0.7500000016395916
 20
-18.32019795542476
 30
0
 11
0.7500000016395916
 21
-21.47019795541598
 31
0
  0
LINE
  8
0
 62
7
 10
2.651934858176219
 20
-25.32495027292282
 30
0
 11
2.731730497226806
 21
-25.40474591197341
 31
0
  0
LINE
  8
0
 62
7
 10
3.509547956532003
 20
-24.62692845266821
 30
0
 11
3.429752317479597
 21
-24.5471328136158
 31
0
  0
LINE
  8
0
 62
7
 10
5.890452043407436
 20
-28.56346745815398
 30
0
 11
5.970247682454328
 21
-28.64326309720099
 31
0
  0
LINE
  8
0
 62
7
 10
3.509547956532003
 20
-24.62692845266821
 30
0
 11
6.668269502712633
 21
-27.78564999884884
 31
0
  0
LINE
  8
0
 62
7
 10
5.890452043407436
 20
-28.56346745815398
 30
0
 11
2.731730497226806
 21
-25.40474591197341
 31
0
  0
LINE
  8
0
 62
7
 10
6.748065141761288
 20
-27.86544563789755
 30
0
 11
6.668269502712633
 21
-27.78564999884884
 31
0
  0
LINE
  8
0
 62
7
 10
3.509547956534334
 20
-6.37692845266821
 30
0
 11
6.668269502714907
 21
-9.535649998848839
 31
0
  0
LINE
  8
0
 62
7
 10
5.890452043409596
 20
-10.31346745815404
 30
0
 11
2.731730497229137
 21
-7.154745911973464
 31
0
  0
LINE
  8
0
 62
7
 10
3.509547956534334
 20
-6.37692845266821
 30
0
 11
3.42975231753303
 21
-6.297132813666906
 31
0
  0
LINE
  8
0
 62
7
 10
5.890452043409596
 20
-10.31346745815404
 30
0
 11
5.970247682451486
 21
-10.39326309719587
 31
0
  0
LINE
  8
0
 62
7
 10
2.651934858219988
 20
-7.074950272964315
 30
0
 11
2.731730497229137
 21
-7.154745911973464
 31
0
  0
LINE
  8
0
 62
7
 10
6.748065141748896
 20
-9.615445637882885
 30
0
 11
6.668269502714907
 21
-9.535649998848839
 31
0
  0
CIRCLE
  8
0
 62
7
 10
4.699999999971737
 20
-26.59519795540547
 30
0
 40
2.409999999977288
  0
CIRCLE
  8
0
 62
7
 10
4.699999999971737
 20
-8.345197955423885
 30
0
 40
2.409999999919402
  0
ENDSEC
  0
EOF
