  0
SECTION
  2
HEADER
  9
$ACADVER
  1
AC1009
  9
$INSBASE
 10
0
 20
0
  9
$EXTMIN
 10
0
 20
-41.4931412163464
  9
$EXTMAX
 10
6.15000000000009
 20
16.3068587836526
  9
$LIMMIN
 10
0
 20
-41.4931412163464
  9
$LIMMAX
 10
6.15000000000009
 20
16.3068587836526
  9
$VIEWCTR
 10
10
 20
10
  9
$VIEWSIZE
 40
10
  9
$SNAPMODE
 70
0
  9
$SNAPUNIT
 10
1
 20
1
  9
$SNAPBASE
 10
0
 20
0
  9
$SNAPANG
 50
0
  9
$SNAPSTYLE
 70
0
  9
$SNAPISOPAIR
 70
0
  9
$GRIDMODE
 70
0
  9
$GRIDUNIT
 10
0
 20
0
  9
$ORTHOMODE
 70
0
  9
$REGENMODE
 70
1
  9
$FILLMODE
 70
1
  9
$QTEXTMODE
 70
0
  9
$DRAGMODE
 70
2
  9
$LTSCALE
 40
1
  9
$OSMODE
 70
0
  9
$ATTMODE
 70
1
  9
$TEXTSIZE
 40
3.5
  9
$TRACEWID
 40
0.5
  9
$TEXTSTYLE
  7
STANDARD
  9
$CLAYER
  8
0
  9
$CELTYPE
  6
BYLAYER
  9
$CECOLOR
 62
256
  9
$DIMSCALE
 40
1
  9
$DIMASZ
 40
0.18
  9
$DIMEXO
 40
0.0625
  9
$DIMDLI
 40
0.38
  9
$DIMRND
 40
0
  9
$DIMDLE
 40
0
  9
$DIMEXE
 40
0.18
  9
$DIMTP
 40
0
  9
$DIMTM
 40
0
  9
$DIMTXT
 40
0.18
  9
$DIMCEN
 40
0.09
  9
$DIMTSZ
 40
0
  9
$DIMTOL
 70
0
  9
$DIMLIM
 70
0
  9
$DIMTIH
 70
1
  9
$DIMTOH
 70
1
  9
$DIMSE1
 70
0
  9
$DIMSE2
 70
0
  9
$DIMTAD
 70
0
  9
$DIMZIN
 70
0
  9
$DIMBLK
  1

  9
$DIMASO
 70
1
  9
$DIMSHO
 70
1
  9
$DIMPOST
  1

  9
$DIMAPOST
  1

  9
$DIMALT
 70
0
  9
$DIMALTD
 70
2
  9
$DIMALTF
 40
25.4
  9
$DIMLFAC
 40
1
  9
$DIMTOFL
 70
0
  9
$DIMTVP
 40
0
  9
$DIMTIX
 70
0
  9
$DIMSOXD
 70
0
  9
$DIMSAH
 70
0
  9
$DIMBLK1
  1

  9
$DIMBLK2
  1

  9
$DIMSTYLE
  2
*UNNAMED
  9
$DIMCLRD
 70
0
  9
$DIMCLRE
 70
0
  9
$DIMCLRT
 70
0
  9
$DIMTFAC
 40
1
  9
$DIMGAP
 40
0.09
  9
$LUNITS
 70
2
  9
$LUPREC
 70
4
  9
$AXISMODE
 70
0
  9
$AXISUNIT
 10
0
 20
0
  9
$SKETCHINC
 40
0.1
  9
$FILLETRAD
 40
2
  9
$AUNITS
 70
0
  9
$AUPREC
 70
0
  9
$MENU
  1
ACAD
  9
$ELEVATION
 40
0
  9
$THICKNESS
 40
0
  9
$VIEWDIR
 10
0
 20
0
 30
1
  9
$LIMCHECK
 70
0
  9
$BLIPMODE
 70
1
  9
$CHAMFERA
 40
0
  9
$CHAMFERB
 40
0
  9
$FASTZOOM
 70
1
  9
$SKPOLY
 70
0
  9
$ANGBASE
 50
0
  9
$ANGDIR
 70
0
  9
$PDMODE
 70
0
  9
$PDSIZE
 40
0
  9
$PLINEWID
 40
0
  9
$COORDS
 70
2
  0
ENDSEC
  0
SECTION
  2
TABLES
  0
TABLE
  2
DIMSTYLE
 70
0
  0
ENDTAB
  0
TABLE
  2
LTYPE
 70
9
  0
LTYPE
  2
CONTINUOUS
 70
64
  3
Solid line
 72
65
 73
0
 40
0
  0
LTYPE
  2
BORDER
 70
64
  3
__ __ . __ __ .
 72
65
 73
6
 40
2.661842105263112
 49
0.7605263157894605
 49
-0.3802631578947303
 49
0.7605263157894605
 49
-0.3802631578947303
 49
0
 49
-0.3802631578947303
  0
LTYPE
  2
CENTER
 70
64
  3
____ _ ____ _
 72
65
 73
4
 40
3.042105263157842
 49
1.901315789473651
 49
-0.3802631578947303
 49
0.3802631578947303
 49
-0.3802631578947303
  0
LTYPE
  2
DASHDOT
 70
64
  3
__ . __ . __ .
 72
65
 73
4
 40
1.521052631578921
 49
0.7605263157894605
 49
-0.3802631578947303
 49
0
 49
-0.3802631578947303
  0
LTYPE
  2
DASHED
 70
64
  3
__ __ __ __ __
 72
65
 73
2
 40
1.140789473684191
 49
0.7605263157894605
 49
-0.3802631578947303
  0
LTYPE
  2
DIVIDE
 70
64
  3
__ . . __ . . 
 72
65
 73
6
 40
1.901315789473651
 49
0.7605263157894605
 49
-0.3802631578947303
 49
0
 49
-0.3802631578947303
 49
0
 49
-0.3802631578947303
  0
LTYPE
  2
DOT
 70
64
  3
..............
 72
65
 73
4
 40
0.7605263157894605
 49
0
 49
-0.3802631578947303
 49
0
 49
-0.3802631578947303
  0
LTYPE
  2
HIDDEN
 70
64
  3
_ _ _ _ _ _ _
 72
65
 73
2
 40
0.5703947368420954
 49
0.3802631578947303
 49
-0.1901315789473651
  0
LTYPE
  2
PHANTOM
 70
64
  3
_____ _ _ _____ _ _ 
 72
65
 73
6
 40
3.802631578947302
 49
1.901315789473651
 49
-0.3802631578947303
 49
0.3802631578947303
 49
-0.3802631578947303
 49
0.3802631578947303
 49
-0.3802631578947303
  0
ENDTAB
  0
TABLE
  2
LAYER
 70
3
  0
LAYER
  2
0
 70
0
 62
7
  6
CONTINUOUS
  0
LAYER
  2
1
 70
0
 62
7
  6
CONTINUOUS
  0
ENDTAB
  0
TABLE
  2
STYLE
 70
4
  0
STYLE
  2
STANDARD
 70
0
 40
0
 41
1
 50
0
 71
0
 42
3.5
  3
txt
  4

  0
STYLE
  2
SIMPLEX
 70
0
 40
0
 41
1
 50
0
 71
0
 42
3.5
  3
simplex
  4

  0
STYLE
  2
COMPLEX
 70
0
 40
0
 41
1
 50
0
 71
0
 42
3.5
  3
complex
  4

  0
STYLE
  2
ITALIC
 70
0
 40
0
 41
1
 50
0
 71
0
 42
3.5
  3
italic
  4

  0
ENDTAB
  0
TABLE
  2
VIEW
 70
0
  0
ENDTAB
  0
ENDSEC
  0
SECTION
  2
BLOCKS
  0
ENDSEC
  0
SECTION
  2
ENTITIES
  0
POINT
  8
1
 62
7
  6
DOT
 10
0
 20
0
 30
0
  0
LINE
  8
1
 62
7
 10
2.165718611190233
 20
-25.40754046614426
 30
0
 11
5.245953826242657
 21
-27.3291473759954
 31
0
  0
LINE
  8
1
 62
7
 10
1.795210318751738
 20
-26.00144585022014
 30
0
 11
4.875445533804164
 21
-27.92305276007127
 31
0
  0
LINE
  8
1
 62
7
 10
2.228306536699962
 20
5.312118068035887
 30
0
 11
5.211025662491158
 21
3.24006891587524
 31
0
  0
LINE
  8
1
 62
7
 10
1.82893631635192
 20
4.737223793321696
 30
0
 11
4.811655442143117
 21
2.66517464116105
 31
0
  0
LINE
  8
0
 62
7
 10
6.15000000000009
 20
-39.0002479975337
 30
0
 11
0
 21
-39.0002479975337
 31
0
  0
LINE
  8
0
 62
7
 10
6.14999999999998
 20
-38.162997356637
 30
0
 11
0
 21
-38.1629973566374
 31
0
  0
LINE
  8
0
 62
7
 10
6.14999999999998
 20
-37.0930187364245
 30
0
 11
0
 21
-37.0930187364247
 31
0
  0
LINE
  8
0
 62
7
 10
0
 20
-4.51814121636545
 30
0
 11
6.14999999999998
 21
-4.51814121636545
 31
0
  0
LINE
  8
0
 62
7
 10
6.14999999999998
 20
-9.96814121636436
 30
0
 11
0
 21
-9.96814121636436
 31
0
  0
LINE
  8
0
 62
7
 10
6.15000000000009
 20
13.9767149239432
 30
0
 11
0
 21
13.9767149239432
 31
0
  0
LINE
  8
0
 62
7
 10
0
 20
-41.4931412163464
 30
0
 11
6.14999999999998
 21
-41.4931412163464
 31
0
  0
LINE
  8
0
 62
7
 10
0
 20
-22.573398675059
 30
0
 11
6.15000000000009
 21
-22.573398675059
 31
0
  0
LINE
  8
0
 62
7
 10
6.14999999999998
 20
12.9067363037313
 30
0
 11
0
 21
12.9067363037305
 31
0
  0
LINE
  8
0
 62
7
 10
0
 20
-32.4985159439539
 30
0
 11
6.14999999999998
 21
-32.4985159439539
 31
0
  0
LINE
  8
0
 62
7
 10
6.15000000000009
 20
14.8139655648395
 30
0
 11
0
 21
14.8139655648395
 31
0
  0
LINE
  8
0
 62
7
 10
0
 20
16.3068587836526
 30
0
 11
6.14999999999998
 21
16.3068587836526
 31
0
  0
LINE
  8
0
 62
7
 10
0.649999999999977
 20
-17.3431412163666
 30
0
 11
5.5
 21
-17.3431412163666
 31
0
  0
LINE
  8
1
 62
7
 10
0
 20
-21.4931412163469
 30
0
 11
6.14999999999998
 21
-21.4931412163469
 31
0
  0
LINE
  8
0
 62
7
 10
0.649999999999977
 20
-17.6431412163275
 30
0
 11
0.649999999999977
 21
-21.4931412163469
 31
0
  0
LINE
  8
0
 62
7
 10
5.5
 20
-17.6431412163275
 30
0
 11
5.5
 21
-21.4931412163469
 31
0
  0
LINE
  8
0
 62
7
 10
5.5
 20
-13.4931412163472
 30
0
 11
5.5
 21
-17.3431412163666
 31
0
  0
LINE
  8
0
 62
7
 10
0
 20
-13.4931412163472
 30
0
 11
6.14999999999998
 21
-13.4931412163472
 31
0
  0
LINE
  8
0
 62
7
 10
0.649999999999977
 20
-13.4931412163472
 30
0
 11
0.649999999999977
 21
-17.3431412163666
 31
0
  0
LINE
  8
0
 62
7
 10
0
 20
8.312233511259709
 30
0
 11
6.14999999999998
 21
8.312233511259709
 31
0
  0
LINE
  8
0
 62
7
 10
0.649999999999977
 20
-17.6431412163275
 30
0
 11
5.5
 21
-17.6431412163275
 31
0
  0
LINE
  8
1
 62
7
 10
6.14999999999998
 20
16.3068587836526
 30
0
 11
6.14999999999998
 21
-41.4931412163464
 31
0
  0
LINE
  8
1
 62
7
 10
1.62818619529696
 20
-14.4774600941395
 30
0
 11
4.72818619529696
 21
-14.4774600941395
 31
0
  0
LINE
  8
1
 62
7
 10
4.72818619529696
 20
-14.4774600941395
 30
0
 11
4.72818619529696
 21
-16.2774600941395
 31
0
  0
LINE
  8
1
 62
7
 10
4.72818619529696
 20
-16.2774600941395
 30
0
 11
1.62818619529696
 21
-16.2774600941395
 31
0
  0
LINE
  8
1
 62
7
 10
1.62818619529696
 20
-16.2774600941395
 30
0
 11
1.62818619529696
 21
-14.4774600941395
 31
0
  0
LINE
  8
1
 62
7
 10
1.72976794216396
 20
-18.7100328802675
 30
0
 11
4.72976794216396
 21
-18.7100328802675
 31
0
  0
LINE
  8
1
 62
7
 10
4.72976794216396
 20
-18.7100328802675
 30
0
 11
4.72976794216396
 21
-20.3100328802676
 31
0
  0
LINE
  8
1
 62
7
 10
4.72976794216396
 20
-20.3100328802676
 30
0
 11
1.72976794216396
 21
-20.3100328802676
 31
0
  0
LINE
  8
1
 62
7
 10
1.72976794216396
 20
-20.3100328802676
 30
0
 11
1.72976794216396
 21
-18.7100328802675
 31
0
  0
LINE
  8
1
 62
7
 10
0
 20
16.3068587836526
 30
0
 11
0
 21
-41.4931412163464
 31
0
  0
ARC
  8
0
 62
7
 10
3.54999999999995
 20
-26.6181412163493
 30
0
 40
1.860000000005479
 50
160.6367150258028
 51
315.4472727598571
  0
ARC
  8
0
 62
7
 10
3.54999999999995
 20
-26.6181412163493
 30
0
 40
1.86000000000548
 50
315.4472727598571
 51
160.6367150258028
  0
ARC
  8
0
 62
7
 10
3.54999999999995
 20
4.03185878365508
 30
0
 40
1.86000000000917
 50
157.7140976497665
 51
312.7116726780612
  0
ARC
  8
0
 62
7
 10
3.54999999999995
 20
4.03185878365508
 30
0
 40
1.86000000000917
 50
312.7116726780612
 51
157.7140976497665
  0
ENDSEC
  0
EOF
