  0
SECTION
  2
HEADER
  9
$ACADVER
  1
AC1009
  9
$INSBASE
 10
0
 20
0
  9
$EXTMIN
 10
-3.353761712787673e-12
 20
-41.47019795542093
  9
$EXTMAX
 10
6.150000000000034
 20
6.529802044578616
  9
$LIMMIN
 10
-3.353761712787673e-12
 20
-41.47019795542093
  9
$LIMMAX
 10
6.150000000000034
 20
6.529802044578616
  9
$VIEWCTR
 10
10
 20
10
  9
$VIEWSIZE
 40
10
  9
$SNAPMODE
 70
0
  9
$SNAPUNIT
 10
1
 20
1
  9
$SNAPBASE
 10
0
 20
0
  9
$SNAPANG
 50
0
  9
$SNAPSTYLE
 70
0
  9
$SNAPISOPAIR
 70
0
  9
$GRIDMODE
 70
0
  9
$GRIDUNIT
 10
0
 20
0
  9
$ORTHOMODE
 70
0
  9
$REGENMODE
 70
1
  9
$FILLMODE
 70
1
  9
$QTEXTMODE
 70
0
  9
$DRAGMODE
 70
2
  9
$LTSCALE
 40
1
  9
$OSMODE
 70
0
  9
$ATTMODE
 70
1
  9
$TEXTSIZE
 40
3.5
  9
$TRACEWID
 40
0.5
  9
$TEXTSTYLE
  7
STANDARD
  9
$CLAYER
  8
0
  9
$CELTYPE
  6
BYLAYER
  9
$CECOLOR
 62
256
  9
$DIMSCALE
 40
1
  9
$DIMASZ
 40
0.18
  9
$DIMEXO
 40
0.0625
  9
$DIMDLI
 40
0.38
  9
$DIMRND
 40
0
  9
$DIMDLE
 40
0
  9
$DIMEXE
 40
0.18
  9
$DIMTP
 40
0
  9
$DIMTM
 40
0
  9
$DIMTXT
 40
0.18
  9
$DIMCEN
 40
0.09
  9
$DIMTSZ
 40
0
  9
$DIMTOL
 70
0
  9
$DIMLIM
 70
0
  9
$DIMTIH
 70
1
  9
$DIMTOH
 70
1
  9
$DIMSE1
 70
0
  9
$DIMSE2
 70
0
  9
$DIMTAD
 70
0
  9
$DIMZIN
 70
0
  9
$DIMBLK
  1

  9
$DIMASO
 70
1
  9
$DIMSHO
 70
1
  9
$DIMPOST
  1

  9
$DIMAPOST
  1

  9
$DIMALT
 70
0
  9
$DIMALTD
 70
2
  9
$DIMALTF
 40
25.4
  9
$DIMLFAC
 40
1
  9
$DIMTOFL
 70
0
  9
$DIMTVP
 40
0
  9
$DIMTIX
 70
0
  9
$DIMSOXD
 70
0
  9
$DIMSAH
 70
0
  9
$DIMBLK1
  1

  9
$DIMBLK2
  1

  9
$DIMSTYLE
  2
*UNNAMED
  9
$DIMCLRD
 70
0
  9
$DIMCLRE
 70
0
  9
$DIMCLRT
 70
0
  9
$DIMTFAC
 40
1
  9
$DIMGAP
 40
0.09
  9
$LUNITS
 70
2
  9
$LUPREC
 70
4
  9
$AXISMODE
 70
0
  9
$AXISUNIT
 10
0
 20
0
  9
$SKETCHINC
 40
0.1
  9
$FILLETRAD
 40
2
  9
$AUNITS
 70
0
  9
$AUPREC
 70
0
  9
$MENU
  1
ACAD
  9
$ELEVATION
 40
0
  9
$THICKNESS
 40
0
  9
$VIEWDIR
 10
0
 20
0
 30
1
  9
$LIMCHECK
 70
0
  9
$BLIPMODE
 70
1
  9
$CHAMFERA
 40
0
  9
$CHAMFERB
 40
0
  9
$FASTZOOM
 70
1
  9
$SKPOLY
 70
0
  9
$ANGBASE
 50
0
  9
$ANGDIR
 70
0
  9
$PDMODE
 70
0
  9
$PDSIZE
 40
0
  9
$PLINEWID
 40
0
  9
$COORDS
 70
2
  0
ENDSEC
  0
SECTION
  2
TABLES
  0
TABLE
  2
DIMSTYLE
 70
0
  0
ENDTAB
  0
TABLE
  2
LTYPE
 70
9
  0
LTYPE
  2
CONTINUOUS
 70
64
  3
Solid line
 72
65
 73
0
 40
0
  0
LTYPE
  2
BORDER
 70
64
  3
__ __ . __ __ .
 72
65
 73
6
 40
2.210526315789453
 49
0.631578947368415
 49
-0.3157894736842075
 49
0.631578947368415
 49
-0.3157894736842075
 49
0
 49
-0.3157894736842075
  0
LTYPE
  2
CENTER
 70
64
  3
____ _ ____ _
 72
65
 73
4
 40
2.52631578947366
 49
1.578947368421038
 49
-0.3157894736842075
 49
0.3157894736842075
 49
-0.3157894736842075
  0
LTYPE
  2
DASHDOT
 70
64
  3
__ . __ . __ .
 72
65
 73
4
 40
1.26315789473683
 49
0.631578947368415
 49
-0.3157894736842075
 49
0
 49
-0.3157894736842075
  0
LTYPE
  2
DASHED
 70
64
  3
__ __ __ __ __
 72
65
 73
2
 40
0.9473684210526225
 49
0.631578947368415
 49
-0.3157894736842075
  0
LTYPE
  2
DIVIDE
 70
64
  3
__ . . __ . . 
 72
65
 73
6
 40
1.578947368421038
 49
0.631578947368415
 49
-0.3157894736842075
 49
0
 49
-0.3157894736842075
 49
0
 49
-0.3157894736842075
  0
LTYPE
  2
DOT
 70
64
  3
..............
 72
65
 73
4
 40
0.631578947368415
 49
0
 49
-0.3157894736842075
 49
0
 49
-0.3157894736842075
  0
LTYPE
  2
HIDDEN
 70
64
  3
_ _ _ _ _ _ _
 72
65
 73
2
 40
0.4736842105263113
 49
0.3157894736842075
 49
-0.1578947368421038
  0
LTYPE
  2
PHANTOM
 70
64
  3
_____ _ _ _____ _ _ 
 72
65
 73
6
 40
3.157894736842075
 49
1.578947368421038
 49
-0.3157894736842075
 49
0.3157894736842075
 49
-0.3157894736842075
 49
0.3157894736842075
 49
-0.3157894736842075
  0
ENDTAB
  0
TABLE
  2
LAYER
 70
3
  0
LAYER
  2
1
 70
0
 62
7
  6
CONTINUOUS
  0
LAYER
  2
0
 70
0
 62
7
  6
CONTINUOUS
  0
ENDTAB
  0
TABLE
  2
STYLE
 70
4
  0
STYLE
  2
STANDARD
 70
0
 40
0
 41
1
 50
0
 71
0
 42
3.5
  3
txt
  4

  0
STYLE
  2
SIMPLEX
 70
0
 40
0
 41
1
 50
0
 71
0
 42
3.5
  3
simplex
  4

  0
STYLE
  2
COMPLEX
 70
0
 40
0
 41
1
 50
0
 71
0
 42
3.5
  3
complex
  4

  0
STYLE
  2
ITALIC
 70
0
 40
0
 41
1
 50
0
 71
0
 42
3.5
  3
italic
  4

  0
ENDTAB
  0
TABLE
  2
VIEW
 70
0
  0
ENDTAB
  0
ENDSEC
  0
SECTION
  2
BLOCKS
  0
ENDSEC
  0
SECTION
  2
ENTITIES
  0
POINT
  8
1
 62
7
  6
CENTER
 10
0
 20
0.0298014846889032
 30
0
  0
LINE
  8
0
 62
7
 10
0
 20
0.0298014846889032
 30
0
 11
0
 21
0
 31
0
  0
LINE
  8
1
 62
7
 10
0
 20
-41.47019795542093
 30
0
 11
0
 21
6.529802044578616
 31
0
  0
LINE
  8
1
 62
7
 10
6.150000000000034
 20
6.529802044578616
 30
0
 11
6.150000000000034
 21
-41.47019795542093
 31
0
  0
LINE
  8
0
 62
7
 10
0
 20
5.943595148026816
 30
0
 11
6.150000000000034
 21
5.943595148026873
 31
0
  0
LINE
  8
0
 62
7
 10
0.6500000000000341
 20
-13.47019795542229
 30
0
 11
0.6500000000000341
 21
-16.62019795544171
 31
0
  0
LINE
  8
0
 62
7
 10
0
 20
-41.47019795542093
 30
0
 11
6.150000000000034
 21
-41.47019795542093
 31
0
  0
LINE
  8
0
 62
7
 10
0
 20
-40.78735524294626
 30
0
 11
6.150000000000034
 21
-40.78735524294638
 31
0
  0
LINE
  8
0
 62
7
 10
6.150000000000034
 20
-37.07007547549978
 30
0
 11
-3.353761712787673e-12
 21
-37.07007547549978
 31
0
  0
LINE
  8
0
 62
7
 10
0
 20
-35.67018928990393
 30
0
 11
6.150000000000034
 21
-35.67018928990393
 31
0
  0
LINE
  8
0
 62
7
 10
0.6500000000000341
 20
-18.32019795540265
 30
0
 11
0.6500000000000341
 21
-21.47019795542207
 31
0
  0
LINE
  8
0
 62
7
 10
0.6500000000000341
 20
-18.32019795540265
 30
0
 11
5.5
 21
-18.32019795540265
 31
0
  0
LINE
  8
0
 62
7
 10
0
 20
-13.47019795542229
 30
0
 11
6.150000000000034
 21
-13.47019795542241
 31
0
  0
LINE
  8
0
 62
7
 10
0
 20
-32.4755726830291
 30
0
 11
6.150000000000034
 21
-32.4755726830291
 31
0
  0
LINE
  8
0
 62
7
 10
0
 20
-2.46482322781543
 30
0
 11
6.150000000000034
 21
-2.46482322781543
 31
0
  0
LINE
  8
0
 62
7
 10
6.150000000000034
 20
-4.577304736610756
 30
0
 11
-3.353761712787673e-12
 21
-4.577304736610756
 31
0
  0
LINE
  8
0
 62
7
 10
6.150000000000034
 20
-38.97730473660874
 30
0
 11
0
 21
-38.97730473660874
 31
0
  0
LINE
  8
0
 62
7
 10
0
 20
6.529802044578616
 30
0
 11
6.150000000000034
 21
6.529802044578616
 31
0
  0
LINE
  8
0
 62
7
 10
6.150000000000034
 20
-21.47019795542212
 30
0
 11
0
 21
-21.47019795542207
 31
0
  0
LINE
  8
0
 62
7
 10
0.6500000000000341
 20
-16.62019795544171
 30
0
 11
5.5
 21
-16.62019795544171
 31
0
  0
LINE
  8
0
 62
7
 10
5.5
 20
-13.47019795542229
 30
0
 11
5.5
 21
-16.62019795544171
 31
0
  0
LINE
  8
0
 62
7
 10
5.5
 20
-21.47019795542207
 30
0
 11
5.5
 21
-18.32019795540265
 31
0
  0
LINE
  8
0
 62
7
 10
0
 20
-11.92009418631756
 30
0
 11
6.150000000000034
 21
-11.9200941863175
 31
0
  0
LINE
  8
0
 62
7
 10
0
 20
-12.38994049671038
 30
0
 11
6.150000000000034
 21
-12.38994049671044
 31
0
  0
LINE
  8
0
 62
7
 10
0
 20
-23.0203017245272
 30
0
 11
6.150000000000034
 21
-23.0203017245272
 31
0
  0
LINE
  8
0
 62
7
 10
0
 20
-22.55045541413421
 30
0
 11
6.150000000000034
 21
-22.55045541413421
 31
0
  0
LINE
  8
0
 62
7
 10
0
 20
0.7297933790595721
 30
0
 11
6.150000000000034
 21
0.7297933790595721
 31
0
  0
LINE
  8
0
 62
7
 10
6.150000000000034
 20
2.129679564655476
 30
0
 11
-3.353761712787673e-12
 21
2.129679564655476
 31
0
  0
LINE
  8
0
 62
7
 10
6.150000000000034
 20
4.036908825764101
 30
0
 11
0
 21
4.036908825764442
 31
0
  0
LINE
  8
0
 62
7
 10
6.150000000000034
 20
3.199658184868156
 30
0
 11
0
 21
3.199658184868383
 31
0
  0
LINE
  8
0
 62
7
 10
6.150000000000034
 20
-30.36309117423394
 30
0
 11
0
 21
-30.36309117423394
 31
0
  0
LINE
  8
0
 62
7
 10
6.150000000000034
 20
-38.14005409571229
 30
0
 11
0
 21
-38.14005409571251
 31
0
  0
LINE
  8
0
 62
7
 10
1.745000004547023
 20
-16.24519795542324
 30
0
 11
1.745000004547023
 21
-13.84519795542309
 31
0
  0
LINE
  8
0
 62
7
 10
1.745000004547137
 20
-18.69519795542135
 30
0
 11
1.745000004547137
 21
-21.09519795542138
 31
0
  0
LINE
  8
0
 62
7
 10
4.445000004547012
 20
-18.69519795542135
 30
0
 11
4.445000004547012
 21
-21.09519795542138
 31
0
  0
LINE
  8
0
 62
7
 10
4.445000004547012
 20
-18.69519795542135
 30
0
 11
1.745000004547137
 21
-18.69519795542135
 31
0
  0
LINE
  8
0
 62
7
 10
4.445000004547012
 20
-16.24519795542324
 30
0
 11
4.445000004547012
 21
-13.84519795542309
 31
0
  0
LINE
  8
0
 62
7
 10
4.445000004547012
 20
-16.24519795542324
 30
0
 11
1.745000004547023
 21
-16.24519795542324
 31
0
  0
LINE
  8
0
 62
7
 10
1.745000004547023
 20
-13.84519795542309
 30
0
 11
4.445000004547012
 21
-13.84519795542309
 31
0
  0
LINE
  8
0
 62
7
 10
1.745000004547137
 20
-21.09519795542138
 30
0
 11
4.445000004547012
 21
-21.09519795542138
 31
0
  0
LINE
  8
0
 62
7
 10
5.089211028068405
 20
-9.389434236665181
 30
0
 11
5.009933591536537
 21
-9.31015680013212
 31
0
  0
LINE
  8
0
 62
7
 10
5.009933591536537
 20
-9.31015680013212
 30
0
 11
2.585041155291719
 21
-6.885264363887416
 31
0
  0
LINE
  8
0
 62
7
 10
4.514958844705802
 20
-9.805131546962741
 30
0
 11
4.594236281236704
 21
-9.884408983494552
 31
0
  0
LINE
  8
0
 62
7
 10
2.090066408461098
 20
-7.38023911071798
 30
0
 11
4.514958844705802
 21
-9.805131546962741
 31
0
  0
LINE
  8
0
 62
7
 10
2.010788971924228
 20
-7.300961674182076
 30
0
 11
2.090066408461098
 21
-7.38023911071798
 31
0
  0
LINE
  8
0
 62
7
 10
2.585041155291719
 20
-6.885264363887416
 30
0
 11
2.505763718753599
 21
-6.805986927350318
 31
0
  0
LINE
  8
0
 62
7
 10
2.010788971922807
 20
-25.55096167418071
 30
0
 11
2.090066408461098
 21
-25.63023911071804
 31
0
  0
LINE
  8
0
 62
7
 10
2.585041155291719
 20
-25.13526436388742
 30
0
 11
2.505763718753144
 21
-25.05598692734981
 31
0
  0
LINE
  8
0
 62
7
 10
2.090066408461098
 20
-25.63023911071804
 30
0
 11
4.514958844705802
 21
-28.0551315469628
 31
0
  0
LINE
  8
0
 62
7
 10
5.009933591536537
 20
-27.56015680013218
 30
0
 11
2.585041155291719
 21
-25.13526436388742
 31
0
  0
LINE
  8
0
 62
7
 10
5.08921102807335
 20
-27.63943423667007
 30
0
 11
5.009933591536537
 21
-27.56015680013218
 31
0
  0
LINE
  8
0
 62
7
 10
4.514958844705802
 20
-28.0551315469628
 30
0
 11
4.594236281242445
 21
-28.13440898350029
 31
0
  0
CIRCLE
  8
0
 62
7
 10
3.549999999998818
 20
-26.59519795542514
 30
0
 40
1.86000000000513
  0
CIRCLE
  8
0
 62
7
 10
3.549999999998818
 20
-8.345197955420019
 30
0
 40
1.860000000000014
  0
ENDSEC
  0
EOF
