  0
SECTION
  2
HEADER
  9
$ACADVER
  1
AC1015
  9
$ACADMAINTVER
 70
    20
  9
$DWGCODEPAGE
  3
ANSI_1252
  9
$INSBASE
 10
0.0
 20
0.0
 30
0.0
  9
$EXTMIN
 10
7.767447274835848
 20
1.385663401695078
 30
0.0
  9
$EXTMAX
 10
13.56280281560398
 20
10.74569436608715
 30
0.0
  9
$LIMMIN
 10
0.0
 20
0.0
  9
$LIMMAX
 10
12.0
 20
9.0
  9
$ORTHOMODE
 70
     0
  9
$REGENMODE
 70
     1
  9
$FILLMODE
 70
     1
  9
$QTEXTMODE
 70
     0
  9
$MIRRTEXT
 70
     1
  9
$LTSCALE
 40
1.0
  9
$ATTMODE
 70
     1
  9
$TEXTSIZE
 40
0.2
  9
$TRACEWID
 40
0.05
  9
$TEXTSTYLE
  7
STANDARD
  9
$CLAYER
  8
0
  9
$CELTYPE
  6
BYLAYER
  9
$CECOLOR
 62
   256
  9
$CELTSCALE
 40
1.0
  9
$DISPSILH
 70
     0
  9
$DIMSCALE
 40
1.0
  9
$DIMASZ
 40
0.18
  9
$DIMEXO
 40
0.0625
  9
$DIMDLI
 40
0.38
  9
$DIMRND
 40
0.0
  9
$DIMDLE
 40
0.0
  9
$DIMEXE
 40
0.18
  9
$DIMTP
 40
0.0
  9
$DIMTM
 40
0.0
  9
$DIMTXT
 40
0.1
  9
$DIMCEN
 40
0.09
  9
$DIMTSZ
 40
0.0
  9
$DIMTOL
 70
     0
  9
$DIMLIM
 70
     0
  9
$DIMTIH
 70
     1
  9
$DIMTOH
 70
     1
  9
$DIMSE1
 70
     0
  9
$DIMSE2
 70
     0
  9
$DIMTAD
 70
     0
  9
$DIMZIN
 70
     0
  9
$DIMBLK
  1

  9
$DIMASO
 70
     1
  9
$DIMSHO
 70
     1
  9
$DIMPOST
  1

  9
$DIMAPOST
  1

  9
$DIMALT
 70
     0
  9
$DIMALTD
 70
     2
  9
$DIMALTF
 40
25.4
  9
$DIMLFAC
 40
1.0
  9
$DIMTOFL
 70
     0
  9
$DIMTVP
 40
0.0
  9
$DIMTIX
 70
     0
  9
$DIMSOXD
 70
     0
  9
$DIMSAH
 70
     0
  9
$DIMBLK1
  1

  9
$DIMBLK2
  1

  9
$DIMSTYLE
  2
STANDARD
  9
$DIMCLRD
 70
     0
  9
$DIMCLRE
 70
     0
  9
$DIMCLRT
 70
     0
  9
$DIMTFAC
 40
1.0
  9
$DIMGAP
 40
0.09
  9
$DIMJUST
 70
     0
  9
$DIMSD1
 70
     0
  9
$DIMSD2
 70
     0
  9
$DIMTOLJ
 70
     1
  9
$DIMTZIN
 70
     0
  9
$DIMALTZ
 70
     0
  9
$DIMALTTZ
 70
     0
  9
$DIMUPT
 70
     0
  9
$DIMDEC
 70
     4
  9
$DIMTDEC
 70
     4
  9
$DIMALTU
 70
     2
  9
$DIMALTTD
 70
     2
  9
$DIMTXSTY
  7
ROMANS
  9
$DIMAUNIT
 70
     0
  9
$DIMADEC
 70
     0
  9
$DIMALTRND
 40
0.0
  9
$DIMAZIN
 70
     0
  9
$DIMDSEP
 70
    46
  9
$DIMATFIT
 70
     3
  9
$DIMFRAC
 70
     0
  9
$DIMLDRBLK
  1

  9
$DIMLUNIT
 70
     2
  9
$DIMLWD
 70
    -2
  9
$DIMLWE
 70
    -2
  9
$DIMTMOVE
 70
     0
  9
$LUNITS
 70
     2
  9
$LUPREC
 70
     4
  9
$SKETCHINC
 40
0.1
  9
$FILLETRAD
 40
0.0
  9
$AUNITS
 70
     0
  9
$AUPREC
 70
     0
  9
$MENU
  1
.
  9
$ELEVATION
 40
0.0
  9
$PELEVATION
 40
0.0
  9
$THICKNESS
 40
0.0
  9
$LIMCHECK
 70
     0
  9
$CHAMFERA
 40
0.5
  9
$CHAMFERB
 40
0.5
  9
$CHAMFERC
 40
1.0
  9
$CHAMFERD
 40
0.0
  9
$SKPOLY
 70
     0
  9
$TDCREATE
 40
2451264.499460475
  9
$TDUCREATE
 40
2451264.666127141
  9
$TDUPDATE
 40
2453936.406080394
  9
$TDUUPDATE
 40
2453936.572747060
  9
$TDINDWG
 40
1.7973859375
  9
$TDUSRTIMER
 40
1.7973857523
  9
$USRTIMER
 70
     1
  9
$ANGBASE
 50
0.0
  9
$ANGDIR
 70
     0
  9
$PDMODE
 70
     0
  9
$PDSIZE
 40
0.0
  9
$PLINEWID
 40
0.0
  9
$SPLFRAME
 70
     0
  9
$SPLINETYPE
 70
     6
  9
$SPLINESEGS
 70
     8
  9
$HANDSEED
  5
843
  9
$SURFTAB1
 70
     6
  9
$SURFTAB2
 70
     6
  9
$SURFTYPE
 70
     6
  9
$SURFU
 70
     6
  9
$SURFV
 70
     6
  9
$UCSBASE
  2

  9
$UCSNAME
  2

  9
$UCSORG
 10
0.0
 20
0.0
 30
0.0
  9
$UCSXDIR
 10
1.0
 20
0.0
 30
0.0
  9
$UCSYDIR
 10
0.0
 20
1.0
 30
0.0
  9
$UCSORTHOREF
  2

  9
$UCSORTHOVIEW
 70
     0
  9
$UCSORGTOP
 10
0.0
 20
0.0
 30
0.0
  9
$UCSORGBOTTOM
 10
0.0
 20
0.0
 30
0.0
  9
$UCSORGLEFT
 10
0.0
 20
0.0
 30
0.0
  9
$UCSORGRIGHT
 10
0.0
 20
0.0
 30
0.0
  9
$UCSORGFRONT
 10
0.0
 20
0.0
 30
0.0
  9
$UCSORGBACK
 10
0.0
 20
0.0
 30
0.0
  9
$PUCSBASE
  2

  9
$PUCSNAME
  2

  9
$PUCSORG
 10
0.0
 20
0.0
 30
0.0
  9
$PUCSXDIR
 10
1.0
 20
0.0
 30
0.0
  9
$PUCSYDIR
 10
0.0
 20
1.0
 30
0.0
  9
$PUCSORTHOREF
  2

  9
$PUCSORTHOVIEW
 70
     0
  9
$PUCSORGTOP
 10
0.0
 20
0.0
 30
0.0
  9
$PUCSORGBOTTOM
 10
0.0
 20
0.0
 30
0.0
  9
$PUCSORGLEFT
 10
0.0
 20
0.0
 30
0.0
  9
$PUCSORGRIGHT
 10
0.0
 20
0.0
 30
0.0
  9
$PUCSORGFRONT
 10
0.0
 20
0.0
 30
0.0
  9
$PUCSORGBACK
 10
0.0
 20
0.0
 30
0.0
  9
$USERI1
 70
     0
  9
$USERI2
 70
     0
  9
$USERI3
 70
     0
  9
$USERI4
 70
     0
  9
$USERI5
 70
     0
  9
$USERR1
 40
0.0
  9
$USERR2
 40
0.0
  9
$USERR3
 40
0.0
  9
$USERR4
 40
0.0
  9
$USERR5
 40
0.0
  9
$WORLDVIEW
 70
     1
  9
$SHADEDGE
 70
     3
  9
$SHADEDIF
 70
    70
  9
$TILEMODE
 70
     1
  9
$MAXACTVP
 70
    48
  9
$PINSBASE
 10
0.0
 20
0.0
 30
0.0
  9
$PLIMCHECK
 70
     0
  9
$PEXTMIN
 10
1.000000000000000E+20
 20
1.000000000000000E+20
 30
1.000000000000000E+20
  9
$PEXTMAX
 10
-1.000000000000000E+20
 20
-1.000000000000000E+20
 30
-1.000000000000000E+20
  9
$PLIMMIN
 10
0.0
 20
0.0
  9
$PLIMMAX
 10
12.0
 20
9.0
  9
$UNITMODE
 70
     0
  9
$VISRETAIN
 70
     1
  9
$PLINEGEN
 70
     0
  9
$PSLTSCALE
 70
     1
  9
$TREEDEPTH
 70
  3020
  9
$CMLSTYLE
  2
STANDARD
  9
$CMLJUST
 70
     0
  9
$CMLSCALE
 40
1.0
  9
$PROXYGRAPHICS
 70
     1
  9
$MEASUREMENT
 70
     0
  9
$CELWEIGHT
370
    -1
  9
$ENDCAPS
280
     0
  9
$JOINSTYLE
280
     0
  9
$LWDISPLAY
290
     0
  9
$INSUNITS
 70
     0
  9
$HYPERLINKBASE
  1

  9
$STYLESHEET
  1
MONOCHROME.CTB
  9
$XEDIT
290
     1
  9
$CEPSNTYPE
380
     0
  9
$PSTYLEMODE
290
     1
  9
$FINGERPRINTGUID
  2
{961A20E4-94C6-45A9-A0E0-C1E2B6FD2961}
  9
$VERSIONGUID
  2
{DF4E9461-489E-4933-AC8D-DFE65BDD2CA1}
  9
$EXTNAMES
290
     1
  9
$PSVPSCALE
 40
0.0
  9
$OLESTARTUP
290
     0
  0
ENDSEC
  0
SECTION
  2
CLASSES
  0
CLASS
  1
ACDBDICTIONARYWDFLT
  2
AcDbDictionaryWithDefault
  3
ObjectDBX Classes
 90
        0
280
     0
281
     0
  0
CLASS
  1
DICTIONARYVAR
  2
AcDbDictionaryVar
  3
ObjectDBX Classes
 90
        0
280
     0
281
     0
  0
CLASS
  1
TABLESTYLE
  2
AcDbTableStyle
  3
ObjectDBX Classes
 90
     2047
280
     0
281
     0
  0
CLASS
  1
ACDBPLACEHOLDER
  2
AcDbPlaceHolder
  3
ObjectDBX Classes
 90
        0
280
     0
281
     0
  0
CLASS
  1
LAYOUT
  2
AcDbLayout
  3
ObjectDBX Classes
 90
        0
280
     0
281
     0
  0
ENDSEC
  0
SECTION
  2
TABLES
  0
TABLE
  2
VPORT
  5
19
330
0
100
AcDbSymbolTable
 70
     2
  0
VPORT
  5
83C
330
19
100
AcDbSymbolTableRecord
100
AcDbViewportTableRecord
  2
*Active
 70
     0
 10
0.0
 20
0.0
 11
1.0
 21
1.0
 12
10.37612498631778
 22
6.169477551624437
 13
0.0
 23
0.0
 14
0.5
 24
0.5
 15
0.5
 25
0.5
 16
0.0
 26
0.0
 36
1.0
 17
0.0
 27
0.0
 37
0.0
 40
11.08828815315914
 41
1.51889168765743
 42
50.0
 43
0.0
 44
0.0
 50
0.0
 51
0.0
 71
     0
 72
   100
 73
     1
 74
     0
 75
     0
 76
     0
 77
     0
 78
     0
281
     0
 65
     1
110
0.0
120
0.0
130
0.0
111
1.0
121
0.0
131
0.0
112
0.0
122
1.0
132
0.0
 79
     0
146
0.0
  0
ENDTAB
  0
TABLE
  2
LTYPE
  5
14
330
0
100
AcDbSymbolTable
 70
     1
  0
LTYPE
  5
15
330
14
100
AcDbSymbolTableRecord
100
AcDbLinetypeTableRecord
  2
BYBLOCK
 70
     0
  3

 72
    65
 73
     0
 40
0.0
  0
LTYPE
  5
16
330
14
100
AcDbSymbolTableRecord
100
AcDbLinetypeTableRecord
  2
BYLAYER
 70
     0
  3

 72
    65
 73
     0
 40
0.0
  0
LTYPE
  5
8
330
14
100
AcDbSymbolTableRecord
100
AcDbLinetypeTableRecord
  2
CONTINUOUS
 70
     0
  3
Solid line
 72
    65
 73
     0
 40
0.0
  0
ENDTAB
  0
TABLE
  2
LAYER
  5
10
330
0
100
AcDbSymbolTable
 70
     2
  0
LAYER
  5
4
330
10
100
AcDbSymbolTableRecord
100
AcDbLayerTableRecord
  2
0
 70
     0
 62
     7
  6
CONTINUOUS
370
    -3
390
5
  0
LAYER
  5
27
330
10
100
AcDbSymbolTableRecord
100
AcDbLayerTableRecord
  2
2
 70
     0
 62
     2
  6
CONTINUOUS
370
    -3
390
5
  0
ENDTAB
  0
TABLE
  2
STYLE
  5
11
330
0
100
AcDbSymbolTable
 70
     2
  0
STYLE
  5
12
330
11
100
AcDbSymbolTableRecord
100
AcDbTextStyleTableRecord
  2
STANDARD
 70
     0
 40
0.0
 41
1.0
 50
0.0
 71
     0
 42
0.2
  3
txt
  4

  0
STYLE
  5
22
330
11
100
AcDbSymbolTableRecord
100
AcDbTextStyleTableRecord
  2
ROMANS
 70
     0
 40
0.1
 41
1.0
 50
0.0
 71
     0
 42
0.1
  3
romans
  4

  0
ENDTAB
  0
TABLE
  2
VIEW
  5
17
330
0
100
AcDbSymbolTable
 70
     0
  0
ENDTAB
  0
TABLE
  2
UCS
  5
18
330
0
100
AcDbSymbolTable
 70
     0
  0
ENDTAB
  0
TABLE
  2
APPID
  5
1B
330
0
100
AcDbSymbolTable
 70
     2
  0
APPID
  5
1C
330
1B
100
AcDbSymbolTableRecord
100
AcDbRegAppTableRecord
  2
ACAD
 70
     0
  0
APPID
  5
830
330
1B
100
AcDbSymbolTableRecord
100
AcDbRegAppTableRecord
  2
DCO15
 70
     0
  0
ENDTAB
  0
TABLE
  2
DIMSTYLE
  5
1D
330
0
100
AcDbSymbolTable
 70
     1
100
AcDbDimStyleTable
 71
     1
340
24
  0
DIMSTYLE
105
24
330
1D
100
AcDbSymbolTableRecord
100
AcDbDimStyleTableRecord
  2
STANDARD
 70
     0
340
12
  0
ENDTAB
  0
TABLE
  2
BLOCK_RECORD
  5
1
330
0
100
AcDbSymbolTable
 70
     0
  0
BLOCK_RECORD
  5
2
330
1
100
AcDbSymbolTableRecord
100
AcDbBlockTableRecord
  2
*MODEL_SPACE
340
A
  0
BLOCK_RECORD
  5
C
330
1
100
AcDbSymbolTableRecord
100
AcDbBlockTableRecord
  2
*PAPER_SPACE
340
F
  0
ENDTAB
  0
ENDSEC
  0
SECTION
  2
BLOCKS
  0
BLOCK
  5
3
330
2
100
AcDbEntity
  8
0
100
AcDbBlockBegin
  2
*MODEL_SPACE
 70
     0
 10
0.0
 20
0.0
 30
0.0
  3
*MODEL_SPACE
  1

  0
ENDBLK
  5
9
330
2
100
AcDbEntity
  8
0
100
AcDbBlockEnd
  0
BLOCK
  5
D
330
C
100
AcDbEntity
 67
     1
  8
0
100
AcDbBlockBegin
  2
*PAPER_SPACE
 70
     0
 10
0.0
 20
0.0
 30
0.0
  3
*PAPER_SPACE
  1

  0
ENDBLK
  5
E
330
C
100
AcDbEntity
 67
     1
  8
0
100
AcDbBlockEnd
  0
ENDSEC
  0
SECTION
  2
ENTITIES
  0
LINE
  5
25
330
2
100
AcDbEntity
  8
0
 62
     3
100
AcDbLine
 10
12.60909366857924
 20
3.359941347478296
 30
0.0
 11
12.60909366857924
 21
3.816351121264417
 31
0.0
  0
LINE
  5
35
330
2
100
AcDbEntity
  8
0
 62
     3
100
AcDbLine
 10
11.27824132765584
 20
4.876757584747823
 30
0.0
 11
11.27824132765584
 21
4.232370694617781
 31
0.0
  0
LINE
  5
3B
330
2
100
AcDbEntity
  8
0
 62
     3
100
AcDbLine
 10
12.48976945099456
 20
6.606781784355193
 30
0.0
 11
12.48976945099455
 21
2.674349273556608
 31
0.0
  0
LINE
  5
3C
330
2
100
AcDbEntity
  8
0
 62
     3
100
AcDbLine
 10
12.72007176254014
 20
6.606781784355192
 30
0.0
 11
12.72007176254014
 21
2.674349273556608
 31
0.0
  0
TEXT
  5
3D
330
2
100
AcDbEntity
  8
0
 62
     7
100
AcDbText
 10
11.89814414556814
 20
1.570140882492389
 30
0.0
 40
0.12
  1
DWG. NO.
  7
ROMANS
100
AcDbText
  0
LINE
  5
3E
330
2
100
AcDbEntity
  8
0
 62
     3
100
AcDbLine
 10
10.32572882538576
 20
2.69687905856013
 30
0.0
 11
10.26326075222623
 21
2.831542757242078
 31
0.0
  0
LINE
  5
3F
330
2
100
AcDbEntity
  8
0
 62
     3
100
AcDbLine
 10
10.31681116378105
 20
2.929769804831518
 30
0.0
 11
10.23160304132235
 21
3.092453871193993
 31
0.0
  0
ARC
  5
40
330
2
100
AcDbEntity
  8
0
 62
     3
100
AcDbCircle
 10
10.29281486082908
 20
2.908252635878981
 30
0.0
 40
0.0322305928442593
100
AcDbArc
 50
269.2568876785338
 51
41.88216089902236
  0
LINE
  5
41
330
2
100
AcDbEntity
  8
2
100
AcDbLine
 10
10.17994573450857
 20
2.885305573334196
 30
0.0
 11
10.30694573450858
 21
2.8853055733342
 31
0.0
  0
LINE
  5
42
330
2
100
AcDbEntity
  8
2
100
AcDbLine
 10
10.17994573450857
 20
2.924305573334197
 30
0.0
 11
10.30694573450858
 21
2.924305573334197
 31
0.0
  0
TEXT
  5
92
330
2
100
AcDbEntity
  8
0
 62
     7
100
AcDbText
 10
9.097416845233516
 20
5.735391015383444
 30
0.0
 40
0.06
  1
Ord.-No.: 28 64 40 6
  7
ROMANS
100
AcDbText
  0
TEXT
  5
B3
330
2
100
AcDbEntity
  8
0
 62
     7
100
AcDbText
 10
9.199785279295149
 20
5.843973910652549
 30
0.0
 40
0.06
  1
MINI MCR-SL-I-I
  7
ROMANS
100
AcDbText
  0
LINE
  5
F3
330
2
100
AcDbEntity
  8
2
100
AcDbLine
 10
10.10994573450858
 20
2.854305573334196
 30
0.0
 11
10.10994573450858
 21
2.699305573334195
 31
0.0
  0
LINE
  5
F4
330
2
100
AcDbEntity
  8
2
100
AcDbLine
 10
10.14894573450858
 20
2.854305573334196
 30
0.0
 11
10.14894573450858
 21
2.699305573334195
 31
0.0
  0
LINE
  5
F5
330
2
100
AcDbEntity
  8
2
100
AcDbLine
 10
9.125945734508574
 20
2.854305573334196
 30
0.0
 11
9.125945734508574
 21
2.699305573334195
 31
0.0
  0
LINE
  5
F6
330
2
100
AcDbEntity
  8
2
100
AcDbLine
 10
9.086945734508589
 20
2.854305573334196
 30
0.0
 11
9.086945734508589
 21
2.699305573334195
 31
0.0
  0
TEXT
  5
F7
330
2
100
AcDbEntity
  8
0
 62
     7
100
AcDbText
 10
8.095804068185129
 20
1.688469930369216
 30
0.0
 40
0.08
  1
 
  7
ROMANS
100
AcDbText
  0
LINE
  5
F8
330
2
100
AcDbEntity
  8
0
 62
     3
100
AcDbLine
 10
12.48960235219632
 20
2.674572364666881
 30
0.0
 11
12.71990466374191
 21
2.674572364666881
 31
0.0
  0
LINE
  5
F9
330
2
100
AcDbEntity
  8
2
100
AcDbLine
 10
9.15694573450858
 20
2.668305573334198
 30
0.0
 11
10.07894573450857
 21
2.668305573334198
 31
0.0
  0
LINE
  5
FA
330
2
100
AcDbEntity
  8
2
100
AcDbLine
 10
9.15694573450858
 20
2.629305573334196
 30
0.0
 11
10.07894573450857
 21
2.629305573334196
 31
0.0
  0
ARC
  5
FB
330
2
100
AcDbEntity
  8
2
100
AcDbCircle
 10
9.15694573450858
 20
2.699305573334195
 30
0.0
 40
0.031
100
AcDbArc
 50
180.0
 51
270.0
  0
ARC
  5
FC
330
2
100
AcDbEntity
  8
2
100
AcDbCircle
 10
9.15694573450858
 20
2.699305573334195
 30
0.0
 40
0.07
100
AcDbArc
 50
179.9999999999997
 51
270.0
  0
ARC
  5
FD
330
2
100
AcDbEntity
  8
2
100
AcDbCircle
 10
10.07894573450857
 20
2.699305573334195
 30
0.0
 40
0.07
100
AcDbArc
 50
270.0
 51
0.0000000000002672
  0
ARC
  5
FE
330
2
100
AcDbEntity
  8
2
100
AcDbCircle
 10
10.07894573450857
 20
2.699305573334195
 30
0.0
 40
0.031
100
AcDbArc
 50
270.0
 51
0.0
  0
LINE
  5
FF
330
2
100
AcDbEntity
  8
0
 62
     3
100
AcDbLine
 10
8.594893432846367
 20
2.771964996549119
 30
0.0
 11
8.890082225414131
 21
2.771671903668109
 31
0.0
  0
LINE
  5
103
330
2
100
AcDbEntity
  8
0
 62
     3
100
AcDbLine
 10
12.55105241788872
 20
3.816351121264417
 30
0.0
 11
12.55105241788872
 21
3.936351121264421
 31
0.0
  0
LINE
  5
104
330
2
100
AcDbEntity
  8
0
 62
     3
100
AcDbLine
 10
12.65705241788873
 20
3.816351121264417
 30
0.0
 11
12.65705241788873
 21
3.936351121264421
 31
0.0
  0
LINE
  5
105
330
2
100
AcDbEntity
  8
0
 62
     3
100
AcDbLine
 10
12.51205241788873
 20
4.0069800450011
 30
0.0
 11
12.51205241788873
 21
3.74572219752774
 31
0.0
  0
LINE
  5
106
330
2
100
AcDbEntity
  8
0
 62
     3
100
AcDbLine
 10
12.69605241788873
 20
4.0069800450011
 30
0.0
 11
12.69605241788873
 21
3.74572219752774
 31
0.0
  0
LINE
  5
108
330
2
100
AcDbEntity
  8
0
 62
     3
100
AcDbLine
 10
12.48976945099455
 20
2.782957303222714
 30
0.0
 11
12.72007176254014
 21
2.782957303222714
 31
0.0
  0
LINE
  5
10A
330
2
100
AcDbEntity
  8
0
 62
     3
100
AcDbLine
 10
12.51205241788873
 20
3.74572219752774
 30
0.0
 11
12.69605241788873
 21
3.74572219752774
 31
0.0
  0
LINE
  5
10B
330
2
100
AcDbEntity
  8
0
 62
     3
100
AcDbLine
 10
12.55105241788872
 20
3.816351121264417
 30
0.0
 11
12.65705241788873
 21
3.816351121264417
 31
0.0
  0
LINE
  5
10C
330
2
100
AcDbEntity
  8
0
 62
     3
100
AcDbLine
 10
12.65705241788873
 20
3.816351121264417
 30
0.0
 11
12.69605241788873
 21
3.777194793282312
 31
0.0
  0
LINE
  5
10D
330
2
100
AcDbEntity
  8
0
 62
     3
100
AcDbLine
 10
12.55105241788872
 20
3.816351121264417
 30
0.0
 11
12.51205241788873
 21
3.777556769085208
 31
0.0
  0
LINE
  5
10F
330
2
100
AcDbEntity
  8
0
 62
     3
100
AcDbLine
 10
8.192191849826269
 20
2.853773736361791
 30
0.0
 11
8.594893432846367
 21
2.771964996549119
 31
0.0
  0
ARC
  5
111
330
2
100
AcDbEntity
  8
0
 62
     3
100
AcDbCircle
 10
10.01892082149905
 20
9.093382665122305
 30
0.0
 40
6.501512002589597
100
AcDbArc
 50
249.8541512885579
 51
253.6819019956452
  0
LINE
  5
11B
330
2
100
AcDbEntity
  8
0
 62
     3
100
AcDbLine
 10
12.48976945099456
 20
4.193437794225879
 30
0.0
 11
12.72007176254014
 21
4.193437794225879
 31
0.0
  0
LINE
  5
11C
330
2
100
AcDbEntity
  8
0
 62
     3
100
AcDbLine
 10
12.55105241788872
 20
3.936351121264421
 30
0.0
 11
12.65705241788873
 21
3.936351121264421
 31
0.0
  0
LINE
  5
11D
330
2
100
AcDbEntity
  8
0
 62
     3
100
AcDbLine
 10
12.65705241788873
 20
3.936351121264421
 30
0.0
 11
12.69605241788873
 21
4.0069800450011
 31
0.0
  0
LINE
  5
11E
330
2
100
AcDbEntity
  8
0
 62
     3
100
AcDbLine
 10
12.55105241788872
 20
3.936351121264421
 30
0.0
 11
12.51205241788873
 21
4.0069800450011
 31
0.0
  0
LINE
  5
11F
330
2
100
AcDbEntity
  8
0
 62
     3
100
AcDbLine
 10
12.51205241788873
 20
4.0069800450011
 30
0.0
 11
12.69605241788873
 21
4.0069800450011
 31
0.0
  0
LINE
  5
120
330
2
100
AcDbEntity
  8
0
 62
     3
100
AcDbLine
 10
12.48976945099456
 20
4.260556791191382
 30
0.0
 11
12.72007176254014
 21
4.260556791191382
 31
0.0
  0
LINE
  5
133
330
2
100
AcDbEntity
  8
0
 62
     3
100
AcDbLine
 10
10.20119033253011
 20
3.002780504943903
 30
0.0
 11
10.1433120996515
 21
3.080892523851079
 31
0.0
  0
ARC
  5
134
330
2
100
AcDbEntity
  8
0
 62
     3
100
AcDbCircle
 10
10.18535243695943
 20
3.079823532527516
 30
0.0
 40
0.0479441743986103
100
AcDbArc
 50
15.27418546957167
 51
155.4297287752338
  0
LINE
  5
135
330
2
100
AcDbEntity
  8
0
 62
     3
100
AcDbLine
 10
9.092275155556778
 20
3.121388225650291
 30
0.0
 11
9.769834750885936
 21
3.121388225650293
 31
0.0
  0
ARC
  5
136
330
2
100
AcDbEntity
  8
2
100
AcDbCircle
 10
9.055945734508579
 20
2.854305573334196
 30
0.0
 40
0.07
100
AcDbArc
 50
0.0
 51
90.0
  0
LINE
  5
137
330
2
100
AcDbEntity
  8
2
100
AcDbLine
 10
8.928945734508586
 20
2.885305573334196
 30
0.0
 11
9.055945734508579
 21
2.885305573334196
 31
0.0
  0
LINE
  5
138
330
2
100
AcDbEntity
  8
2
100
AcDbLine
 10
8.928945734508586
 20
2.924305573334197
 30
0.0
 11
9.055945734508579
 21
2.924305573334197
 31
0.0
  0
LINE
  5
139
330
2
100
AcDbEntity
  8
0
 62
     3
100
AcDbLine
 10
8.985515789587891
 20
2.855957924801066
 30
0.0
 11
8.985515789587891
 21
2.819734641367038
 31
0.0
  0
LINE
  5
13A
330
2
100
AcDbEntity
  8
0
 62
     3
100
AcDbLine
 10
8.906515789587881
 20
2.956510921267373
 30
0.0
 11
8.906515789587881
 21
2.899734641367038
 31
0.0
  0
LINE
  5
13B
330
2
100
AcDbEntity
  8
0
 62
     3
100
AcDbLine
 10
8.906515789587881
 20
2.899734641367038
 30
0.0
 11
8.985515789587891
 21
2.855957924801066
 31
0.0
  0
ARC
  5
13C
330
2
100
AcDbEntity
  8
0
 62
     3
100
AcDbCircle
 10
8.890624392005074
 20
2.889373377693601
 30
0.0
 40
0.1177027227058944
100
AcDbArc
 50
269.7360811492735
 51
323.725863203328
  0
LINE
  5
13D
330
2
100
AcDbEntity
  8
2
100
AcDbLine
 10
8.928945734508586
 20
2.924305573334197
 30
0.0
 11
8.928945734508586
 21
2.885305573334196
 31
0.0
  0
ARC
  5
13E
330
2
100
AcDbEntity
  8
2
100
AcDbCircle
 10
9.055945734508579
 20
2.854305573334196
 30
0.0
 40
0.031
100
AcDbArc
 50
0.0
 51
90.0
  0
ARC
  5
13F
330
2
100
AcDbEntity
  8
0
 62
     3
100
AcDbCircle
 10
10.16438958707258
 20
2.967366788062865
 30
0.0
 40
0.0510727540823911
100
AcDbArc
 50
315.4857172193175
 51
43.89965097701368
  0
ARC
  5
140
330
2
100
AcDbEntity
  8
2
100
AcDbCircle
 10
10.17994573450857
 20
2.854305573334196
 30
0.0
 40
0.07
100
AcDbArc
 50
90.0
 51
180.0
  0
LINE
  5
141
330
2
100
AcDbEntity
  8
0
 62
     3
100
AcDbLine
 10
10.29266422642879
 20
2.875013517640026
 30
0.0
 11
10.29164173415246
 21
2.875013517640026
 31
0.0
  0
ARC
  5
142
330
2
100
AcDbEntity
  8
0
 62
     3
100
AcDbCircle
 10
10.29164173415246
 20
2.844013517640028
 30
0.0
 40
0.031
100
AcDbArc
 50
90.0
 51
203.7209521842036
  0
ARC
  5
143
330
2
100
AcDbEntity
  8
2
100
AcDbCircle
 10
10.17994573450857
 20
2.854305573334196
 30
0.0
 40
0.031
100
AcDbArc
 50
90.0
 51
180.0
  0
LINE
  5
1FA
330
2
100
AcDbEntity
  8
0
 62
     3
100
AcDbLine
 10
12.55105241788872
 20
4.521520152764033
 30
0.0
 11
12.51205241788873
 21
4.482725800584816
 31
0.0
  0
LINE
  5
1FB
330
2
100
AcDbEntity
  8
0
 62
     3
100
AcDbLine
 10
12.65705241788873
 20
4.521520152764033
 30
0.0
 11
12.69605241788873
 21
4.482363824781919
 31
0.0
  0
LINE
  5
1FC
330
2
100
AcDbEntity
  8
0
 62
     3
100
AcDbLine
 10
12.69605241788873
 20
4.712149076500715
 30
0.0
 11
12.69605241788873
 21
4.260556791191382
 31
0.0
  0
LINE
  5
1FD
330
2
100
AcDbEntity
  8
0
 62
     3
100
AcDbLine
 10
12.51205241788873
 20
4.712149076500708
 30
0.0
 11
12.51205241788873
 21
4.260556791191382
 31
0.0
  0
ELLIPSE
  5
1FE
330
2
100
AcDbEntity
  8
0
 62
     3
100
AcDbEllipse
 10
12.60085189397217
 20
4.227867556761648
 30
0.0
 11
0.078328744270187
 21
0.0
 31
0.0
210
0.0
220
0.0
230
1.0
 40
0.2376775563879574
 41
0.0
 42
6.283185307179585
  0
LINE
  5
202
330
2
100
AcDbEntity
  8
0
 62
     3
100
AcDbLine
 10
12.51205241788873
 20
4.450891229027347
 30
0.0
 11
12.69605241788873
 21
4.450891229027347
 31
0.0
  0
LINE
  5
20A
330
2
100
AcDbEntity
  8
0
 62
     3
100
AcDbLine
 10
12.55105241788872
 20
4.641520152764029
 30
0.0
 11
12.51205241788873
 21
4.712149076500708
 31
0.0
  0
LINE
  5
20B
330
2
100
AcDbEntity
  8
0
 62
     3
100
AcDbLine
 10
12.65705241788873
 20
4.641520152764029
 30
0.0
 11
12.69605241788873
 21
4.712149076500715
 31
0.0
  0
LINE
  5
20C
330
2
100
AcDbEntity
  8
0
 62
     3
100
AcDbLine
 10
12.65705241788873
 20
4.521520152764033
 30
0.0
 11
12.65705241788873
 21
4.641520152764029
 31
0.0
  0
LINE
  5
20D
330
2
100
AcDbEntity
  8
0
 62
     3
100
AcDbLine
 10
12.55105241788872
 20
4.641520152764029
 30
0.0
 11
12.65705241788873
 21
4.641520152764029
 31
0.0
  0
LINE
  5
20E
330
2
100
AcDbEntity
  8
0
 62
     3
100
AcDbLine
 10
12.55105241788872
 20
4.521520152764033
 30
0.0
 11
12.65705241788873
 21
4.521520152764033
 31
0.0
  0
LINE
  5
20F
330
2
100
AcDbEntity
  8
0
 62
     3
100
AcDbLine
 10
12.55105241788872
 20
4.521520152764033
 30
0.0
 11
12.55105241788872
 21
4.641520152764029
 31
0.0
  0
LINE
  5
211
330
2
100
AcDbEntity
  8
0
 62
     3
100
AcDbLine
 10
12.51205241788873
 20
4.712149076500708
 30
0.0
 11
12.69605241788873
 21
4.712149076500715
 31
0.0
  0
LINE
  5
228
330
2
100
AcDbEntity
  8
0
 62
     3
100
AcDbLine
 10
12.51205241788873
 20
5.468689879664534
 30
0.0
 11
12.51205241788873
 21
4.991749321432823
 31
0.0
  0
LINE
  5
229
330
2
100
AcDbEntity
  8
0
 62
     3
100
AcDbLine
 10
12.69605241788873
 20
5.468689879664541
 30
0.0
 11
12.69605241788873
 21
4.991749321432823
 31
0.0
  0
LINE
  5
22A
330
2
100
AcDbEntity
  8
0
 62
     3
100
AcDbLine
 10
12.55105241788872
 20
5.278060955927858
 30
0.0
 11
12.51205241788873
 21
5.239266603748641
 31
0.0
  0
LINE
  5
22B
330
2
100
AcDbEntity
  8
0
 62
     3
100
AcDbLine
 10
12.65705241788873
 20
5.278060955927858
 30
0.0
 11
12.69605241788873
 21
5.238904627945745
 31
0.0
  0
ELLIPSE
  5
22C
330
2
100
AcDbEntity
  8
0
 62
     3
100
AcDbEllipse
 10
12.60628846298733
 20
4.965707317504887
 30
0.0
 11
0.078328744270187
 21
0.0
 31
0.0
210
0.0
220
0.0
230
1.0
 40
0.2376775563879574
 41
0.0
 42
6.283185307179585
  0
LINE
  5
22D
330
2
100
AcDbEntity
  8
0
 62
     3
100
AcDbLine
 10
12.48976945099456
 20
4.991749321432823
 30
0.0
 11
12.72021289397738
 21
4.991749321432823
 31
0.0
  0
LINE
  5
22E
330
2
100
AcDbEntity
  8
0
 62
     3
100
AcDbLine
 10
12.48976945099456
 20
4.93174932143282
 30
0.0
 11
12.72021289397738
 21
4.93174932143282
 31
0.0
  0
LINE
  5
230
330
2
100
AcDbEntity
  8
0
 62
     3
100
AcDbLine
 10
12.51205241788873
 20
5.207432032191174
 30
0.0
 11
12.69605241788873
 21
5.207432032191174
 31
0.0
  0
LINE
  5
233
330
2
100
AcDbEntity
  8
0
 62
     3
100
AcDbLine
 10
12.65705241788873
 20
5.398060955927856
 30
0.0
 11
12.69605241788873
 21
5.468689879664541
 31
0.0
  0
LINE
  5
234
330
2
100
AcDbEntity
  8
0
 62
     3
100
AcDbLine
 10
12.55105241788872
 20
5.398060955927856
 30
0.0
 11
12.51205241788873
 21
5.468689879664534
 31
0.0
  0
LINE
  5
235
330
2
100
AcDbEntity
  8
0
 62
     3
100
AcDbLine
 10
12.55105241788872
 20
5.398060955927856
 30
0.0
 11
12.65705241788873
 21
5.398060955927856
 31
0.0
  0
LINE
  5
236
330
2
100
AcDbEntity
  8
0
 62
     3
100
AcDbLine
 10
12.55105241788872
 20
5.278060955927858
 30
0.0
 11
12.65705241788873
 21
5.278060955927858
 31
0.0
  0
LINE
  5
237
330
2
100
AcDbEntity
  8
0
 62
     3
100
AcDbLine
 10
12.55105241788872
 20
5.278060955927858
 30
0.0
 11
12.55105241788872
 21
5.398060955927856
 31
0.0
  0
LINE
  5
238
330
2
100
AcDbEntity
  8
0
 62
     3
100
AcDbLine
 10
12.65705241788873
 20
5.278060955927858
 30
0.0
 11
12.65705241788873
 21
5.398060955927856
 31
0.0
  0
LINE
  5
23A
330
2
100
AcDbEntity
  8
0
 62
     3
100
AcDbLine
 10
12.51205241788873
 20
5.468689879664534
 30
0.0
 11
12.69605241788873
 21
5.468689879664541
 31
0.0
  0
LINE
  5
268
330
2
100
AcDbEntity
  8
0
 62
     3
100
AcDbLine
 10
11.4245616515609
 20
2.862078059813788
 30
0.0
 11
11.4245616515609
 21
2.738054320065265
 31
0.0
  0
ARC
  5
269
330
2
100
AcDbEntity
  8
0
 62
     3
100
AcDbCircle
 10
11.14416561497592
 20
2.751214811489548
 30
0.0
 40
0.0411710809704419
100
AcDbArc
 50
263.0090790492969
 51
353.0225592054903
  0
ARC
  5
26A
330
2
100
AcDbEntity
  8
0
 62
     3
100
AcDbCircle
 10
10.46215946456618
 20
2.913197047432492
 30
0.0
 40
0.2030021074619448
100
AcDbArc
 50
237.8361579863065
 51
272.2382635541377
  0
TEXT
  5
26B
330
2
100
AcDbEntity
  8
0
 62
     7
100
AcDbText
 10
7.755393703407277
 20
1.530395737906799
 30
0.0
 40
0.084375
  1
SCALE 1X1
  7
ROMANS
100
AcDbText
  0
LINE
  5
26C
330
2
100
AcDbEntity
  8
0
 62
     3
100
AcDbLine
 10
11.23711832542027
 20
2.678349818958078
 30
0.0
 11
11.39906188065059
 21
2.707546165746115
 31
0.0
  0
LINE
  5
26D
330
2
100
AcDbEntity
  8
0
 62
     3
100
AcDbLine
 10
10.35410980731199
 20
2.678349818958078
 30
0.0
 11
11.23711832542027
 21
2.678349818958078
 31
0.0
  0
LINE
  5
26E
330
2
100
AcDbEntity
  8
0
 62
     3
100
AcDbLine
 10
10.4700877389207
 20
2.710349818958079
 30
0.0
 11
11.13915459774607
 21
2.710349818958079
 31
0.0
  0
ARC
  5
26F
330
2
100
AcDbEntity
  8
0
 62
     3
100
AcDbCircle
 10
10.35410980731199
 20
2.70934981895808
 30
0.0
 40
0.031
100
AcDbArc
 50
203.7209521842038
 51
270.0
  0
ARC
  5
270
330
2
100
AcDbEntity
  8
0
 62
     3
100
AcDbCircle
 10
11.3935616515609
 20
2.738054320065265
 30
0.0
 40
0.031
100
AcDbArc
 50
280.2199107045474
 51
0.0
  0
LINE
  5
271
330
2
100
AcDbEntity
  8
0
 62
     3
100
AcDbLine
 10
11.21986961649736
 20
3.152147110286517
 30
0.0
 11
11.21922644990368
 21
2.78386423503537
 31
0.0
  0
LINE
  5
272
330
2
100
AcDbEntity
  8
0
 62
     3
100
AcDbLine
 10
11.18507400476404
 20
3.113533323082453
 30
0.0
 11
11.18577739511996
 21
2.751257438819649
 31
0.0
  0
LINE
  5
273
330
2
100
AcDbEntity
  8
0
 62
     3
100
AcDbLine
 10
10.27085235995119
 20
3.092967416126461
 30
0.0
 11
10.352983081992
 21
2.927753719140156
 31
0.0
  0
LINE
  5
274
330
2
100
AcDbEntity
  8
0
 62
     3
100
AcDbLine
 10
11.22016411799894
 20
2.957542808054737
 30
0.0
 11
11.40171684493289
 21
2.891986132654839
 31
0.0
  0
LINE
  5
275
330
2
100
AcDbEntity
  8
0
 62
     3
100
AcDbLine
 10
11.18577739511996
 20
2.751257438819649
 30
0.0
 11
11.18503178533398
 21
2.746213408832154
 31
0.0
  0
LINE
  5
276
330
2
100
AcDbEntity
  8
0
 62
     3
100
AcDbLine
 10
10.35409288462746
 20
2.919533250691915
 30
0.0
 11
10.35409288462746
 21
2.74134981895808
 31
0.0
  0
LINE
  5
277
330
2
100
AcDbEntity
  8
2
100
AcDbLine
 10
10.30694573450858
 20
2.924305573334197
 30
0.0
 11
10.30694573450858
 21
2.8853055733342
 31
0.0
  0
ARC
  5
278
330
2
100
AcDbEntity
  8
0
 62
     3
100
AcDbCircle
 10
10.32309288462745
 20
2.919533250691915
 30
0.0
 40
0.031
100
AcDbArc
 50
0.0
 51
15.37743486722155
  0
ARC
  5
279
330
2
100
AcDbEntity
  8
0
 62
     3
100
AcDbCircle
 10
11.25555017779642
 20
2.780321485693069
 30
0.0
 40
0.0364960858302493
100
AcDbArc
 50
174.4294099881104
 51
244.1028342236583
  0
ARC
  5
27C
330
2
100
AcDbEntity
  8
0
 62
     3
100
AcDbCircle
 10
11.3935616515609
 20
2.862078059813788
 30
0.0
 40
0.031
100
AcDbArc
 50
359.9999999999997
 51
74.7476518578042
  0
LINE
  5
27D
330
2
100
AcDbEntity
  8
0
 62
     3
100
AcDbLine
 10
11.24639847156088
 20
3.178600876529017
 30
0.0
 11
11.40168393257627
 21
3.247650802536721
 31
0.0
  0
LINE
  5
27F
330
2
100
AcDbEntity
  8
0
 62
     3
100
AcDbLine
 10
10.1417495126144
 20
3.099759150083208
 30
0.0
 11
10.1433120996515
 21
3.080892523851079
 31
0.0
  0
ARC
  5
281
330
2
100
AcDbEntity
  8
0
 62
     3
100
AcDbCircle
 10
11.15209960830595
 20
3.109071102258496
 30
0.0
 40
0.0332749490827106
100
AcDbArc
 50
7.706667623942933
 51
87.44978290759922
  0
ARC
  5
282
330
2
100
AcDbEntity
  8
0
 62
     3
100
AcDbCircle
 10
11.26208172335739
 20
3.136344146304495
 30
0.0
 40
0.0450732252693415
100
AcDbArc
 50
110.3620103866298
 51
159.4755865632035
  0
ARC
  5
285
330
2
100
AcDbEntity
  8
0
 62
     3
100
AcDbCircle
 10
11.3935616515609
 20
3.277567830315355
 30
0.0
 40
0.031
100
AcDbArc
 50
285.1893064115998
 51
0.0
  0
LINE
  5
287
330
2
100
AcDbEntity
  8
0
 62
     3
100
AcDbLine
 10
11.4245616515609
 20
4.152797370083622
 30
0.0
 11
11.4245616515609
 21
3.277567830315355
 31
0.0
  0
LINE
  5
28C
330
2
100
AcDbEntity
  8
0
 62
     3
100
AcDbLine
 10
11.12684414099894
 20
3.545205662615757
 30
0.0
 11
11.05134414099894
 21
3.414435826644306
 31
0.0
  0
LINE
  5
28D
330
2
100
AcDbEntity
  8
0
 62
     3
100
AcDbLine
 10
11.09436818835703
 20
3.563955662615754
 30
0.0
 11
11.01886818835703
 21
3.433185826644303
 31
0.0
  0
LINE
  5
2AA
330
2
100
AcDbEntity
  8
0
 62
     3
100
AcDbLine
 10
11.05134414099894
 20
3.414435826644306
 30
0.0
 11
11.01886818835703
 21
3.433185826644303
 31
0.0
  0
LINE
  5
2AB
330
2
100
AcDbEntity
  8
0
 62
     3
100
AcDbLine
 10
11.10784414099894
 20
3.512296697271948
 30
0.0
 11
11.08973269161974
 21
3.522753347446446
 31
0.0
  0
LINE
  5
2AC
330
2
100
AcDbEntity
  8
0
 62
     3
100
AcDbLine
 10
11.07034414099894
 20
3.447344791988116
 30
0.0
 11
11.05223269161974
 21
3.457801442162613
 31
0.0
  0
LINE
  5
2AD
330
2
100
AcDbEntity
  8
0
 62
     3
100
AcDbLine
 10
11.08973269161974
 20
3.522753347446446
 30
0.0
 11
11.05223269161974
 21
3.457801442162613
 31
0.0
  0
LINE
  5
2B5
330
2
100
AcDbEntity
  8
0
 62
     3
100
AcDbLine
 10
11.27824132765584
 20
4.232370694617788
 30
0.0
 11
11.4245616515609
 21
4.152797370083622
 31
0.0
  0
LINE
  5
2B6
330
2
100
AcDbEntity
  8
0
 62
     3
100
AcDbLine
 10
10.89313276964533
 20
4.006490039680841
 30
0.0
 11
10.86065681700341
 21
4.025240039680843
 31
0.0
  0
LINE
  5
2B7
330
2
100
AcDbEntity
  8
0
 62
     3
100
AcDbLine
 10
10.81763276964533
 20
3.875720203709396
 30
0.0
 11
10.78515681700341
 21
3.894470203709396
 31
0.0
  0
LINE
  5
2B9
330
2
100
AcDbEntity
  8
0
 62
     3
100
AcDbLine
 10
11.12684414099894
 20
3.545205662615757
 30
0.0
 11
11.09436818835703
 21
3.563955662615754
 31
0.0
  0
LINE
  5
2C1
330
2
100
AcDbEntity
  8
0
 62
     3
100
AcDbLine
 10
10.89313276964533
 20
4.006490039680841
 30
0.0
 11
10.81763276964533
 21
3.875720203709396
 31
0.0
  0
LINE
  5
2C5
330
2
100
AcDbEntity
  8
0
 62
     3
100
AcDbLine
 10
10.86065681700341
 20
4.025240039680843
 30
0.0
 11
10.78515681700341
 21
3.894470203709396
 31
0.0
  0
LINE
  5
2C6
330
2
100
AcDbEntity
  8
0
 62
     3
100
AcDbLine
 10
10.86109712934014
 20
3.981107204776299
 30
0.0
 11
10.82359712934014
 21
3.916155299492464
 31
0.0
  0
LINE
  5
2C7
330
2
100
AcDbEntity
  8
0
 62
     3
100
AcDbLine
 10
10.84298567996093
 20
3.991563854950801
 30
0.0
 11
10.86109712934014
 21
3.981107204776299
 31
0.0
  0
LINE
  5
2C8
330
2
100
AcDbEntity
  8
0
 62
     3
100
AcDbLine
 10
10.80548567996093
 20
3.926611949666964
 30
0.0
 11
10.82359712934014
 21
3.916155299492464
 31
0.0
  0
LINE
  5
2DC
330
2
100
AcDbEntity
  8
0
 62
     3
100
AcDbLine
 10
10.28286108329669
 20
6.609773805417596
 30
0.0
 11
10.47394309946855
 21
6.609693590537986
 31
0.0
  0
LINE
  5
2DF
330
2
100
AcDbEntity
  8
0
 62
     7
100
AcDbLine
 10
12.70205144076642
 20
9.582467202650684
 30
0.0
 11
12.70205144076642
 21
8.345290292419665
 31
0.0
  0
LINE
  5
2E0
330
2
100
AcDbEntity
  8
0
 62
     7
100
AcDbLine
 10
12.50676452800941
 20
9.582467202650684
 30
0.0
 11
12.50676452800941
 21
8.345290292419665
 31
0.0
  0
LINE
  5
2E1
330
2
100
AcDbEntity
  8
0
 62
     3
100
AcDbLine
 10
12.49093235143045
 20
7.095694323598277
 30
0.0
 11
12.49093235143046
 21
10.74569436608715
 31
0.0
  0
LINE
  5
2E2
330
2
100
AcDbEntity
  8
0
 62
     3
100
AcDbLine
 10
12.72123466297605
 20
7.095694323598277
 30
0.0
 11
12.72123466297605
 21
10.74569436608715
 31
0.0
  0
LINE
  5
325
330
2
100
AcDbEntity
  8
0
 62
     3
100
AcDbLine
 10
10.28286108329669
 20
6.609773805417596
 30
0.0
 11
10.25233902202257
 21
6.551706391168522
 31
0.0
  0
LINE
  5
327
330
2
100
AcDbEntity
  8
0
 62
     3
100
AcDbLine
 10
8.945785267139761
 20
6.608864540608713
 30
0.0
 11
8.973970107805692
 21
6.550811594379117
 31
0.0
  0
ELLIPSE
  5
329
330
2
100
AcDbEntity
  8
0
 62
     3
100
AcDbEllipse
 10
12.60749450986777
 20
5.666585030593651
 30
0.0
 11
0.078328744270187
 21
0.0
 31
0.0
210
0.0
220
0.0
230
1.0
 40
0.2376775563879574
 41
0.0
 42
6.283185307179585
  0
LINE
  5
32B
330
2
100
AcDbEntity
  8
0
 62
     3
100
AcDbLine
 10
12.48976945099455
 20
5.689778613067857
 30
0.0
 11
12.72007176254014
 21
5.689778613067857
 31
0.0
  0
LINE
  5
32E
330
2
100
AcDbEntity
  8
0
 62
     7
100
AcDbLine
 10
9.000809013579994
 20
6.527975675785777
 30
0.0
 11
10.22419080340083
 21
6.52797567578578
 31
0.0
  0
CIRCLE
  5
331
330
2
100
AcDbEntity
  8
0
 62
     3
100
AcDbCircle
 10
8.915804613620679
 20
6.548636729414012
 30
0.0
 40
0.0131550111372021
  0
LINE
  5
33E
330
2
100
AcDbEntity
  8
0
 62
     3
100
AcDbLine
 10
12.48976945099456
 20
6.606781784355193
 30
0.0
 11
12.72007176254014
 21
6.606781784355192
 31
0.0
  0
LINE
  5
341
330
2
100
AcDbEntity
  8
0
 62
     7
100
AcDbLine
 10
10.27848322721131
 20
6.609609293039627
 30
0.0
 11
9.402826433486586
 21
6.609760963634669
 31
0.0
  0
LINE
  5
357
330
2
100
AcDbEntity
  8
0
 62
     7
100
AcDbLine
 10
9.152596691479473
 20
6.608864540608712
 30
0.0
 11
8.950715760415699
 21
6.608864540608713
 31
0.0
  0
ARC
  5
358
330
2
100
AcDbEntity
  8
0
 62
     7
100
AcDbCircle
 10
9.152691018445059
 20
6.593047810465325
 30
0.0
 40
0.0158170114119337
100
AcDbArc
 50
337.664291876747
 51
90.34169344116973
  0
TEXT
  5
35A
330
2
100
AcDbEntity
  8
0
 62
     7
100
AcDbText
 10
12.63323114469802
 20
7.556460305780718
 30
0.0
 40
0.05625
  1
1
  7
ROMANS
100
AcDbText
  0
LINE
  5
35F
330
2
100
AcDbEntity
  8
0
 62
     3
100
AcDbLine
 10
12.72123466297605
 20
7.095694366087155
 30
0.0
 11
12.49093235143045
 21
7.095694366087155
 31
0.0
  0
TEXT
  5
360
330
2
100
AcDbEntity
  8
0
 62
     7
100
AcDbText
 10
12.6334441767865
 20
7.138570524980834
 30
0.0
 40
0.05625
  1
4
  7
ROMANS
100
AcDbText
  0
LINE
  5
361
330
2
100
AcDbEntity
  8
0
 62
     3
100
AcDbLine
 10
12.60311293411099
 20
7.095694366087155
 30
0.0
 11
12.60321864474741
 21
7.648587519838688
 31
0.0
  0
LINE
  5
363
330
2
100
AcDbEntity
  8
0
 62
     3
100
AcDbLine
 10
12.49093235143045
 20
7.526855282213325
 30
0.0
 11
12.72123466297605
 21
7.526855282213325
 31
0.0
  0
LINE
  5
364
330
2
100
AcDbEntity
  8
0
 62
     3
100
AcDbLine
 10
12.72123466297605
 20
7.381165370981039
 30
0.0
 11
12.49093235143045
 21
7.381165370981039
 31
0.0
  0
TEXT
  5
36A
330
2
100
AcDbEntity
  8
0
 62
     7
100
AcDbText
 10
12.6334441767865
 20
7.421430673129606
 30
0.0
 40
0.05625
  1
2
  7
ROMANS
100
AcDbText
  0
LINE
  5
36D
330
2
100
AcDbEntity
  8
0
 62
     3
100
AcDbLine
 10
12.72123466297605
 20
8.121537202669141
 30
0.0
 11
12.49093235143045
 21
8.121537202669141
 31
0.0
  0
LINE
  5
375
330
2
100
AcDbEntity
  8
0
 62
     3
100
AcDbLine
 10
12.72123466297604
 20
9.582467202650684
 30
0.0
 11
12.70205144076642
 21
9.582467202650684
 31
0.0
  0
LINE
  5
390
330
2
100
AcDbEntity
  8
0
 62
     3
100
AcDbLine
 10
12.60622213387221
 20
9.582467202650684
 30
0.0
 11
12.60542549367974
 21
10.0817419910571
 31
0.0
  0
LINE
  5
392
330
2
100
AcDbEntity
  8
0
 62
     7
100
AcDbLine
 10
12.50676452800941
 20
8.345290292419665
 30
0.0
 11
12.70205144076642
 21
8.345290292419665
 31
0.0
  0
LINE
  5
3A3
330
2
100
AcDbEntity
  8
0
 62
     3
100
AcDbLine
 10
11.12993377040372
 20
5.564508068460042
 30
0.0
 11
11.12993377040372
 21
4.939172028989842
 31
0.0
  0
LINE
  5
3A5
330
2
100
AcDbEntity
  8
0
 62
     3
100
AcDbLine
 10
11.12993377040372
 20
4.939172028989842
 30
0.0
 11
11.27824132765584
 21
4.876757584747823
 31
0.0
  0
LINE
  5
3A7
330
2
100
AcDbEntity
  8
0
 62
     3
100
AcDbLine
 10
11.00165187219244
 20
5.471324523500494
 30
0.0
 11
10.98073857184344
 21
5.471324523500494
 31
0.0
  0
LINE
  5
3A8
330
2
100
AcDbEntity
  8
0
 62
     3
100
AcDbLine
 10
11.00165187219244
 20
5.396324523500496
 30
0.0
 11
10.98073857184344
 21
5.396324523500496
 31
0.0
  0
LINE
  5
3A9
330
2
100
AcDbEntity
  8
0
 62
     3
100
AcDbLine
 10
10.98073857184344
 20
5.471324523500494
 30
0.0
 11
10.98073857184344
 21
5.396324523500496
 31
0.0
  0
LINE
  5
3AA
330
2
100
AcDbEntity
  8
0
 62
     3
100
AcDbLine
 10
11.00165187219244
 20
5.509324523500494
 30
0.0
 11
10.96415187219244
 21
5.509324523500494
 31
0.0
  0
LINE
  5
3AB
330
2
100
AcDbEntity
  8
0
 62
     3
100
AcDbLine
 10
11.00165187219244
 20
5.509324523500494
 30
0.0
 11
11.00165187219244
 21
5.358324523500495
 31
0.0
  0
LINE
  5
3AC
330
2
100
AcDbEntity
  8
0
 62
     3
100
AcDbLine
 10
10.96415187219244
 20
5.509324523500494
 30
0.0
 11
10.96415187219244
 21
5.358324523500495
 31
0.0
  0
LINE
  5
3AD
330
2
100
AcDbEntity
  8
0
 62
     3
100
AcDbLine
 10
11.00165187219244
 20
5.358324523500495
 30
0.0
 11
10.96415187219244
 21
5.358324523500495
 31
0.0
  0
LINE
  5
3B5
330
2
100
AcDbEntity
  8
0
 62
     3
100
AcDbLine
 10
10.98235654489974
 20
5.639276315159257
 30
0.0
 11
11.12993377040372
 21
5.564508068460042
 31
0.0
  0
ARC
  5
3B6
330
2
100
AcDbEntity
  8
0
100
AcDbCircle
 10
9.633209808654894
 20
4.380180162812571
 30
0.0
 40
0.075160652744313
100
AcDbArc
 50
3.792988801637926
 51
146.2478291532624
  0
ARC
  5
3BF
330
2
100
AcDbEntity
  8
0
 62
     3
100
AcDbCircle
 10
9.585316540700944
 20
7.169439802093282
 30
0.0
 40
0.8697386506263773
100
AcDbArc
 50
225.3392021887444
 51
272.5472541929384
  0
LINE
  5
3C0
330
2
100
AcDbEntity
  8
0
 62
     7
100
AcDbLine
 10
9.413096254782486
 20
6.558817718808917
 30
0.0
 11
9.138022369105987
 21
6.558751530893562
 31
0.0
  0
LINE
  5
3C2
330
2
100
AcDbEntity
  8
0
 62
     7
100
AcDbLine
 10
9.167321327770828
 20
6.587036828928374
 30
0.0
 11
9.138061733424301
 21
6.587005483825326
 31
0.0
  0
LINE
  5
3C3
330
2
100
AcDbEntity
  8
0
 62
     7
100
AcDbLine
 10
9.138022369105987
 20
6.558751530893562
 30
0.0
 11
9.138061733424301
 21
6.587005483825326
 31
0.0
  0
LINE
  5
3C7
330
2
100
AcDbEntity
  8
0
 62
     7
100
AcDbLine
 10
9.384242898894076
 20
6.587635596871788
 30
0.0
 11
9.413080872451514
 21
6.587650874802527
 31
0.0
  0
LINE
  5
3C9
330
2
100
AcDbEntity
  8
0
 62
     7
100
AcDbLine
 10
9.413096254782486
 20
6.558817718808917
 30
0.0
 11
9.413080872451514
 21
6.587650874802527
 31
0.0
  0
ARC
  5
3CA
330
2
100
AcDbEntity
  8
0
 62
     7
100
AcDbCircle
 10
9.399050587868343
 20
6.594065348179793
 30
0.0
 40
0.0161433997237668
100
AcDbArc
 50
76.47355848139604
 51
203.4713085295336
  0
ARC
  5
3DA
330
2
100
AcDbEntity
  8
0
 62
     3
100
AcDbCircle
 10
9.632103558054927
 20
7.191875510913089
 30
0.0
 40
0.8913520811877248
100
AcDbArc
 50
269.4772106126231
 51
314.0939265437183
  0
LINE
  5
3DB
330
2
100
AcDbEntity
  8
0
 62
     7
100
AcDbLine
 10
8.950715760415699
 20
6.608864540608713
 30
0.0
 11
9.000809013579994
 21
6.527975675785777
 31
0.0
  0
LINE
  5
3DC
330
2
100
AcDbEntity
  8
0
 62
     7
100
AcDbLine
 10
10.27848322721131
 20
6.609609293039627
 30
0.0
 11
10.22419080340083
 21
6.52797567578578
 31
0.0
  0
ARC
  5
3E8
330
2
100
AcDbEntity
  8
0
100
AcDbCircle
 10
9.488461713883662
 20
6.032217386314107
 30
0.0
 40
0.0452917705125585
100
AcDbArc
 50
53.92215151025626
 51
306.0778484897437
  0
ARC
  5
3E9
330
2
100
AcDbEntity
  8
0
100
AcDbCircle
 10
9.925055160463998
 20
6.031058953268463
 30
0.0
 40
0.0437661473043592
100
AcDbArc
 50
85.24317742765925
 51
286.7327377092202
  0
ARC
  5
3EA
330
2
100
AcDbEntity
  8
0
100
AcDbCircle
 10
9.924532912086498
 20
6.030588960764364
 30
0.0
 40
0.0237090353599909
100
AcDbArc
 50
85.18525821864152
 51
303.478810067176
  0
LINE
  5
3EB
330
2
100
AcDbEntity
  8
0
100
AcDbLine
 10
9.766681432785668
 20
6.097513684956235
 30
0.0
 11
9.795596740511689
 21
6.097513684956235
 31
0.0
  0
LINE
  5
3EC
330
2
100
AcDbEntity
  8
0
100
AcDbLine
 10
9.31272848778731
 20
6.157398916030168
 30
0.0
 11
9.31272848778731
 21
6.135974354261932
 31
0.0
  0
LINE
  5
3ED
330
2
100
AcDbEntity
  8
0
100
AcDbLine
 10
9.321803487787306
 20
6.166176156093071
 30
0.0
 11
9.331616787379536
 21
6.166176156093071
 31
0.0
  0
ARC
  5
3EE
330
2
100
AcDbEntity
  8
0
100
AcDbCircle
 10
9.290084970475325
 20
6.157321469053742
 30
0.0
 40
0.009075
100
AcDbArc
 50
8.683110050417839
 51
90.0
  0
LINE
  5
3EF
330
2
100
AcDbEntity
  8
0
100
AcDbLine
 10
9.299044161809163
 20
6.158666634249007
 30
0.0
 11
9.299044161809163
 21
6.136389929828856
 31
0.0
  0
ARC
  5
3F0
330
2
100
AcDbEntity
  8
0
100
AcDbCircle
 10
9.321803487787311
 20
6.059421924412268
 30
0.0
 40
0.009075
100
AcDbArc
 50
120.81148722186
 51
180.0
  0
ARC
  5
3F1
330
2
100
AcDbEntity
  8
0
100
AcDbCircle
 10
9.289969161809164
 20
6.058896655792072
 30
0.0
 40
0.009075
100
AcDbArc
 50
359.9999999999996
 51
68.30650462533227
  0
ARC
  5
3F2
330
2
100
AcDbEntity
  8
0
100
AcDbCircle
 10
9.289969161809164
 20
6.136389929828856
 30
0.0
 40
0.009075
100
AcDbArc
 50
291.6934953746675
 51
0.0
  0
ARC
  5
3F3
330
2
100
AcDbEntity
  8
0
100
AcDbCircle
 10
9.321803487787311
 20
6.135974354261932
 30
0.0
 40
0.009075
100
AcDbArc
 50
180.0
 51
246.8106743924578
  0
ARC
  5
3F4
330
2
100
AcDbEntity
  8
0
100
AcDbCircle
 10
9.289969161809164
 20
6.006711587726957
 30
0.0
 40
0.009075
100
AcDbArc
 50
270.0
 51
359.9999999999995
  0
LINE
  5
3F5
330
2
100
AcDbEntity
  8
0
100
AcDbLine
 10
9.283622059223953
 20
5.997636587726955
 30
0.0
 11
9.28996916180916
 21
5.997636587726955
 31
0.0
  0
LINE
  5
3F6
330
2
100
AcDbEntity
  8
0
100
AcDbLine
 10
9.238833566657117
 20
6.16639646905374
 30
0.0
 11
9.290084970475321
 21
6.16639646905374
 31
0.0
  0
ARC
  5
3F7
330
2
100
AcDbEntity
  8
0
100
AcDbCircle
 10
9.321803487787311
 20
6.157101156093071
 30
0.0
 40
0.009075
100
AcDbArc
 50
90.0
 51
180.0
  0
ARC
  5
3F8
330
2
100
AcDbEntity
  8
0
100
AcDbCircle
 10
9.321839610330036
 20
6.038652633624346
 30
0.0
 40
0.009075
100
AcDbArc
 50
180.0
 51
270.0
  0
LINE
  5
3F9
330
2
100
AcDbEntity
  8
0
100
AcDbLine
 10
9.330855776745373
 20
6.029577633624344
 30
0.0
 11
9.321839610330036
 21
6.029577633624344
 31
0.0
  0
ARC
  5
3FA
330
2
100
AcDbEntity
  8
0
100
AcDbCircle
 10
9.332810680456542
 20
6.097867723290792
 30
0.0
 40
0.0683180649255472
100
AcDbArc
 50
268.3602723065112
 51
91.03554420503952
  0
LINE
  5
3FB
330
2
100
AcDbEntity
  8
0
100
AcDbLine
 10
9.299044161809163
 20
6.058896655792072
 30
0.0
 11
9.299044161809156
 21
6.006711587726957
 31
0.0
  0
LINE
  5
3FC
330
2
100
AcDbEntity
  8
0
100
AcDbLine
 10
9.31272848778731
 20
6.059312231358996
 30
0.0
 11
9.31272848778731
 21
6.039056274741743
 31
0.0
  0
ARC
  5
3FD
330
2
100
AcDbEntity
  8
0
100
AcDbCircle
 10
9.305383226220607
 20
6.097643292810462
 30
0.0
 40
0.0326250630924573
100
AcDbArc
 50
111.6934953746656
 51
248.3065046253344
  0
CIRCLE
  5
3FE
330
2
100
AcDbEntity
  8
0
100
AcDbCircle
 10
9.305383226220607
 20
6.097643292810462
 30
0.0
 40
0.0201890859276727
  0
ARC
  5
3FF
330
2
100
AcDbEntity
  8
0
100
AcDbCircle
 10
9.238383605537466
 20
6.005203369399254
 30
0.0
 40
0.0075625
100
AcDbArc
 50
179.9999999999999
 51
270.0
  0
ARC
  5
400
330
2
100
AcDbEntity
  8
0
100
AcDbCircle
 10
9.238383605537466
 20
6.158847367038467
 30
0.0
 40
0.0075625
100
AcDbArc
 50
86.58894430958445
 51
180.0
  0
LINE
  5
401
330
2
100
AcDbEntity
  8
0
100
AcDbLine
 10
9.238383605537462
 20
5.997640869399254
 30
0.0
 11
9.283758605537462
 21
5.997640869399254
 31
0.0
  0
LINE
  5
402
330
2
100
AcDbEntity
  8
0
100
AcDbLine
 10
9.230821105537463
 20
6.158847367038467
 30
0.0
 11
9.230821105537463
 21
6.005203369399254
 31
0.0
  0
ARC
  5
403
330
2
100
AcDbEntity
  8
0
100
AcDbCircle
 10
9.225330757310647
 20
5.992141115981985
 30
0.0
 40
0.015125
100
AcDbArc
 50
180.0
 51
270.0000000000001
  0
ARC
  5
404
330
2
100
AcDbEntity
  8
0
100
AcDbCircle
 10
9.403503257310646
 20
5.992141115981985
 30
0.0
 40
0.015125
100
AcDbArc
 50
270.0000000000001
 51
0.0
  0
ARC
  5
405
330
2
100
AcDbEntity
  8
0
100
AcDbCircle
 10
9.403503257310646
 20
6.170313615981985
 30
0.0
 40
0.015125
100
AcDbArc
 50
0.0
 51
90.0
  0
ARC
  5
406
330
2
100
AcDbEntity
  8
0
100
AcDbCircle
 10
9.225330757310647
 20
6.170313615981985
 30
0.0
 40
0.015125
100
AcDbArc
 50
90.0
 51
180.0
  0
LINE
  5
407
330
2
100
AcDbEntity
  8
0
100
AcDbLine
 10
9.210205757310646
 20
5.992141115981985
 30
0.0
 11
9.210205757310646
 21
6.170313615981985
 31
0.0
  0
LINE
  5
408
330
2
100
AcDbEntity
  8
0
100
AcDbLine
 10
9.403503257310646
 20
5.977016115981985
 30
0.0
 11
9.225330757310644
 21
5.977016115981985
 31
0.0
  0
LINE
  5
409
330
2
100
AcDbEntity
  8
0
100
AcDbLine
 10
9.418628257310643
 20
6.170313615981985
 30
0.0
 11
9.418628257310643
 21
5.992141115981985
 31
0.0
  0
LINE
  5
40A
330
2
100
AcDbEntity
  8
0
100
AcDbLine
 10
9.225330757310644
 20
6.185438615981983
 30
0.0
 11
9.403503257310646
 21
6.185438615981983
 31
0.0
  0
ARC
  5
40B
330
2
100
AcDbEntity
  8
0
100
AcDbCircle
 10
9.491815195716524
 20
6.153932803901708
 30
0.0
 40
0.0157110161299969
100
AcDbArc
 50
279.6074723833924
 51
97.06489068884314
  0
LINE
  5
40C
330
2
100
AcDbEntity
  8
0
100
AcDbLine
 10
9.871853844930743
 20
6.098217749693702
 30
0.0
 11
9.896635908644832
 21
6.098217749693702
 31
0.0
  0
LINE
  5
40D
330
2
100
AcDbEntity
  8
0
100
AcDbLine
 10
9.871853844930747
 20
6.184612692750694
 30
0.0
 11
9.896635908644832
 21
6.184612692750694
 31
0.0
  0
LINE
  5
40E
330
2
100
AcDbEntity
  8
0
100
AcDbLine
 10
9.896635908644832
 20
6.184612692750694
 30
0.0
 11
9.896635908644832
 21
6.098217749693702
 31
0.0
  0
LINE
  5
40F
330
2
100
AcDbEntity
  8
0
100
AcDbLine
 10
9.970938576544831
 20
6.09788495333397
 30
0.0
 11
9.994597617646462
 21
6.09788495333397
 31
0.0
  0
LINE
  5
410
330
2
100
AcDbEntity
  8
0
100
AcDbLine
 10
9.908128985871613
 20
6.09788495333397
 30
0.0
 11
9.93234657884221
 21
6.09788495333397
 31
0.0
  0
LINE
  5
411
330
2
100
AcDbEntity
  8
0
100
AcDbLine
 10
9.970429327295567
 20
6.184534255062136
 30
0.0
 11
9.994617360647296
 21
6.184534255062136
 31
0.0
  0
LINE
  5
412
330
2
100
AcDbEntity
  8
0
100
AcDbLine
 10
9.908109242870779
 20
6.184534255062136
 30
0.0
 11
9.932853047840787
 21
6.184534255062136
 31
0.0
  0
LINE
  5
413
330
2
100
AcDbEntity
  8
0
100
AcDbLine
 10
9.951510714375627
 20
6.155070881244974
 30
0.0
 11
9.970429327295567
 21
6.184534255062136
 31
0.0
  0
LINE
  5
414
330
2
100
AcDbEntity
  8
0
100
AcDbLine
 10
9.932853047840787
 20
6.184534255062136
 30
0.0
 11
9.951510714375627
 21
6.155070881244974
 31
0.0
  0
LINE
  5
415
330
2
100
AcDbEntity
  8
0
100
AcDbLine
 10
9.951510714375627
 20
6.126782560741053
 30
0.0
 11
9.93234657884221
 21
6.09788495333397
 31
0.0
  0
LINE
  5
416
330
2
100
AcDbEntity
  8
0
100
AcDbLine
 10
9.970938576544831
 20
6.09788495333397
 30
0.0
 11
9.951510714375627
 21
6.126782560741053
 31
0.0
  0
LINE
  5
417
330
2
100
AcDbEntity
  8
0
100
AcDbLine
 10
9.951941322658766
 20
5.988822597668081
 30
0.0
 11
9.973338926237181
 21
5.988822597668081
 31
0.0
  0
LINE
  5
418
330
2
100
AcDbEntity
  8
0
100
AcDbLine
 10
9.973338926237181
 20
6.054194712925786
 30
0.0
 11
9.973338926237181
 21
5.988822597668081
 31
0.0
  0
LINE
  5
419
330
2
100
AcDbEntity
  8
0
100
AcDbLine
 10
9.951941322658766
 20
6.054277419264848
 30
0.0
 11
9.951941322658766
 21
5.988822597668081
 31
0.0
  0
LINE
  5
41A
330
2
100
AcDbEntity
  8
0
100
AcDbLine
 10
9.926573176619475
 20
6.054277419264848
 30
0.0
 11
9.951941322658766
 21
6.054277419264848
 31
0.0
  0
LINE
  5
41B
330
2
100
AcDbEntity
  8
0
100
AcDbLine
 10
9.730468196773186
 20
6.051787791152809
 30
0.0
 11
9.749632694850104
 21
6.051787791152809
 31
0.0
  0
LINE
  5
41C
330
2
100
AcDbEntity
  8
0
100
AcDbLine
 10
9.749632694850104
 20
5.988273634885985
 30
0.0
 11
9.774092344056734
 21
5.988273634885985
 31
0.0
  0
LINE
  5
41D
330
2
100
AcDbEntity
  8
0
100
AcDbLine
 10
9.774092344056732
 20
6.051777667243719
 30
0.0
 11
9.774092344056734
 21
5.988273634885985
 31
0.0
  0
LINE
  5
41E
330
2
100
AcDbEntity
  8
0
100
AcDbLine
 10
9.749632694850104
 20
6.051787791152809
 30
0.0
 11
9.749632694850104
 21
5.988273634885985
 31
0.0
  0
LINE
  5
41F
330
2
100
AcDbEntity
  8
0
100
AcDbLine
 10
9.857431432785665
 20
6.183875564513241
 30
0.0
 11
9.857431432785665
 21
6.097639649836035
 31
0.0
  0
LINE
  5
420
330
2
100
AcDbEntity
  8
0
100
AcDbLine
 10
9.766681432785668
 20
6.097513684956235
 30
0.0
 11
9.766681432785663
 21
6.183875564513241
 31
0.0
  0
LINE
  5
421
330
2
100
AcDbEntity
  8
0
100
AcDbLine
 10
9.831184720646838
 20
6.183875564513241
 30
0.0
 11
9.831184720646838
 21
6.150291940975583
 31
0.0
  0
LINE
  5
422
330
2
100
AcDbEntity
  8
0
100
AcDbLine
 10
9.83118472064684
 20
6.097639649836035
 30
0.0
 11
9.795632904939528
 21
6.136630805977214
 31
0.0
  0
LINE
  5
423
330
2
100
AcDbEntity
  8
0
100
AcDbLine
 10
9.794779661362554
 20
6.183875564513241
 30
0.0
 11
9.831184720646838
 21
6.143461373476402
 31
0.0
  0
LINE
  5
424
330
2
100
AcDbEntity
  8
0
100
AcDbLine
 10
9.795632904939528
 20
6.136630805977214
 30
0.0
 11
9.795632904939528
 21
6.097639649836035
 31
0.0
  0
LINE
  5
425
330
2
100
AcDbEntity
  8
0
100
AcDbLine
 10
9.831184720646838
 20
6.183875564513241
 30
0.0
 11
9.831184720646838
 21
6.143461373476402
 31
0.0
  0
LINE
  5
426
330
2
100
AcDbEntity
  8
0
100
AcDbLine
 10
9.831184720646838
 20
6.183875564513241
 30
0.0
 11
9.857431432785665
 21
6.183875564513241
 31
0.0
  0
LINE
  5
427
330
2
100
AcDbEntity
  8
0
100
AcDbLine
 10
9.766681432785663
 20
6.183875564513241
 30
0.0
 11
9.794779661362554
 21
6.183875564513241
 31
0.0
  0
LINE
  5
428
330
2
100
AcDbEntity
  8
0
100
AcDbLine
 10
9.83118472064684
 20
6.097639649836035
 30
0.0
 11
9.857431432785665
 21
6.097639649836035
 31
0.0
  0
LINE
  5
429
330
2
100
AcDbEntity
  8
0
100
AcDbLine
 10
9.688357904285702
 20
5.987404319353232
 30
0.0
 11
9.714604616424528
 21
5.987404319353232
 31
0.0
  0
LINE
  5
42A
330
2
100
AcDbEntity
  8
0
100
AcDbLine
 10
9.623854616424528
 20
6.073640234030439
 30
0.0
 11
9.651952845001424
 21
6.073640234030439
 31
0.0
  0
LINE
  5
42B
330
2
100
AcDbEntity
  8
0
100
AcDbLine
 10
9.623854616424528
 20
5.987404319353232
 30
0.0
 11
9.652806088578394
 21
5.987404319353232
 31
0.0
  0
LINE
  5
42C
330
2
100
AcDbEntity
  8
0
100
AcDbLine
 10
9.688357904285702
 20
6.073640234030439
 30
0.0
 11
9.714604616424528
 21
6.073640234030439
 31
0.0
  0
LINE
  5
42D
330
2
100
AcDbEntity
  8
0
100
AcDbLine
 10
9.688357904285702
 20
6.073640234030439
 30
0.0
 11
9.688357904285698
 21
6.033226042993597
 31
0.0
  0
LINE
  5
42E
330
2
100
AcDbEntity
  8
0
100
AcDbLine
 10
9.652806088578394
 20
6.026395475494411
 30
0.0
 11
9.652806088578394
 21
5.987404319353232
 31
0.0
  0
LINE
  5
42F
330
2
100
AcDbEntity
  8
0
100
AcDbLine
 10
9.651952845001424
 20
6.073640234030439
 30
0.0
 11
9.688357904285698
 21
6.033226042993597
 31
0.0
  0
LINE
  5
430
330
2
100
AcDbEntity
  8
0
100
AcDbLine
 10
9.688357904285702
 20
5.987404319353232
 30
0.0
 11
9.652806088578394
 21
6.026395475494411
 31
0.0
  0
LINE
  5
431
330
2
100
AcDbEntity
  8
0
100
AcDbLine
 10
9.688357904285702
 20
6.073640234030439
 30
0.0
 11
9.688357904285702
 21
6.040056610492781
 31
0.0
  0
LINE
  5
432
330
2
100
AcDbEntity
  8
0
100
AcDbLine
 10
9.825574001822863
 20
6.023293538378322
 30
0.0
 11
9.834677458420252
 21
6.055421916175245
 31
0.0
  0
LINE
  5
433
330
2
100
AcDbEntity
  8
0
100
AcDbLine
 10
9.851664220469672
 20
5.998799376010519
 30
0.0
 11
9.854949319893117
 21
5.98784904459903
 31
0.0
  0
LINE
  5
434
330
2
100
AcDbEntity
  8
0
100
AcDbLine
 10
9.825574001822863
 20
6.023293538378322
 30
0.0
 11
9.844315971759327
 21
6.023293538378322
 31
0.0
  0
LINE
  5
435
330
2
100
AcDbEntity
  8
0
100
AcDbLine
 10
9.81769069637084
 20
5.998799376010519
 30
0.0
 11
9.851664220469672
 21
5.998799376010519
 31
0.0
  0
LINE
  5
436
330
2
100
AcDbEntity
  8
0
100
AcDbLine
 10
9.834677458420252
 20
6.055421916175245
 30
0.0
 11
9.844315971759327
 21
6.023293538378322
 31
0.0
  0
LINE
  5
437
330
2
100
AcDbEntity
  8
0
100
AcDbLine
 10
9.81769069637084
 20
5.998799376010519
 30
0.0
 11
9.814405596947386
 21
5.98784904459903
 31
0.0
  0
LINE
  5
438
330
2
100
AcDbEntity
  8
0
100
AcDbLine
 10
9.854949319893117
 20
5.98784904459903
 30
0.0
 11
9.877473610418526
 21
5.98784904459903
 31
0.0
  0
LINE
  5
439
330
2
100
AcDbEntity
  8
0
100
AcDbLine
 10
9.791881306421984
 20
5.98784904459903
 30
0.0
 11
9.814405596947386
 21
5.98784904459903
 31
0.0
  0
LINE
  5
43A
330
2
100
AcDbEntity
  8
0
100
AcDbLine
 10
9.818910455052465
 20
6.073441348595572
 30
0.0
 11
9.850444461788036
 21
6.073441348595572
 31
0.0
  0
LINE
  5
43B
330
2
100
AcDbEntity
  8
0
100
AcDbLine
 10
9.850444461788036
 20
6.073441348595572
 30
0.0
 11
9.877473610418526
 21
5.98784904459903
 31
0.0
  0
LINE
  5
43C
330
2
100
AcDbEntity
  8
0
100
AcDbLine
 10
9.818910455052465
 20
6.073441348595572
 30
0.0
 11
9.791881306421984
 21
5.98784904459903
 31
0.0
  0
LINE
  5
43D
330
2
100
AcDbEntity
  8
0
100
AcDbLine
 10
9.774092344056732
 20
6.051777667243719
 30
0.0
 11
9.791724446773187
 21
6.051777667243719
 31
0.0
  0
LINE
  5
43E
330
2
100
AcDbEntity
  8
0
100
AcDbLine
 10
9.515133309739267
 20
6.017180125744423
 30
0.0
 11
9.515133309739267
 21
5.995611779493922
 31
0.0
  0
LINE
  5
43F
330
2
100
AcDbEntity
  8
0
100
AcDbLine
 10
9.515133309739267
 20
6.068822993134291
 30
0.0
 11
9.515133309739267
 21
6.047233834621101
 31
0.0
  0
LINE
  5
440
330
2
100
AcDbEntity
  8
0
100
AcDbLine
 10
9.506898348973358
 20
6.05014225806078
 30
0.0
 11
9.515133309739267
 21
6.047233834621101
 31
0.0
  0
LINE
  5
441
330
2
100
AcDbEntity
  8
0
100
AcDbLine
 10
9.505929530059724
 20
6.01330222782485
 30
0.0
 11
9.515133309739267
 21
6.017180125744423
 31
0.0
  0
ARC
  5
442
330
2
100
AcDbEntity
  8
0
100
AcDbCircle
 10
9.493819293639267
 20
6.031722242942816
 30
0.0
 40
0.022314167287173
100
AcDbArc
 50
55.63771526861781
 51
303.6721820255213
  0
ARC
  5
443
330
2
100
AcDbEntity
  8
0
100
AcDbCircle
 10
9.498805950557086
 20
6.153765259499857
 30
0.0
 40
0.0318500863726975
100
AcDbArc
 50
268.7194879921035
 51
95.87374408491214
  0
LINE
  5
444
330
2
100
AcDbEntity
  8
0
100
AcDbLine
 10
9.937724620496537
 20
6.010762522131996
 30
0.0
 11
9.937724620496537
 21
5.989268303503807
 31
0.0
  0
CIRCLE
  5
445
330
2
100
AcDbEntity
  8
0
100
AcDbCircle
 10
9.570341836399096
 20
6.031123401889495
 30
0.0
 40
0.0185093966575668
  0
CIRCLE
  5
446
330
2
100
AcDbEntity
  8
0
100
AcDbCircle
 10
9.570341836399096
 20
6.031123401889495
 30
0.0
 40
0.04310625
  0
LINE
  5
447
330
2
100
AcDbEntity
  8
0
100
AcDbLine
 10
9.623854616424528
 20
5.987404319353232
 30
0.0
 11
9.623854616424528
 21
6.073640234030439
 31
0.0
  0
LINE
  5
448
330
2
100
AcDbEntity
  8
0
100
AcDbLine
 10
9.714604616424528
 20
6.073640234030439
 30
0.0
 11
9.714604616424528
 21
5.987404319353232
 31
0.0
  0
LINE
  5
449
330
2
100
AcDbEntity
  8
0
100
AcDbLine
 10
9.928696677998068
 20
6.074642500923397
 30
0.0
 11
9.993870406852911
 21
6.074642500923397
 31
0.0
  0
LINE
  5
44A
330
2
100
AcDbEntity
  8
0
100
AcDbLine
 10
9.993870406852911
 20
6.074613462925786
 30
0.0
 11
9.993870406852911
 21
6.054194712925786
 31
0.0
  0
LINE
  5
44B
330
2
100
AcDbEntity
  8
0
100
AcDbLine
 10
9.993870406852911
 20
6.054194712925786
 30
0.0
 11
9.973338926237181
 21
6.054194712925786
 31
0.0
  0
LINE
  5
44C
330
2
100
AcDbEntity
  8
0
100
AcDbLine
 10
9.791724446773187
 20
6.074317931647026
 30
0.0
 11
9.791724446773187
 21
6.051777667243719
 31
0.0
  0
LINE
  5
44D
330
2
100
AcDbEntity
  8
0
100
AcDbLine
 10
9.730468196773186
 20
6.074317931647026
 30
0.0
 11
9.791724446773187
 21
6.074317931647026
 31
0.0
  0
LINE
  5
44E
330
2
100
AcDbEntity
  8
0
100
AcDbLine
 10
9.730468196773186
 20
6.051787791152809
 30
0.0
 11
9.730468196773186
 21
6.074317931647026
 31
0.0
  0
LINE
  5
44F
330
2
100
AcDbEntity
  8
0
100
AcDbLine
 10
9.967244551759037
 20
6.141193974322392
 30
0.0
 11
9.994597617646462
 21
6.09788495333397
 31
0.0
  0
LINE
  5
450
330
2
100
AcDbEntity
  8
0
100
AcDbLine
 10
9.967244551759037
 20
6.141193974322392
 30
0.0
 11
9.994617360647296
 21
6.184534255062136
 31
0.0
  0
LINE
  5
451
330
2
100
AcDbEntity
  8
0
100
AcDbLine
 10
9.935482051759036
 20
6.141193974322392
 30
0.0
 11
9.908128985871613
 21
6.09788495333397
 31
0.0
  0
LINE
  5
452
330
2
100
AcDbEntity
  8
0
100
AcDbLine
 10
9.908109242870779
 20
6.184534255062136
 30
0.0
 11
9.935482051759036
 21
6.141193974322392
 31
0.0
  0
LINE
  5
453
330
2
100
AcDbEntity
  8
0
100
AcDbLine
 10
9.871853844930743
 20
6.098217749693702
 30
0.0
 11
9.871853844930747
 21
6.184612692750694
 31
0.0
  0
ARC
  5
454
330
2
100
AcDbEntity
  8
0
100
AcDbCircle
 10
9.682847007019908
 20
6.141177065607853
 30
0.0
 40
0.0432445032284328
100
AcDbArc
 50
86.57613399450616
 51
275.5031445064893
  0
LINE
  5
455
330
2
100
AcDbEntity
  8
0
100
AcDbLine
 10
9.687251811695354
 20
6.184197153370174
 30
0.0
 11
9.687251811695354
 21
6.184344379033772
 31
0.0
  0
LINE
  5
456
330
2
100
AcDbEntity
  8
0
100
AcDbLine
 10
9.755314311695356
 20
6.098131879033773
 30
0.0
 11
9.686994171386018
 21
6.098131879033773
 31
0.0
  0
LINE
  5
457
330
2
100
AcDbEntity
  8
0
100
AcDbLine
 10
9.755314311695356
 20
6.115374379033773
 30
0.0
 11
9.755314311695356
 21
6.098131879033773
 31
0.0
  0
LINE
  5
458
330
2
100
AcDbEntity
  8
0
100
AcDbLine
 10
9.719014311695351
 20
6.115374379033773
 30
0.0
 11
9.755314311695356
 21
6.115374379033773
 31
0.0
  0
LINE
  5
459
330
2
100
AcDbEntity
  8
0
100
AcDbLine
 10
9.719014311695351
 20
6.132616879033772
 30
0.0
 11
9.719014311695351
 21
6.115374379033773
 31
0.0
  0
LINE
  5
45A
330
2
100
AcDbEntity
  8
0
100
AcDbLine
 10
9.755314311695356
 20
6.132616879033772
 30
0.0
 11
9.719014311695351
 21
6.132616879033772
 31
0.0
  0
LINE
  5
45B
330
2
100
AcDbEntity
  8
0
100
AcDbLine
 10
9.755314311695356
 20
6.149859379033772
 30
0.0
 11
9.755314311695356
 21
6.132616879033772
 31
0.0
  0
LINE
  5
45C
330
2
100
AcDbEntity
  8
0
100
AcDbLine
 10
9.719014311695351
 20
6.149859379033772
 30
0.0
 11
9.755314311695356
 21
6.149859379033772
 31
0.0
  0
LINE
  5
45D
330
2
100
AcDbEntity
  8
0
100
AcDbLine
 10
9.719014311695351
 20
6.167101879033772
 30
0.0
 11
9.719014311695351
 21
6.149859379033772
 31
0.0
  0
LINE
  5
45E
330
2
100
AcDbEntity
  8
0
100
AcDbLine
 10
9.755314311695356
 20
6.167101879033772
 30
0.0
 11
9.719014311695351
 21
6.167101879033772
 31
0.0
  0
LINE
  5
45F
330
2
100
AcDbEntity
  8
0
100
AcDbLine
 10
9.755314311695356
 20
6.184344379033772
 30
0.0
 11
9.755314311695356
 21
6.167101879033772
 31
0.0
  0
LINE
  5
460
330
2
100
AcDbEntity
  8
0
100
AcDbLine
 10
9.685429662835947
 20
6.184344379033772
 30
0.0
 11
9.755314311695356
 21
6.184344379033772
 31
0.0
  0
CIRCLE
  5
461
330
2
100
AcDbEntity
  8
0
100
AcDbCircle
 10
9.682869939891316
 20
6.141314196516022
 30
0.0
 40
0.01815
  0
LINE
  5
462
330
2
100
AcDbEntity
  8
0
100
AcDbLine
 10
9.571590819712588
 20
6.098190453762172
 30
0.0
 11
9.53982831971259
 21
6.098190453762172
 31
0.0
  0
LINE
  5
463
330
2
100
AcDbEntity
  8
0
100
AcDbLine
 10
9.571590819712588
 20
6.129952953762172
 30
0.0
 11
9.571590819712588
 21
6.098190453762172
 31
0.0
  0
LINE
  5
465
330
2
100
AcDbEntity
  8
0
100
AcDbLine
 10
9.598815819712593
 20
6.098190453762172
 30
0.0
 11
9.598815819712593
 21
6.129952953762172
 31
0.0
  0
LINE
  5
466
330
2
100
AcDbEntity
  8
0
100
AcDbLine
 10
9.63057831971259
 20
6.098190453762172
 30
0.0
 11
9.598815819712593
 21
6.098190453762172
 31
0.0
  0
LINE
  5
467
330
2
100
AcDbEntity
  8
0
100
AcDbLine
 10
9.63057831971259
 20
6.184402953762172
 30
0.0
 11
9.63057831971259
 21
6.098190453762172
 31
0.0
  0
LINE
  5
468
330
2
100
AcDbEntity
  8
0
100
AcDbLine
 10
9.598815819712593
 20
6.184402953762172
 30
0.0
 11
9.63057831971259
 21
6.184402953762172
 31
0.0
  0
LINE
  5
469
330
2
100
AcDbEntity
  8
0
100
AcDbLine
 10
9.598815819712593
 20
6.152640453762172
 30
0.0
 11
9.598815819712593
 21
6.184402953762172
 31
0.0
  0
LINE
  5
46A
330
2
100
AcDbEntity
  8
0
100
AcDbLine
 10
9.571590819712588
 20
6.152640453762172
 30
0.0
 11
9.598815819712593
 21
6.152640453762172
 31
0.0
  0
LINE
  5
46B
330
2
100
AcDbEntity
  8
0
100
AcDbLine
 10
9.571590819712588
 20
6.184402953762172
 30
0.0
 11
9.571590819712588
 21
6.152640453762172
 31
0.0
  0
LINE
  5
46C
330
2
100
AcDbEntity
  8
0
100
AcDbLine
 10
9.53982831971259
 20
6.184402953762172
 30
0.0
 11
9.571590819712588
 21
6.184402953762172
 31
0.0
  0
LINE
  5
46D
330
2
100
AcDbEntity
  8
0
100
AcDbLine
 10
9.53982831971259
 20
6.098190453762172
 30
0.0
 11
9.53982831971259
 21
6.184402953762172
 31
0.0
  0
LINE
  5
46E
330
2
100
AcDbEntity
  8
0
100
AcDbLine
 10
9.480752552673449
 20
6.138442146099096
 30
0.0
 11
9.494437322464325
 21
6.138442146099096
 31
0.0
  0
LINE
  5
46F
330
2
100
AcDbEntity
  8
0
100
AcDbLine
 10
9.480752552673449
 20
6.169524534004057
 30
0.0
 11
9.489882844750811
 21
6.169524534004057
 31
0.0
  0
LINE
  5
470
330
2
100
AcDbEntity
  8
0
100
AcDbLine
 10
9.480752552673449
 20
6.169524534004057
 30
0.0
 11
9.480752552673449
 21
6.138442146099096
 31
0.0
  0
LINE
  5
471
330
2
100
AcDbEntity
  8
0
100
AcDbLine
 10
9.480337202159397
 20
6.121923127108855
 30
0.0
 11
9.498094187434451
 21
6.121923127108855
 31
0.0
  0
LINE
  5
472
330
2
100
AcDbEntity
  8
0
100
AcDbLine
 10
9.448574702159396
 20
6.185448127108855
 30
0.0
 11
9.495546517781926
 21
6.185448127108855
 31
0.0
  0
LINE
  5
473
330
2
100
AcDbEntity
  8
0
100
AcDbLine
 10
9.480337202159397
 20
6.099235627108854
 30
0.0
 11
9.480337202159397
 21
6.121923127108855
 31
0.0
  0
LINE
  5
474
330
2
100
AcDbEntity
  8
0
100
AcDbLine
 10
9.448574702159396
 20
6.099235627108854
 30
0.0
 11
9.480337202159397
 21
6.099235627108854
 31
0.0
  0
LINE
  5
475
330
2
100
AcDbEntity
  8
0
100
AcDbLine
 10
9.448574702159396
 20
6.185448127108855
 30
0.0
 11
9.448574702159396
 21
6.099235627108854
 31
0.0
  0
ARC
  5
476
330
2
100
AcDbEntity
  8
0
100
AcDbCircle
 10
9.305383226220607
 20
6.097643292810462
 30
0.0
 40
0.0326250630924573
100
AcDbArc
 50
291.150816959864
 51
66.81067439245778
  0
CIRCLE
  5
478
330
2
100
AcDbEntity
  8
0
 62
     3
100
AcDbCircle
 10
8.915804613620679
 20
6.548636729414012
 30
0.0
 40
0.0106282669482434
  0
CIRCLE
  5
479
330
2
100
AcDbEntity
  8
0
 62
     3
100
AcDbCircle
 10
10.31045364992081
 20
6.554318334049949
 30
0.0
 40
0.0106282669482434
  0
CIRCLE
  5
47A
330
2
100
AcDbEntity
  8
0
 62
     3
100
AcDbCircle
 10
10.31045364992081
 20
6.554318334049949
 30
0.0
 40
0.0131550111372021
  0
ARC
  5
47B
330
2
100
AcDbEntity
  8
0
100
AcDbCircle
 10
9.633209808654894
 20
4.380180162812571
 30
0.0
 40
0.075160652744313
100
AcDbArc
 50
175.4215589780554
 51
317.8763993296799
  0
LINE
  5
48A
330
2
100
AcDbEntity
  8
0
100
AcDbLine
 10
7.778871123048047
 20
2.825442982375803
 30
0.0
 11
7.778871123048047
 21
1.966926181026656
 31
0.0
  0
LINE
  5
48C
330
2
100
AcDbEntity
  8
0
100
AcDbLine
 10
7.965365038860718
 20
2.146926181026656
 30
0.0
 11
9.176577403815755
 21
2.146926181026656
 31
0.0
  0
LINE
  5
48D
330
2
100
AcDbEntity
  8
0
100
AcDbLine
 10
11.24754347118003
 20
2.146926181026656
 30
0.0
 11
9.932039720754174
 21
2.146926181026656
 31
0.0
  0
SOLID
  5
48E
330
2
100
AcDbEntity
  8
0
100
AcDbTrace
 10
7.965365038860718
 20
2.176926181026657
 30
0.0
 11
7.965365038860718
 21
2.116926181026657
 31
0.0
 12
7.785365038860717
 22
2.146926181026656
 32
0.0
 13
7.785365038860717
 23
2.146926181026656
 33
0.0
  0
SOLID
  5
48F
330
2
100
AcDbEntity
  8
0
100
AcDbTrace
 10
11.24754347118003
 20
2.176926181026657
 30
0.0
 11
11.24754347118003
 21
2.116926181026657
 31
0.0
 12
11.42754347118003
 22
2.146926181026656
 32
0.0
 13
11.42754347118003
 23
2.146926181026656
 33
0.0
  0
MTEXT
  5
490
330
2
100
AcDbEntity
  8
0
100
AcDbMText
 10
9.514196451434806
 20
2.146926181026656
 30
0.0
 40
0.1
 41
0.0
 71
     5
 72
     1
  1
3.65
  7
ROMANS
 73
     1
 44
1.0
1001
ACAD
1000
MTEXTBEGIN
1070
    73
1070
     1
1070
    44
1040
1.0
1070
    74
1070
     0
1000
MTEXTEND
  0
LINE
  5
491
330
2
100
AcDbEntity
  8
0
100
AcDbLine
 10
11.42237720723538
 20
2.661594758286191
 30
0.0
 11
11.42237720723538
 21
1.966926181026656
 31
0.0
  0
LINE
  5
4A1
330
2
100
AcDbEntity
  8
0
 62
     3
100
AcDbLine
 10
10.98235654489974
 20
6.315788433170602
 30
0.0
 11
10.98235654489974
 21
5.639276315159257
 31
0.0
  0
LINE
  5
4A2
330
2
100
AcDbEntity
  8
0
 62
     3
100
AcDbLine
 10
10.82829959879592
 20
6.232194726925762
 30
0.0
 11
10.82829959879592
 21
6.081194726925763
 31
0.0
  0
LINE
  5
4A3
330
2
100
AcDbEntity
  8
0
 62
     3
100
AcDbLine
 10
10.86579959879591
 20
6.232194726925762
 30
0.0
 11
10.86579959879591
 21
6.081194726925763
 31
0.0
  0
LINE
  5
4A4
330
2
100
AcDbEntity
  8
0
 62
     3
100
AcDbLine
 10
10.86579959879591
 20
6.081194726925763
 30
0.0
 11
10.82829959879592
 21
6.081194726925763
 31
0.0
  0
LINE
  5
4A5
330
2
100
AcDbEntity
  8
0
 62
     3
100
AcDbLine
 10
10.86579959879591
 20
6.232194726925762
 30
0.0
 11
10.82829959879592
 21
6.232194726925762
 31
0.0
  0
LINE
  5
4A6
330
2
100
AcDbEntity
  8
0
 62
     3
100
AcDbLine
 10
10.86579959879591
 20
6.194194726925761
 30
0.0
 11
10.84488629844692
 21
6.194194726925761
 31
0.0
  0
LINE
  5
4A7
330
2
100
AcDbEntity
  8
0
 62
     3
100
AcDbLine
 10
10.86579959879591
 20
6.119194726925762
 30
0.0
 11
10.84488629844692
 21
6.119194726925762
 31
0.0
  0
LINE
  5
4A8
330
2
100
AcDbEntity
  8
0
 62
     3
100
AcDbLine
 10
10.84488629844692
 20
6.194194726925761
 30
0.0
 11
10.84488629844692
 21
6.119194726925762
 31
0.0
  0
LINE
  5
4E6
330
2
100
AcDbEntity
  8
0
 62
     3
100
AcDbLine
 10
11.25930632320039
 20
4.110624383043038
 30
0.0
 11
11.25930632320039
 21
3.959624383043038
 31
0.0
  0
LINE
  5
4E7
330
2
100
AcDbEntity
  8
0
 62
     3
100
AcDbLine
 10
11.29680632320038
 20
4.072624383043038
 30
0.0
 11
11.27589302285139
 21
4.072624383043038
 31
0.0
  0
LINE
  5
4E8
330
2
100
AcDbEntity
  8
0
 62
     3
100
AcDbLine
 10
11.29680632320038
 20
3.997624383043038
 30
0.0
 11
11.27589302285139
 21
3.997624383043038
 31
0.0
  0
LINE
  5
4E9
330
2
100
AcDbEntity
  8
0
 62
     3
100
AcDbLine
 10
11.27589302285139
 20
4.072624383043038
 30
0.0
 11
11.27589302285139
 21
3.997624383043038
 31
0.0
  0
LINE
  5
4EA
330
2
100
AcDbEntity
  8
0
 62
     3
100
AcDbLine
 10
11.29680632320038
 20
3.959624383043038
 30
0.0
 11
11.25930632320039
 21
3.959624383043038
 31
0.0
  0
LINE
  5
4EC
330
2
100
AcDbEntity
  8
0
 62
     3
100
AcDbLine
 10
11.29680632320038
 20
4.110624383043038
 30
0.0
 11
11.25930632320039
 21
4.110624383043038
 31
0.0
  0
LINE
  5
4ED
330
2
100
AcDbEntity
  8
0
 62
     3
100
AcDbLine
 10
11.18202399103523
 20
4.815758985628909
 30
0.0
 11
11.18202399103523
 21
4.66475898562891
 31
0.0
  0
LINE
  5
4EE
330
2
100
AcDbEntity
  8
0
 62
     3
100
AcDbLine
 10
11.14452399103524
 20
4.815758985628909
 30
0.0
 11
11.14452399103524
 21
4.66475898562891
 31
0.0
  0
LINE
  5
4EF
330
2
100
AcDbEntity
  8
0
 62
     3
100
AcDbLine
 10
11.16111069068624
 20
4.77775898562891
 30
0.0
 11
11.16111069068624
 21
4.702758985628911
 31
0.0
  0
LINE
  5
4F0
330
2
100
AcDbEntity
  8
0
 62
     3
100
AcDbLine
 10
11.18202399103523
 20
4.702758985628911
 30
0.0
 11
11.16111069068624
 21
4.702758985628911
 31
0.0
  0
LINE
  5
4F1
330
2
100
AcDbEntity
  8
0
 62
     3
100
AcDbLine
 10
11.18202399103523
 20
4.66475898562891
 30
0.0
 11
11.14452399103524
 21
4.66475898562891
 31
0.0
  0
LINE
  5
4F2
330
2
100
AcDbEntity
  8
0
 62
     3
100
AcDbLine
 10
11.18202399103523
 20
4.77775898562891
 30
0.0
 11
11.16111069068624
 21
4.77775898562891
 31
0.0
  0
LINE
  5
4F3
330
2
100
AcDbEntity
  8
0
 62
     3
100
AcDbLine
 10
11.18202399103523
 20
4.815758985628909
 30
0.0
 11
11.14452399103524
 21
4.815758985628909
 31
0.0
  0
LINE
  5
4F4
330
2
100
AcDbEntity
  8
0
 62
     3
100
AcDbLine
 10
11.29727892539007
 20
4.110323858978978
 30
0.0
 11
11.29727892539007
 21
3.959323858978978
 31
0.0
  0
LINE
  5
4F5
330
2
100
AcDbEntity
  8
0
 62
     3
100
AcDbLine
 10
10.93791309695244
 20
4.533521901164268
 30
0.0
 11
10.86241309695244
 21
4.402752065192821
 31
0.0
  0
LINE
  5
4F6
330
2
100
AcDbEntity
  8
0
 62
     3
100
AcDbLine
 10
10.97038904959436
 20
4.514771901164269
 30
0.0
 11
10.89488904959436
 21
4.384002065192821
 31
0.0
  0
LINE
  5
4F7
330
2
100
AcDbEntity
  8
0
 62
     3
100
AcDbLine
 10
10.93835340928916
 20
4.489389066259724
 30
0.0
 11
10.90085340928916
 21
4.424437160975888
 31
0.0
  0
LINE
  5
4F8
330
2
100
AcDbEntity
  8
0
 62
     3
100
AcDbLine
 10
10.89488904959436
 20
4.384002065192821
 30
0.0
 11
10.86241309695244
 21
4.402752065192821
 31
0.0
  0
LINE
  5
4F9
330
2
100
AcDbEntity
  8
0
 62
     3
100
AcDbLine
 10
10.88274195990995
 20
4.43489381115039
 30
0.0
 11
10.90085340928916
 21
4.424437160975888
 31
0.0
  0
LINE
  5
4FA
330
2
100
AcDbEntity
  8
0
 62
     3
100
AcDbLine
 10
10.92024195990995
 20
4.499845716434226
 30
0.0
 11
10.93835340928916
 21
4.489389066259724
 31
0.0
  0
LINE
  5
4FB
330
2
100
AcDbEntity
  8
0
 62
     3
100
AcDbLine
 10
10.97038904959436
 20
4.514771901164269
 30
0.0
 11
10.93791309695244
 21
4.533521901164268
 31
0.0
  0
LINE
  5
4FC
330
2
100
AcDbEntity
  8
0
 62
     3
100
AcDbLine
 10
10.74126086007082
 20
4.730022275461085
 30
0.0
 11
10.66576086007082
 21
4.599252439489639
 31
0.0
  0
LINE
  5
4FD
330
2
100
AcDbEntity
  8
0
 62
     3
100
AcDbLine
 10
10.77373681271274
 20
4.711272275461086
 30
0.0
 11
10.69823681271274
 21
4.580502439489639
 31
0.0
  0
LINE
  5
4FE
330
2
100
AcDbEntity
  8
0
 62
     3
100
AcDbLine
 10
10.74170117240754
 20
4.685889440556542
 30
0.0
 11
10.70420117240754
 21
4.620937535272706
 31
0.0
  0
LINE
  5
4FF
330
2
100
AcDbEntity
  8
0
 62
     3
100
AcDbLine
 10
10.69823681271274
 20
4.580502439489639
 30
0.0
 11
10.66576086007082
 21
4.599252439489639
 31
0.0
  0
LINE
  5
500
330
2
100
AcDbEntity
  8
0
 62
     3
100
AcDbLine
 10
10.68608972302834
 20
4.631394185447208
 30
0.0
 11
10.70420117240754
 21
4.620937535272706
 31
0.0
  0
LINE
  5
501
330
2
100
AcDbEntity
  8
0
 62
     3
100
AcDbLine
 10
10.85099309266176
 20
5.175215368899046
 30
0.0
 11
10.77549309266176
 21
5.044445532927601
 31
0.0
  0
LINE
  5
502
330
2
100
AcDbEntity
  8
0
 62
     3
100
AcDbLine
 10
10.77549309266176
 20
5.044445532927601
 30
0.0
 11
10.74301714001985
 21
5.063195532927601
 31
0.0
  0
LINE
  5
503
330
2
100
AcDbEntity
  8
0
 62
     3
100
AcDbLine
 10
10.72358972302834
 20
4.696346090731044
 30
0.0
 11
10.74170117240754
 21
4.685889440556542
 31
0.0
  0
LINE
  5
504
330
2
100
AcDbEntity
  8
0
 62
     3
100
AcDbLine
 10
10.77373681271274
 20
4.711272275461086
 30
0.0
 11
10.74126086007082
 21
4.730022275461085
 31
0.0
  0
LINE
  5
505
330
2
100
AcDbEntity
  8
0
 62
     3
100
AcDbLine
 10
10.81851714001984
 20
5.193965368899047
 30
0.0
 11
10.74301714001985
 21
5.063195532927601
 31
0.0
  0
LINE
  5
506
330
2
100
AcDbEntity
  8
0
 62
     3
100
AcDbLine
 10
10.81895745235657
 20
5.149832533994504
 30
0.0
 11
10.78145745235657
 21
5.084880628710668
 31
0.0
  0
LINE
  5
507
330
2
100
AcDbEntity
  8
0
 62
     3
100
AcDbLine
 10
10.80084600297736
 20
5.160289184169005
 30
0.0
 11
10.81895745235657
 21
5.149832533994504
 31
0.0
  0
LINE
  5
508
330
2
100
AcDbEntity
  8
0
 62
     3
100
AcDbLine
 10
10.76334600297736
 20
5.095337278885168
 30
0.0
 11
10.78145745235657
 21
5.084880628710668
 31
0.0
  0
LINE
  5
509
330
2
100
AcDbEntity
  8
0
 62
     3
100
AcDbLine
 10
10.85099309266176
 20
5.175215368899046
 30
0.0
 11
10.81851714001984
 21
5.193965368899047
 31
0.0
  0
LINE
  5
50A
330
2
100
AcDbEntity
  8
0
 62
     3
100
AcDbLine
 10
10.56567866716015
 20
5.41853724195634
 30
0.0
 11
10.49017866716015
 21
5.287767405984893
 31
0.0
  0
LINE
  5
50B
330
2
100
AcDbEntity
  8
0
 62
     3
100
AcDbLine
 10
10.59815461980207
 20
5.399787241956341
 30
0.0
 11
10.52265461980207
 21
5.269017405984894
 31
0.0
  0
LINE
  5
50C
330
2
100
AcDbEntity
  8
0
 62
     3
100
AcDbLine
 10
10.56611897949688
 20
5.374404407051797
 30
0.0
 11
10.52861897949687
 21
5.309452501767961
 31
0.0
  0
LINE
  5
50D
330
2
100
AcDbEntity
  8
0
 62
     3
100
AcDbLine
 10
10.52265461980207
 20
5.269017405984894
 30
0.0
 11
10.49017866716015
 21
5.287767405984893
 31
0.0
  0
LINE
  5
50E
330
2
100
AcDbEntity
  8
0
 62
     3
100
AcDbLine
 10
10.51050753011767
 20
5.319909151942463
 30
0.0
 11
10.52861897949687
 21
5.309452501767961
 31
0.0
  0
LINE
  5
50F
330
2
100
AcDbEntity
  8
0
 62
     3
100
AcDbLine
 10
10.6754108997511
 20
5.92580470427916
 30
0.0
 11
10.5999108997511
 21
5.795034868307714
 31
0.0
  0
LINE
  5
510
330
2
100
AcDbEntity
  8
0
 62
     3
100
AcDbLine
 10
10.5999108997511
 20
5.795034868307714
 30
0.0
 11
10.56743494710918
 21
5.813784868307712
 31
0.0
  0
LINE
  5
511
330
2
100
AcDbEntity
  8
0
 62
     3
100
AcDbLine
 10
10.54800753011767
 20
5.384861057226299
 30
0.0
 11
10.56611897949688
 21
5.374404407051797
 31
0.0
  0
LINE
  5
512
330
2
100
AcDbEntity
  8
0
 62
     3
100
AcDbLine
 10
10.59815461980207
 20
5.399787241956341
 30
0.0
 11
10.56567866716015
 21
5.41853724195634
 31
0.0
  0
LINE
  5
513
330
2
100
AcDbEntity
  8
0
 62
     3
100
AcDbLine
 10
10.64293494710918
 20
5.944554704279161
 30
0.0
 11
10.56743494710918
 21
5.813784868307712
 31
0.0
  0
LINE
  5
514
330
2
100
AcDbEntity
  8
0
 62
     3
100
AcDbLine
 10
10.6433752594459
 20
5.900421869374617
 30
0.0
 11
10.6058752594459
 21
5.835469964090782
 31
0.0
  0
LINE
  5
515
330
2
100
AcDbEntity
  8
0
 62
     3
100
AcDbLine
 10
10.62526381006669
 20
5.910878519549116
 30
0.0
 11
10.6433752594459
 21
5.900421869374617
 31
0.0
  0
LINE
  5
516
330
2
100
AcDbEntity
  8
0
 62
     3
100
AcDbLine
 10
10.58776381006669
 20
5.845926614265282
 30
0.0
 11
10.6058752594459
 21
5.835469964090782
 31
0.0
  0
LINE
  5
517
330
2
100
AcDbEntity
  8
0
 62
     3
100
AcDbLine
 10
10.6754108997511
 20
5.92580470427916
 30
0.0
 11
10.64293494710918
 21
5.944554704279161
 31
0.0
  0
LINE
  5
518
330
2
100
AcDbEntity
  8
0
 62
     3
100
AcDbLine
 10
10.4041429305044
 20
6.148072982522704
 30
0.0
 11
10.3286429305044
 21
6.017303146551256
 31
0.0
  0
LINE
  5
519
330
2
100
AcDbEntity
  8
0
 62
     3
100
AcDbLine
 10
10.43661888314632
 20
6.129322982522702
 30
0.0
 11
10.36111888314632
 21
5.998553146551257
 31
0.0
  0
LINE
  5
51A
330
2
100
AcDbEntity
  8
0
 62
     3
100
AcDbLine
 10
10.40458324284113
 20
6.10394014761816
 30
0.0
 11
10.36708324284113
 21
6.038988242334323
 31
0.0
  0
LINE
  5
51B
330
2
100
AcDbEntity
  8
0
 62
     3
100
AcDbLine
 10
10.36111888314632
 20
5.998553146551257
 30
0.0
 11
10.3286429305044
 21
6.017303146551256
 31
0.0
  0
LINE
  5
51C
330
2
100
AcDbEntity
  8
0
 62
     3
100
AcDbLine
 10
10.34897179346192
 20
6.049444892508825
 30
0.0
 11
10.36708324284113
 21
6.038988242334323
 31
0.0
  0
LINE
  5
51F
330
2
100
AcDbEntity
  8
0
 62
     3
100
AcDbLine
 10
10.3862307815491
 20
6.114535946085407
 30
0.0
 11
10.4043422309283
 21
6.104079295910906
 31
0.0
  0
LINE
  5
520
330
2
100
AcDbEntity
  8
0
 62
     3
100
AcDbLine
 10
10.4363778712335
 20
6.129462130815448
 30
0.0
 11
10.40390191859158
 21
6.14821213081545
 31
0.0
  0
LINE
  5
526
330
2
100
AcDbEntity
  8
0
 62
     3
100
AcDbLine
 10
10.47394309946855
 20
6.609693590537986
 30
0.0
 11
10.98235654489974
 21
6.315788433170602
 31
0.0
  0
LINE
  5
527
330
2
100
AcDbEntity
  8
0
 62
     3
100
AcDbLine
 10
8.343725150383539
 20
3.968996175964483
 30
0.0
 11
8.381011364024626
 21
3.903921309292996
 31
0.0
  0
LINE
  5
528
330
2
100
AcDbEntity
  8
0
 62
     3
100
AcDbLine
 10
8.344310583877474
 20
4.013127324366601
 30
0.0
 11
8.419380160674856
 21
3.882109926134683
 31
0.0
  0
LINE
  5
529
330
2
100
AcDbEntity
  8
0
 62
     3
100
AcDbLine
 10
8.311773150541727
 20
3.994484217546058
 30
0.0
 11
8.386842727339116
 21
3.863466819314141
 31
0.0
  0
LINE
  5
52A
330
2
100
AcDbEntity
  8
0
 62
     3
100
AcDbLine
 10
7.780187943430302
 20
4.142350384264636
 30
0.0
 11
7.779728194080883
 21
2.989639985656472
 31
0.0
  0
LINE
  5
52D
330
2
100
AcDbEntity
  8
0
 62
     3
100
AcDbLine
 10
8.109083618625032
 20
3.552613962516542
 30
0.0
 11
8.184153195422416
 21
3.421596564284622
 31
0.0
  0
LINE
  5
52E
330
2
100
AcDbEntity
  8
0
 62
     3
100
AcDbLine
 10
8.151615762086681
 20
3.402953457464082
 30
0.0
 11
8.184153195422416
 21
3.421596564284622
 31
0.0
  0
LINE
  5
52F
330
2
100
AcDbEntity
  8
0
 62
     3
100
AcDbLine
 10
8.113583603292397
 20
3.511396627045821
 30
0.0
 11
8.150869816933482
 21
3.446321760374337
 31
0.0
  0
LINE
  5
530
330
2
100
AcDbEntity
  8
0
 62
     3
100
AcDbLine
 10
8.132724080508531
 20
3.435924723244301
 30
0.0
 11
8.150869816933482
 21
3.446321760374337
 31
0.0
  0
LINE
  5
531
330
2
100
AcDbEntity
  8
0
 62
     3
100
AcDbLine
 10
8.076546185289295
 20
3.533970855696002
 30
0.0
 11
8.151615762086681
 21
3.402953457464082
 31
0.0
  0
LINE
  5
532
330
2
100
AcDbEntity
  8
0
 62
     3
100
AcDbLine
 10
8.095437866867445
 20
3.500999589915783
 30
0.0
 11
8.113583603292397
 21
3.511396627045821
 31
0.0
  0
LINE
  5
533
330
2
100
AcDbEntity
  8
0
 62
     3
100
AcDbLine
 10
8.076546185289295
 20
3.533970855696002
 30
0.0
 11
8.109083618625032
 21
3.552613962516542
 31
0.0
  0
LINE
  5
534
330
2
100
AcDbEntity
  8
0
 62
     3
100
AcDbLine
 10
8.386842727339116
 20
3.863466819314141
 30
0.0
 11
8.419380160674856
 21
3.882109926134683
 31
0.0
  0
LINE
  5
535
330
2
100
AcDbEntity
  8
0
 62
     3
100
AcDbLine
 10
8.399157100449585
 20
3.914318346423037
 30
0.0
 11
8.381011364024626
 21
3.903921309292996
 31
0.0
  0
LINE
  5
53D
330
2
100
AcDbEntity
  8
0
 62
     3
100
AcDbLine
 10
8.069041234938087
 20
5.553262756859512
 30
0.0
 11
8.069174873390711
 21
4.918967123665829
 31
0.0
  0
LINE
  5
53E
330
2
100
AcDbEntity
  8
0
 62
     3
100
AcDbLine
 10
8.520490889312142
 20
4.618704781130452
 30
0.0
 11
8.502345152887183
 21
4.608307744000413
 31
0.0
  0
LINE
  5
53F
330
2
100
AcDbEntity
  8
0
 62
     3
100
AcDbLine
 10
8.508176516201674
 20
4.567853254021558
 30
0.0
 11
8.540713949537416
 21
4.586496360842099
 31
0.0
  0
LINE
  5
540
330
2
100
AcDbEntity
  8
0
 62
     3
100
AcDbLine
 10
8.465644372740031
 20
4.717513759074018
 30
0.0
 11
8.540713949537416
 21
4.586496360842099
 31
0.0
  0
LINE
  5
541
330
2
100
AcDbEntity
  8
0
 62
     3
100
AcDbLine
 10
8.6426709687978
 20
5.361316865167045
 30
0.0
 11
8.679957182438885
 21
5.296241998495556
 31
0.0
  0
LINE
  5
542
330
2
100
AcDbEntity
  8
0
 62
     3
100
AcDbLine
 10
8.610718968955987
 20
5.386804906748619
 30
0.0
 11
8.685788545753377
 21
5.255787508516703
 31
0.0
  0
LINE
  5
543
330
2
100
AcDbEntity
  8
0
 62
     3
100
AcDbLine
 10
8.643256402291731
 20
5.405448013569161
 30
0.0
 11
8.718325979089117
 21
5.274430615337243
 31
0.0
  0
LINE
  5
544
330
2
100
AcDbEntity
  8
0
 62
     3
100
AcDbLine
 10
8.698102918863844
 20
5.306639035625598
 30
0.0
 11
8.679957182438885
 21
5.296241998495556
 31
0.0
  0
LINE
  5
545
330
2
100
AcDbEntity
  8
0
 62
     3
100
AcDbLine
 10
8.685788545753377
 20
5.255787508516703
 30
0.0
 11
8.718325979089117
 21
5.274430615337243
 31
0.0
  0
LINE
  5
546
330
2
100
AcDbEntity
  8
0
 62
     3
100
AcDbLine
 10
8.610718968955987
 20
5.386804906748619
 30
0.0
 11
8.643256402291731
 21
5.405448013569161
 31
0.0
  0
LINE
  5
547
330
2
100
AcDbEntity
  8
0
 62
     3
100
AcDbLine
 10
8.660816705222758
 20
5.371713902297085
 30
0.0
 11
8.6426709687978
 21
5.361316865167045
 31
0.0
  0
LINE
  5
548
330
2
100
AcDbEntity
  8
0
 62
     3
100
AcDbLine
 10
8.045953786365807
 20
4.76663081796704
 30
0.0
 11
8.045707161254178
 21
4.69163122346111
 31
0.0
  0
LINE
  5
549
330
2
100
AcDbEntity
  8
0
 62
     3
100
AcDbLine
 10
8.025165555809627
 20
4.804699382450488
 30
0.0
 11
8.024669017251547
 21
4.65370019884521
 31
0.0
  0
LINE
  5
54A
330
2
100
AcDbEntity
  8
0
 62
     3
100
AcDbLine
 10
8.062665353062589
 20
4.804576069894674
 30
0.0
 11
8.062168814504509
 21
4.653576886289396
 31
0.0
  0
LINE
  5
54B
330
2
100
AcDbEntity
  8
0
 62
     3
100
AcDbLine
 10
7.927841271074989
 20
4.866027807232179
 30
0.0
 11
7.927409445877541
 21
4.221630017120903
 31
0.0
  0
LINE
  5
54C
330
2
100
AcDbEntity
  8
0
 62
     3
100
AcDbLine
 10
8.024669017251547
 20
4.65370019884521
 30
0.0
 11
8.062168814504509
 21
4.653576886289396
 31
0.0
  0
LINE
  5
54D
330
2
100
AcDbEntity
  8
0
 62
     3
100
AcDbLine
 10
8.235809606716928
 20
4.503017998751444
 30
0.0
 11
8.310879183514312
 21
4.372000600519526
 31
0.0
  0
LINE
  5
54E
330
2
100
AcDbEntity
  8
0
 62
     3
100
AcDbLine
 10
8.310879183514312
 20
4.372000600519526
 30
0.0
 11
8.343416616850056
 21
4.390643707340068
 31
0.0
  0
LINE
  5
54F
330
2
100
AcDbEntity
  8
0
 62
     3
100
AcDbLine
 10
8.311773150541727
 20
3.994484217546058
 30
0.0
 11
8.344310583877474
 21
4.013127324366601
 31
0.0
  0
LINE
  5
550
330
2
100
AcDbEntity
  8
0
 62
     3
100
AcDbLine
 10
8.361870886808496
 20
3.979393213094524
 30
0.0
 11
8.343725150383539
 21
3.968996175964483
 31
0.0
  0
LINE
  5
551
330
2
100
AcDbEntity
  8
0
 62
     3
100
AcDbLine
 10
8.268347040052674
 20
4.521661105571984
 30
0.0
 11
8.343416616850056
 21
4.390643707340068
 31
0.0
  0
LINE
  5
552
330
2
100
AcDbEntity
  8
0
 62
     3
100
AcDbLine
 10
8.267761606558737
 20
4.477529957169869
 30
0.0
 11
8.305047820199824
 21
4.41245509049838
 31
0.0
  0
LINE
  5
553
330
2
100
AcDbEntity
  8
0
 62
     3
100
AcDbLine
 10
8.285907342983698
 20
4.487926994299908
 30
0.0
 11
8.267761606558737
 21
4.477529957169869
 31
0.0
  0
LINE
  5
554
330
2
100
AcDbEntity
  8
0
 62
     3
100
AcDbLine
 10
8.323193556624781
 20
4.422852127628421
 30
0.0
 11
8.305047820199824
 21
4.41245509049838
 31
0.0
  0
LINE
  5
555
330
2
100
AcDbEntity
  8
0
 62
     3
100
AcDbLine
 10
8.433106939404288
 20
4.698870652253473
 30
0.0
 11
8.465644372740031
 21
4.717513759074018
 31
0.0
  0
LINE
  5
556
330
2
100
AcDbEntity
  8
0
 62
     3
100
AcDbLine
 10
8.483204675671057
 20
4.683779647801941
 30
0.0
 11
8.465058939246098
 21
4.6733826106719
 31
0.0
  0
LINE
  5
557
330
2
100
AcDbEntity
  8
0
 62
     3
100
AcDbLine
 10
8.465058939246098
 20
4.6733826106719
 30
0.0
 11
8.502345152887183
 21
4.608307744000413
 31
0.0
  0
LINE
  5
558
330
2
100
AcDbEntity
  8
0
 62
     3
100
AcDbLine
 10
8.433106939404288
 20
4.698870652253473
 30
0.0
 11
8.508176516201674
 21
4.567853254021558
 31
0.0
  0
LINE
  5
559
330
2
100
AcDbEntity
  8
0
 62
     3
100
AcDbLine
 10
8.235809606716928
 20
4.503017998751444
 30
0.0
 11
8.268347040052674
 21
4.521661105571984
 31
0.0
  0
LINE
  5
55A
330
2
100
AcDbEntity
  8
0
 62
     3
100
AcDbLine
 10
7.927409445877541
 20
4.22163001712091
 30
0.0
 11
7.780187943430302
 21
4.142350384264636
 31
0.0
  0
LINE
  5
55B
330
2
100
AcDbEntity
  8
0
 62
     3
100
AcDbLine
 10
7.945944005323466
 20
4.099822099143753
 30
0.0
 11
7.945447466765389
 21
3.948822915538475
 31
0.0
  0
LINE
  5
55C
330
2
100
AcDbEntity
  8
0
 62
     3
100
AcDbLine
 10
7.907970620212241
 20
4.099646443334554
 30
0.0
 11
7.907474081654162
 21
3.948647259729277
 31
0.0
  0
LINE
  5
55D
330
2
100
AcDbEntity
  8
0
 62
     3
100
AcDbLine
 10
7.907947669512431
 20
3.948946228094291
 30
0.0
 11
7.945447466765389
 21
3.948822915538475
 31
0.0
  0
LINE
  5
55E
330
2
100
AcDbEntity
  8
0
 62
     3
100
AcDbLine
 10
7.908319251347283
 20
4.061945617149896
 30
0.0
 11
7.929232438626687
 21
4.061876847216121
 31
0.0
  0
LINE
  5
55F
330
2
100
AcDbEntity
  8
0
 62
     3
100
AcDbLine
 10
7.908072626235655
 20
3.986946022643963
 30
0.0
 11
7.928985813515057
 21
3.986877252710188
 31
0.0
  0
LINE
  5
560
330
2
100
AcDbEntity
  8
0
 62
     3
100
AcDbLine
 10
7.929232438626687
 20
4.061876847216121
 30
0.0
 11
7.928985813515057
 21
3.986877252710188
 31
0.0
  0
LINE
  5
561
330
2
100
AcDbEntity
  8
0
 62
     3
100
AcDbLine
 10
7.908444208070508
 20
4.099945411699568
 30
0.0
 11
7.945944005323466
 21
4.099822099143753
 31
0.0
  0
LINE
  5
562
330
2
100
AcDbEntity
  8
0
 62
     3
100
AcDbLine
 10
8.024793973974775
 20
4.691699993394883
 30
0.0
 11
8.045707161254178
 21
4.69163122346111
 31
0.0
  0
LINE
  5
563
330
2
100
AcDbEntity
  8
0
 62
     3
100
AcDbLine
 10
8.025165555809627
 20
4.804699382450488
 30
0.0
 11
8.062665353062589
 21
4.804576069894674
 31
0.0
  0
LINE
  5
564
330
2
100
AcDbEntity
  8
0
 62
     3
100
AcDbLine
 10
8.069174873390711
 20
4.918967123665829
 30
0.0
 11
7.927841271074989
 21
4.866027807232179
 31
0.0
  0
LINE
  5
565
330
2
100
AcDbEntity
  8
0
 62
     3
100
AcDbLine
 10
8.389680828915231
 20
5.181708772233938
 30
0.0
 11
8.464750405712612
 21
5.05069137400202
 31
0.0
  0
LINE
  5
566
330
2
100
AcDbEntity
  8
0
 62
     3
100
AcDbLine
 10
8.357143395579486
 20
5.163065665413394
 30
0.0
 11
8.432212972376873
 21
5.032048267181478
 31
0.0
  0
LINE
  5
567
330
2
100
AcDbEntity
  8
0
 62
     3
100
AcDbLine
 10
8.407241131846255
 20
5.147974660961861
 30
0.0
 11
8.389095395421296
 21
5.137577623831821
 31
0.0
  0
LINE
  5
568
330
2
100
AcDbEntity
  8
0
 62
     3
100
AcDbLine
 10
8.389095395421296
 20
5.137577623831821
 30
0.0
 11
8.426381609062383
 21
5.072502757160335
 31
0.0
  0
LINE
  5
569
330
2
100
AcDbEntity
  8
0
 62
     3
100
AcDbLine
 10
8.444527345487342
 20
5.082899794290375
 30
0.0
 11
8.426381609062383
 21
5.072502757160335
 31
0.0
  0
LINE
  5
56A
330
2
100
AcDbEntity
  8
0
 62
     3
100
AcDbLine
 10
8.432212972376873
 20
5.032048267181478
 30
0.0
 11
8.464750405712612
 21
5.05069137400202
 31
0.0
  0
LINE
  5
56B
330
2
100
AcDbEntity
  8
0
 62
     3
100
AcDbLine
 10
8.357143395579486
 20
5.163065665413394
 30
0.0
 11
8.389680828915231
 21
5.181708772233938
 31
0.0
  0
LINE
  5
56C
330
2
100
AcDbEntity
  8
0
 62
     3
100
AcDbLine
 10
8.206891278901286
 20
5.497322265806672
 30
0.0
 11
8.244391024956014
 21
5.497545117579556
 31
0.0
  0
LINE
  5
56D
330
2
100
AcDbEntity
  8
0
 62
     3
100
AcDbLine
 10
8.207087554807952
 20
5.346669246530091
 30
0.0
 11
8.244587352060911
 21
5.346545933974278
 31
0.0
  0
LINE
  5
56E
330
2
100
AcDbEntity
  8
0
 62
     3
100
AcDbLine
 10
8.22837232392221
 20
5.459599865651923
 30
0.0
 11
8.22847215724118
 21
5.384946406368126
 31
0.0
  0
LINE
  5
56F
330
2
100
AcDbEntity
  8
0
 62
     3
100
AcDbLine
 10
8.207212511531174
 20
5.384669041079764
 30
0.0
 11
8.22847215724118
 21
5.384946406368126
 31
0.0
  0
LINE
  5
570
330
2
100
AcDbEntity
  8
0
 62
     3
100
AcDbLine
 10
8.207459136642803
 20
5.459668635585696
 30
0.0
 11
8.22837232392221
 21
5.459599865651923
 31
0.0
  0
LINE
  5
571
330
2
100
AcDbEntity
  8
0
 62
     3
100
AcDbLine
 10
8.206891278901286
 20
5.497322265806672
 30
0.0
 11
8.207087554807952
 21
5.346669246530091
 31
0.0
  0
LINE
  5
572
330
2
100
AcDbEntity
  8
0
 62
     3
100
AcDbLine
 10
8.244391024956014
 20
5.497545117579556
 30
0.0
 11
8.244587352060911
 21
5.346545933974278
 31
0.0
  0
LINE
  5
573
330
2
100
AcDbEntity
  8
0
 62
     3
100
AcDbLine
 10
8.025040599086402
 20
4.766699587900816
 30
0.0
 11
8.045953786365807
 21
4.76663081796704
 31
0.0
  0
LINE
  5
574
330
2
100
AcDbEntity
  8
0
 62
     3
100
AcDbLine
 10
8.750816447785668
 20
6.608944634390943
 30
0.0
 11
8.218459694606773
 21
6.305563814277332
 31
0.0
  0
LINE
  5
575
330
2
100
AcDbEntity
  8
0
 62
     3
100
AcDbLine
 10
8.849284963724606
 20
5.984788840362281
 30
0.0
 11
8.881822397060345
 21
6.003431947182824
 31
0.0
  0
LINE
  5
576
330
2
100
AcDbEntity
  8
0
 62
     3
100
AcDbLine
 10
8.774215386927219
 20
6.115806238594199
 30
0.0
 11
8.849284963724606
 21
5.984788840362281
 31
0.0
  0
LINE
  5
577
330
2
100
AcDbEntity
  8
0
 62
     3
100
AcDbLine
 10
8.567292858466933
 20
5.93171739561394
 30
0.0
 11
8.642362435264315
 21
5.800699997382022
 31
0.0
  0
LINE
  5
578
330
2
100
AcDbEntity
  8
0
 62
     3
100
AcDbLine
 10
8.534755425131187
 20
5.913074288793397
 30
0.0
 11
8.609825001928575
 21
5.782056890561481
 31
0.0
  0
LINE
  5
579
330
2
100
AcDbEntity
  8
0
 62
     3
100
AcDbLine
 10
8.609825001928575
 20
5.782056890561481
 30
0.0
 11
8.642362435264315
 21
5.800699997382022
 31
0.0
  0
LINE
  5
57A
330
2
100
AcDbEntity
  8
0
 62
     3
100
AcDbLine
 10
8.534755425131187
 20
5.913074288793397
 30
0.0
 11
8.567292858466933
 21
5.93171739561394
 31
0.0
  0
LINE
  5
57B
330
2
100
AcDbEntity
  8
0
 62
     3
100
AcDbLine
 10
8.622139375039044
 20
5.832908417670377
 30
0.0
 11
8.603993638614085
 21
5.822511380540336
 31
0.0
  0
LINE
  5
57C
330
2
100
AcDbEntity
  8
0
 62
     3
100
AcDbLine
 10
8.584853161397957
 20
5.897983284341862
 30
0.0
 11
8.566707424972996
 21
5.887586247211822
 31
0.0
  0
LINE
  5
57D
330
2
100
AcDbEntity
  8
0
 62
     3
100
AcDbLine
 10
8.566707424972996
 20
5.887586247211822
 30
0.0
 11
8.603993638614085
 21
5.822511380540336
 31
0.0
  0
LINE
  5
57E
330
2
100
AcDbEntity
  8
0
 62
     3
100
AcDbLine
 10
8.806752820262968
 20
6.134449345414742
 30
0.0
 11
8.881822397060345
 21
6.003431947182824
 31
0.0
  0
LINE
  5
57F
330
2
100
AcDbEntity
  8
0
 62
     3
100
AcDbLine
 10
8.806167386769029
 20
6.090318197012624
 30
0.0
 11
8.843453600410116
 21
6.025243330341137
 31
0.0
  0
LINE
  5
580
330
2
100
AcDbEntity
  8
0
 62
     3
100
AcDbLine
 10
8.861599336835077
 20
6.035640367471177
 30
0.0
 11
8.843453600410116
 21
6.025243330341137
 31
0.0
  0
LINE
  5
581
330
2
100
AcDbEntity
  8
0
 62
     3
100
AcDbLine
 10
8.82431312319399
 20
6.100715234142666
 30
0.0
 11
8.806167386769029
 21
6.090318197012624
 31
0.0
  0
LINE
  5
582
330
2
100
AcDbEntity
  8
0
 62
     3
100
AcDbLine
 10
8.774215386927219
 20
6.115806238594199
 30
0.0
 11
8.806752820262968
 21
6.134449345414742
 31
0.0
  0
LINE
  5
583
330
2
100
AcDbEntity
  8
0
 62
     3
100
AcDbLine
 10
8.945785267139761
 20
6.608864540608713
 30
0.0
 11
8.750816447785668
 21
6.608944634390943
 31
0.0
  0
LINE
  5
584
330
2
100
AcDbEntity
  8
0
 62
     3
100
AcDbLine
 10
8.218459694606773
 20
6.305563814277332
 30
0.0
 11
8.218440392776178
 21
5.629680031027951
 31
0.0
  0
LINE
  5
585
330
2
100
AcDbEntity
  8
0
 62
     3
100
AcDbLine
 10
8.218440392776178
 20
5.629680031027951
 30
0.0
 11
8.069041234938087
 21
5.553262756859512
 31
0.0
  0
LINE
  5
586
330
2
100
AcDbEntity
  8
0
 62
     3
100
AcDbLine
 10
8.36616349897622
 20
6.182020152220795
 30
0.0
 11
8.365916873864591
 21
6.107020557714863
 31
0.0
  0
LINE
  5
587
330
2
100
AcDbEntity
  8
0
 62
     3
100
AcDbLine
 10
8.382875065673001
 20
6.219965404148426
 30
0.0
 11
8.382378527114923
 21
6.06896622054315
 31
0.0
  0
LINE
  5
588
330
2
100
AcDbEntity
  8
0
 62
     3
100
AcDbLine
 10
8.34537526842004
 20
6.220088716704242
 30
0.0
 11
8.344878729861962
 21
6.069089533098963
 31
0.0
  0
LINE
  5
589
330
2
100
AcDbEntity
  8
0
 62
     3
100
AcDbLine
 10
8.344878729861962
 20
6.069089533098963
 30
0.0
 11
8.382378527114923
 21
6.06896622054315
 31
0.0
  0
LINE
  5
58A
330
2
100
AcDbEntity
  8
0
 62
     3
100
AcDbLine
 10
8.345003686585187
 20
6.107089327648637
 30
0.0
 11
8.365916873864591
 21
6.107020557714863
 31
0.0
  0
LINE
  5
58B
330
2
100
AcDbEntity
  8
0
 62
     3
100
AcDbLine
 10
8.34537526842004
 20
6.220088716704242
 30
0.0
 11
8.382875065673001
 21
6.219965404148426
 31
0.0
  0
LINE
  5
58C
330
2
100
AcDbEntity
  8
0
 62
     3
100
AcDbLine
 10
8.345250311696815
 20
6.182088922154568
 30
0.0
 11
8.36616349897622
 21
6.182020152220795
 31
0.0
  0
LINE
  5
59C
330
2
100
AcDbEntity
  8
0
 62
     3
100
AcDbLine
 10
10.10322847998197
 20
2.955567025321058
 30
0.0
 11
10.04112372818819
 21
3.064402337137908
 31
0.0
  0
ARC
  5
59D
330
2
100
AcDbEntity
  8
0
 62
     3
100
AcDbCircle
 10
10.17015934952276
 20
3.017301096968668
 30
0.0
 40
0.0910540328578692
100
AcDbArc
 50
222.6870713473154
 51
289.6699895722526
  0
ARC
  5
59E
330
2
100
AcDbEntity
  8
0
 62
     3
100
AcDbCircle
 10
9.944306130893068
 20
3.029884552827312
 30
0.0
 40
0.1027867918543809
100
AcDbArc
 50
19.6223643753117
 51
62.90190229693172
  0
CIRCLE
  5
622
330
2
100
AcDbEntity
  8
0
100
AcDbCircle
 10
9.633209808654894
 20
4.380180162812571
 30
0.0
 40
0.0304779133629372
  0
LINE
  5
625
330
2
100
AcDbEntity
  8
0
 62
     3
100
AcDbLine
 10
8.906515789587881
 20
2.956510921267373
 30
0.0
 11
9.104950845278448
 21
2.956357942824861
 31
0.0
  0
LINE
  5
626
330
2
100
AcDbEntity
  8
0
 62
     3
100
AcDbLine
 10
9.104880175133136
 20
3.121388225650293
 30
0.0
 11
9.104950845278448
 21
2.956357942824861
 31
0.0
  0
LINE
  5
627
330
2
100
AcDbEntity
  8
0
 62
     3
100
AcDbLine
 10
9.092275155556778
 20
3.121388225650291
 30
0.0
 11
9.092345825702091
 21
2.968487238732071
 31
0.0
  0
LINE
  5
628
330
2
100
AcDbEntity
  8
0
 62
     3
100
AcDbLine
 10
8.860880946105181
 20
2.968426418258868
 30
0.0
 11
9.092345825702091
 21
2.968487238732071
 31
0.0
  0
ARC
  5
629
330
2
100
AcDbEntity
  8
0
 62
     3
100
AcDbCircle
 10
10.04196083877913
 20
9.00443023642282
 30
0.0
 40
6.408308844580554
100
AcDbArc
 50
249.449396375062
 51
253.3012074467941
  0
LINE
  5
62A
330
2
100
AcDbEntity
  8
0
 62
     3
100
AcDbLine
 10
8.603296813477133
 20
2.790232310525516
 30
0.0
 11
8.860641279723029
 21
2.789968392762173
 31
0.0
  0
LINE
  5
62B
330
2
100
AcDbEntity
  8
0
 62
     3
100
AcDbLine
 10
8.200595230457038
 20
2.866369065008998
 30
0.0
 11
8.603296813477133
 21
2.790232310525516
 31
0.0
  0
LINE
  5
62C
330
2
100
AcDbEntity
  8
0
 62
     3
100
AcDbLine
 10
8.860880946105181
 20
2.968426418258868
 30
0.0
 11
8.860641279723029
 21
2.789968392762173
 31
0.0
  0
LINE
  5
62D
330
2
100
AcDbEntity
  8
0
 62
     3
100
AcDbLine
 10
7.792371205883473
 20
3.371245770485287
 30
0.0
 11
7.780160764095738
 21
3.371245770485288
 31
0.0
  0
LINE
  5
62E
330
2
100
AcDbEntity
  8
0
 62
     3
100
AcDbLine
 10
7.792371205883473
 20
3.371245770485287
 30
0.0
 11
7.792423262329284
 21
3.003930012302371
 31
0.0
  0
LINE
  5
630
330
2
100
AcDbEntity
  8
0
 62
     3
100
AcDbLine
 10
9.679998894900482
 20
3.189237188662457
 30
0.0
 11
9.633452971858895
 21
3.277946491565086
 31
0.0
  0
LINE
  5
631
330
2
100
AcDbEntity
  8
0
 62
     3
100
AcDbLine
 10
9.769834750885936
 20
3.121388225650293
 30
0.0
 11
9.668194861422962
 21
3.294844891631098
 31
0.0
  0
ARC
  5
632
330
2
100
AcDbEntity
  8
0
 62
     3
100
AcDbCircle
 10
9.636091325634152
 20
3.161266576406629
 30
0.0
 40
0.0520598673533088
100
AcDbArc
 50
310.0031183784734
 51
32.49852010154724
  0
ARC
  5
633
330
2
100
AcDbEntity
  8
0
 62
     3
100
AcDbCircle
 10
9.652389206324038
 20
3.283177569107568
 30
0.0
 40
0.0196454867074952
100
AcDbArc
 50
36.43377663894103
 51
195.4426533539296
  0
LINE
  5
634
330
2
100
AcDbEntity
  8
0
 62
     3
100
AcDbLine
 10
9.769834750885936
 20
3.121388225650293
 30
0.0
 11
9.991127092434011
 21
3.121388225650291
 31
0.0
  0
LWPOLYLINE
  5
635
330
2
100
AcDbEntity
  8
0
 62
     3
100
AcDbPolyline
 90
        4
 70
     1
 43
0.0
 10
9.172719893820442
 20
3.430806878155341
 10
9.218350380097412
 20
3.430806878155341
 10
9.218350380097412
 20
3.385788347029042
 10
9.172719893820442
 20
3.385788347029042
  0
LWPOLYLINE
  5
636
330
2
100
AcDbEntity
  8
0
 62
     3
100
AcDbPolyline
 90
        4
 70
     1
 43
0.0
 10
9.322719893820442
 20
3.430806878155341
 10
9.368350380097412
 20
3.430806878155341
 10
9.368350380097412
 20
3.385788347029042
 10
9.322719893820442
 20
3.385788347029042
  0
LWPOLYLINE
  5
637
330
2
100
AcDbEntity
  8
0
 62
     3
100
AcDbPolyline
 90
        4
 70
     1
 43
0.0
 10
9.472719893820443
 20
3.430806878155341
 10
9.518350380097411
 20
3.430806878155341
 10
9.518350380097411
 20
3.385788347029042
 10
9.472719893820443
 20
3.385788347029042
  0
LWPOLYLINE
  5
638
330
2
100
AcDbEntity
  8
0
 62
     3
100
AcDbPolyline
 90
        4
 70
     1
 43
0.0
 10
9.622719893820439
 20
3.430806878155341
 10
9.668350380097411
 20
3.430806878155341
 10
9.668350380097411
 20
3.385788347029042
 10
9.622719893820439
 20
3.385788347029042
  0
LWPOLYLINE
  5
639
330
2
100
AcDbEntity
  8
0
 62
     3
100
AcDbPolyline
 90
        4
 70
     1
 43
0.0
 10
9.772719893820443
 20
3.430806878155341
 10
9.818350380097411
 20
3.430806878155341
 10
9.818350380097411
 20
3.385788347029042
 10
9.772719893820443
 20
3.385788347029042
  0
ARC
  5
63A
330
2
100
AcDbEntity
  8
0
 62
     3
100
AcDbCircle
 10
11.09606500806845
 20
2.748392745709183
 30
0.0
 40
0.0279218829745749
100
AcDbArc
 50
266.5353863109043
 51
7.111862907706473
  0
LINE
  5
63C
330
2
100
AcDbEntity
  8
0
 62
     3
100
AcDbLine
 10
10.48801899688103
 20
2.739470777930954
 30
0.0
 11
10.35327656714542
 21
3.093955380095113
 31
0.0
  0
LINE
  5
63D
330
2
100
AcDbEntity
  8
0
 62
     3
100
AcDbLine
 10
11.09437763081895
 20
2.720521895222213
 30
0.0
 11
10.51717132935155
 21
2.720322785799218
 31
0.0
  0
ARC
  5
63E
330
2
100
AcDbEntity
  8
0
 62
     3
100
AcDbCircle
 10
11.16805478799149
 20
3.098728896325833
 30
0.0
 40
0.0459249043177243
100
AcDbArc
 50
108.3716803301281
 51
193.8116759846004
  0
LINE
  5
63F
330
2
100
AcDbEntity
  8
0
 62
     3
100
AcDbLine
 10
11.12345777241467
 20
3.087765181707441
 30
0.0
 11
11.12377206915913
 21
2.751849668410562
 31
0.0
  0
ARC
  5
640
330
2
100
AcDbEntity
  8
0
 62
     3
100
AcDbCircle
 10
10.52495450473569
 20
2.763938312497963
 30
0.0
 40
0.0443045368813326
100
AcDbArc
 50
213.5220589705803
 51
259.8820903816062
  0
LINE
  5
642
330
2
100
AcDbEntity
  8
0
 62
     3
100
AcDbLine
 10
9.96828216140628
 20
3.121388225650293
 30
0.0
 11
9.968282161406277
 21
3.158015989236438
 31
0.0
  0
LINE
  5
643
330
2
100
AcDbEntity
  8
0
 62
     3
100
AcDbLine
 10
9.968282161406277
 20
3.158015989236438
 30
0.0
 11
10.37262315254878
 21
3.158015989236438
 31
0.0
  0
LINE
  5
644
330
2
100
AcDbEntity
  8
0
 62
     3
100
AcDbLine
 10
10.37262315254878
 20
3.158015989236438
 30
0.0
 11
10.5021551919072
 21
2.743119991207314
 31
0.0
  0
LINE
  5
645
330
2
100
AcDbEntity
  8
0
 62
     3
100
AcDbLine
 10
10.5021551919072
 20
2.743119991207314
 30
0.0
 11
11.08685914165474
 21
2.743119991207314
 31
0.0
  0
LINE
  5
646
330
2
100
AcDbEntity
  8
0
 62
     3
100
AcDbLine
 10
11.08685914165474
 20
2.743119991207314
 30
0.0
 11
11.08685914165474
 21
3.169229410402968
 31
0.0
  0
LINE
  5
647
330
2
100
AcDbEntity
  8
0
 62
     3
100
AcDbLine
 10
11.08685914165474
 20
3.169229410402968
 30
0.0
 11
11.17969563349715
 21
3.169229410402968
 31
0.0
  0
LINE
  5
648
330
2
100
AcDbEntity
  8
0
 62
     3
100
AcDbLine
 10
11.17969563349715
 20
3.169229410402968
 30
0.0
 11
11.40668486531912
 21
3.270150083875242
 31
0.0
  0
LINE
  5
649
330
2
100
AcDbEntity
  8
0
 62
     3
100
AcDbLine
 10
11.40668486531912
 20
3.270150083875242
 30
0.0
 11
11.40668486531912
 21
3.382284120000796
 31
0.0
  0
LINE
  5
64A
330
2
100
AcDbEntity
  8
0
 62
     3
100
AcDbLine
 10
11.40668486531912
 20
3.382284120000796
 30
0.0
 11
11.4245616515609
 21
3.382284120000796
 31
0.0
  0
LINE
  5
64B
330
2
100
AcDbEntity
  8
0
 62
     3
100
AcDbLine
 10
11.36845185385004
 20
2.862078059813788
 30
0.0
 11
11.36845185385004
 21
2.778886950446209
 31
0.0
  0
ARC
  5
64C
330
2
100
AcDbEntity
  8
0
 62
     3
100
AcDbCircle
 10
11.33745185385004
 20
2.778886950446209
 30
0.0
 40
0.031
100
AcDbArc
 50
280.2199107045474
 51
0.000000000000007
  0
ARC
  5
64D
330
2
100
AcDbEntity
  8
0
 62
     3
100
AcDbCircle
 10
11.40767399924698
 20
2.854048567380391
 30
0.0
 40
0.0400356021345593
100
AcDbArc
 50
102.9279855586274
 51
168.4303618065424
  0
LINE
  5
64E
330
2
100
AcDbEntity
  8
0
 62
     3
100
AcDbLine
 10
11.2396102462599
 20
2.74749035924971
 30
0.0
 11
11.34295208293972
 21
2.748378796127061
 31
0.0
  0
TEXT
  5
650
330
2
100
AcDbEntity
  8
0
 62
     7
100
AcDbText
 10
9.520916072965675
 20
1.636972812918195
 30
0.0
 40
0.12
  1
MINI MCR-SL-I-I
  7
ROMANS
100
AcDbText
  0
LINE
  5
653
330
2
100
AcDbEntity
  8
0
 62
     3
100
AcDbLine
 10
12.65705241788873
 20
5.98013601424263
 30
0.0
 11
12.69605241788873
 21
5.940979686260519
 31
0.0
  0
LINE
  5
654
330
2
100
AcDbEntity
  8
0
 62
     3
100
AcDbLine
 10
12.55105241788872
 20
5.98013601424263
 30
0.0
 11
12.51205241788873
 21
5.941341662063415
 31
0.0
  0
LINE
  5
655
330
2
100
AcDbEntity
  8
0
 62
     3
100
AcDbLine
 10
12.51205241788873
 20
6.170764937979306
 30
0.0
 11
12.51205241788873
 21
5.689778613067857
 31
0.0
  0
LINE
  5
656
330
2
100
AcDbEntity
  8
0
 62
     3
100
AcDbLine
 10
12.69605241788873
 20
6.170764937979312
 30
0.0
 11
12.69605241788873
 21
5.689778613067858
 31
0.0
  0
LINE
  5
657
330
2
100
AcDbEntity
  8
0
 62
     3
100
AcDbLine
 10
12.51205241788873
 20
5.909507090505947
 30
0.0
 11
12.69605241788873
 21
5.909507090505947
 31
0.0
  0
LINE
  5
658
330
2
100
AcDbEntity
  8
0
 62
     3
100
AcDbLine
 10
12.55105241788872
 20
5.98013601424263
 30
0.0
 11
12.65705241788873
 21
5.98013601424263
 31
0.0
  0
LINE
  5
659
330
2
100
AcDbEntity
  8
0
 62
     3
100
AcDbLine
 10
12.55105241788872
 20
6.100136014242628
 30
0.0
 11
12.65705241788873
 21
6.100136014242628
 31
0.0
  0
LINE
  5
65A
330
2
100
AcDbEntity
  8
0
 62
     3
100
AcDbLine
 10
12.51205241788873
 20
6.170764937979306
 30
0.0
 11
12.69605241788873
 21
6.170764937979312
 31
0.0
  0
LINE
  5
65C
330
2
100
AcDbEntity
  8
0
 62
     3
100
AcDbLine
 10
12.55105241788872
 20
6.100136014242628
 30
0.0
 11
12.51205241788873
 21
6.170764937979306
 31
0.0
  0
LINE
  5
65D
330
2
100
AcDbEntity
  8
0
 62
     3
100
AcDbLine
 10
12.55105241788872
 20
5.98013601424263
 30
0.0
 11
12.55105241788872
 21
6.100136014242628
 31
0.0
  0
LINE
  5
65E
330
2
100
AcDbEntity
  8
0
 62
     3
100
AcDbLine
 10
12.65705241788873
 20
6.100136014242628
 30
0.0
 11
12.69605241788873
 21
6.170764937979312
 31
0.0
  0
LINE
  5
65F
330
2
100
AcDbEntity
  8
0
 62
     3
100
AcDbLine
 10
12.65705241788873
 20
5.98013601424263
 30
0.0
 11
12.65705241788873
 21
6.100136014242628
 31
0.0
  0
LINE
  5
661
330
2
100
AcDbEntity
  8
0
 62
     3
100
AcDbLine
 10
12.48976945099455
 20
6.291115868103442
 30
0.0
 11
12.72007176254014
 21
6.291115868103442
 31
0.0
  0
ELLIPSE
  5
662
330
2
100
AcDbEntity
  8
0
 62
     3
100
AcDbEllipse
 10
12.60749450986777
 20
6.387277492253814
 30
0.0
 11
0.078328744270187
 21
0.0
 31
0.0
210
0.0
220
0.0
230
1.0
 40
0.2376775563879574
 41
0.0
 42
6.283185307179585
  0
LINE
  5
663
330
2
100
AcDbEntity
  8
0
 62
     3
100
AcDbLine
 10
12.60297495581157
 20
3.359941347478296
 30
0.0
 11
12.49199686185067
 21
3.359941347478296
 31
0.0
  0
TEXT
  5
665
330
2
100
AcDbEntity
  8
0
 62
     7
100
AcDbText
 10
9.517140985766172
 20
1.459247693806984
 30
0.0
 40
0.09
  1
Ord.-No.: 28 64 40 6
  7
ROMANS
100
AcDbText
  0
TEXT
  5
666
330
2
100
AcDbEntity
  8
0
 62
     7
100
AcDbText
 10
11.95352962905349
 20
1.385663401695077
 30
0.0
 40
0.12
  1
2864406
  7
ROMANS
100
AcDbText
  0
TEXT
  5
672
330
2
100
AcDbEntity
  8
0
 62
     7
100
AcDbText
 10
12.58091504658633
 20
9.131788680979065
 30
0.0
 40
0.05625
  1
MINI MCR-SL-I-I
 50
270.0
  7
ROMANS
100
AcDbText
  0
LINE
  5
679
330
2
100
AcDbEntity
  8
0
 62
     3
100
AcDbLine
 10
12.72123466297605
 20
7.237077306262025
 30
0.0
 11
12.49093235143045
 21
7.237077306262025
 31
0.0
  0
TEXT
  5
67A
330
2
100
AcDbEntity
  8
0
 62
     7
100
AcDbText
 10
12.6334441767865
 20
7.277342608410592
 30
0.0
 40
0.05625
  1
3
  7
ROMANS
100
AcDbText
  0
LINE
  5
67C
330
2
100
AcDbEntity
  8
0
 62
     3
100
AcDbLine
 10
12.72123466297605
 20
10.74569436608715
 30
0.0
 11
12.49093235143045
 21
10.74569436608715
 31
0.0
  0
CIRCLE
  5
69A
330
2
100
AcDbEntity
  8
0
100
AcDbCircle
 10
12.6038942938765
 20
7.722631879165085
 30
0.0
 40
0.070629115966149
  0
LINE
  5
69B
330
2
100
AcDbEntity
  8
0
100
AcDbLine
 10
12.53853505487572
 20
7.702420524105639
 30
0.0
 11
12.66130251473375
 21
7.760836644453767
 31
0.0
  0
LINE
  5
69C
330
2
100
AcDbEntity
  8
0
100
AcDbLine
 10
12.54660073042006
 20
7.68594734668563
 30
0.0
 11
12.66936819027809
 21
7.744363467033758
 31
0.0
  0
CIRCLE
  5
69D
330
2
100
AcDbEntity
  8
0
 62
     3
100
AcDbCircle
 10
12.60365984209459
 20
7.723803314477072
 30
0.0
 40
0.0752170886048032
  0
LINE
  5
69E
330
2
100
AcDbEntity
  8
0
 62
     3
100
AcDbLine
 10
12.72123466297607
 20
10.62600155180801
 30
0.0
 11
12.49093235143047
 21
10.62600155180801
 31
0.0
  0
LINE
  5
69F
330
2
100
AcDbEntity
  8
0
 62
     3
100
AcDbLine
 10
12.49093235143047
 20
10.33622357585671
 30
0.0
 11
12.72123466297607
 21
10.33622357585671
 31
0.0
  0
LINE
  5
6A0
330
2
100
AcDbEntity
  8
0
 62
     3
100
AcDbLine
 10
12.72123466297607
 20
10.481913487089
 30
0.0
 11
12.49093235143047
 21
10.481913487089
 31
0.0
  0
CIRCLE
  5
6A2
330
2
100
AcDbEntity
  8
0
 62
     3
100
AcDbCircle
 10
12.60258631594675
 20
10.1572831744873
 30
0.0
 40
0.0752170886048032
  0
LINE
  5
6A3
330
2
100
AcDbEntity
  8
0
100
AcDbLine
 10
12.53746152872789
 20
10.17866596485873
 30
0.0
 11
12.66022898858591
 21
10.1202498445106
 31
0.0
  0
LINE
  5
6A4
330
2
100
AcDbEntity
  8
0
100
AcDbLine
 10
12.54552720427223
 20
10.19513914227874
 30
0.0
 11
12.66829466413026
 21
10.13672302193062
 31
0.0
  0
CIRCLE
  5
6A5
330
2
100
AcDbEntity
  8
0
100
AcDbCircle
 10
12.60282076772867
 20
10.15845460979929
 30
0.0
 40
0.070629115966149
  0
LINE
  5
6A6
330
2
100
AcDbEntity
  8
0
 62
     3
100
AcDbLine
 10
12.49093235143045
 20
9.705928868787706
 30
0.0
 11
12.72123466297605
 21
9.705928868787706
 31
0.0
  0
LINE
  5
6A7
330
2
100
AcDbEntity
  8
0
 62
     3
100
AcDbLine
 10
12.72123466297605
 20
8.289854772225384
 30
0.0
 11
12.49093235143045
 21
8.289854772225384
 31
0.0
  0
LINE
  5
6A8
330
2
100
AcDbEntity
  8
0
 62
     3
100
AcDbLine
 10
12.72123466297605
 20
10.74569436608715
 30
0.0
 11
12.49093235143045
 21
10.74569436608715
 31
0.0
  0
LINE
  5
6A9
330
2
100
AcDbEntity
  8
0
 62
     7
100
AcDbLine
 10
12.70205144076642
 20
9.546129419704632
 30
0.0
 11
12.50676452800941
 21
9.546129419704632
 31
0.0
  0
LINE
  5
6AA
330
2
100
AcDbEntity
  8
0
 62
     7
100
AcDbLine
 10
12.70205144076642
 20
9.32002754212498
 30
0.0
 11
12.51113537586256
 21
9.320027542124982
 31
0.0
  0
LINE
  5
6B9
330
2
100
AcDbEntity
  8
0
 62
     3
100
AcDbLine
 10
12.53092251570802
 20
9.582467202650684
 30
0.0
 11
12.53092251570803
 21
9.654454430057768
 31
0.0
  0
LINE
  5
6BA
330
2
100
AcDbEntity
  8
0
 62
     3
100
AcDbLine
 10
12.53092251570803
 20
9.654454430057768
 30
0.0
 11
12.6774206157556
 21
9.654454430057768
 31
0.0
  0
LINE
  5
6BB
330
2
100
AcDbEntity
  8
0
 62
     3
100
AcDbLine
 10
12.6774206157556
 20
9.654454430057768
 30
0.0
 11
12.6774206157556
 21
9.582467202650684
 31
0.0
  0
LINE
  5
6BC
330
2
100
AcDbEntity
  8
0
 62
     3
100
AcDbLine
 10
12.50664601664701
 20
8.389144186401919
 30
0.0
 11
12.50664601664701
 21
8.361261041800759
 31
0.0
  0
LINE
  5
6BF
330
2
100
AcDbEntity
  8
0
 62
     3
100
AcDbLine
 10
12.48976945099455
 20
3.255797395193282
 30
0.0
 11
12.72007176254014
 21
3.255797395193282
 31
0.0
  0
LINE
  5
6C0
330
2
100
AcDbEntity
  8
0
 62
     3
100
AcDbLine
 10
12.48976945099455
 20
3.194785743997542
 30
0.0
 11
12.72007176254014
 21
3.194785743997542
 31
0.0
  0
LINE
  5
6C1
330
2
100
AcDbEntity
  8
0
 62
     3
100
AcDbLine
 10
12.65182794536768
 20
2.790571240951813
 30
0.0
 11
12.65182794536768
 21
2.912594484830037
 31
0.0
  0
LINE
  5
6C2
330
2
100
AcDbEntity
  8
0
 62
     3
100
AcDbLine
 10
12.65182794536768
 20
2.912594484830037
 30
0.0
 11
12.71288609348384
 21
2.912594484830037
 31
0.0
  0
LINE
  5
6C3
330
2
100
AcDbEntity
  8
0
 62
     3
100
AcDbLine
 10
12.60324735388485
 20
7.807411947408417
 30
0.0
 11
12.60334535651222
 21
8.345290292419665
 31
0.0
  0
LINE
  5
6C8
330
2
100
AcDbEntity
  8
0
 62
     3
100
AcDbLine
 10
12.59994177341815
 20
10.2434050648401
 30
0.0
 11
12.6000482863058
 21
10.74569436608715
 31
0.0
  0
LINE
  5
6D0
330
2
100
AcDbEntity
  8
0
 62
     7
100
AcDbLine
 10
12.5424113660707
 20
9.157930772788455
 30
0.0
 11
12.5424113660707
 21
9.273414404104778
 31
0.0
  0
LINE
  5
6D1
330
2
100
AcDbEntity
  8
0
 62
     7
100
AcDbLine
 10
12.67750172596365
 20
9.273414404104778
 30
0.0
 11
12.67750172596365
 21
9.157930772788455
 31
0.0
  0
ARC
  5
6D2
330
2
100
AcDbEntity
  8
0
 62
     7
100
AcDbCircle
 10
12.62074209871707
 20
9.203750613011946
 30
0.0
 40
0.044280785318197
100
AcDbArc
 50
178.3602723065112
 51
1.03554420503952
  0
LINE
  5
6D3
330
2
100
AcDbEntity
  8
0
 62
     7
100
AcDbLine
 10
12.55577943027606
 20
9.264954118077172
 30
0.0
 11
12.55577943027606
 21
9.235544025212234
 31
0.0
  0
ARC
  5
6D4
330
2
100
AcDbEntity
  8
0
 62
     7
100
AcDbCircle
 10
12.62059663268361
 20
9.22152789072275
 30
0.0
 40
0.0211461407222837
100
AcDbArc
 50
21.69349537466564
 51
158.3065046253343
  0
LINE
  5
6D5
330
2
100
AcDbEntity
  8
0
 62
     7
100
AcDbLine
 10
12.66515943815081
 20
9.264662472935251
 30
0.0
 11
12.66515943815081
 21
9.231443551816756
 31
0.0
  0
LINE
  5
6D6
330
2
100
AcDbEntity
  8
0
 62
     7
100
AcDbLine
 10
12.55221473035901
 20
9.283217768393091
 30
0.0
 11
12.66769836167533
 21
9.283217768393091
 31
0.0
  0
LINE
  5
6D7
330
2
100
AcDbEntity
  8
0
 62
     7
100
AcDbLine
 10
12.66026643999508
 20
9.269855800221327
 30
0.0
 11
12.56068111242022
 21
9.269855800221327
 31
0.0
  0
ARC
  5
6D8
330
2
100
AcDbEntity
  8
0
 62
     7
100
AcDbCircle
 10
12.55221473035901
 20
9.273414404104777
 30
0.0
 40
0.0098033642883126
100
AcDbArc
 50
89.99999999999998
 51
180.0000000000001
  0
ARC
  5
6D9
330
2
100
AcDbEntity
  8
0
 62
     7
100
AcDbCircle
 10
12.56068111242022
 20
9.264954118077168
 30
0.0
 40
0.0049016821441563
100
AcDbArc
 50
89.99999999999992
 51
180.0
  0
ARC
  5
6DA
330
2
100
AcDbEntity
  8
0
 62
     7
100
AcDbCircle
 10
12.66769836167533
 20
9.273414404104777
 30
0.0
 40
0.0098033642883126
100
AcDbArc
 50
0.0
 51
89.99999999999998
  0
ARC
  5
6DB
330
2
100
AcDbEntity
  8
0
 62
     7
100
AcDbCircle
 10
12.66026643999508
 20
9.264954118077168
 30
0.0
 40
0.0049016821441563
100
AcDbArc
 50
356.5889443095845
 51
89.99999999999998
  0
ARC
  5
6DC
330
2
100
AcDbEntity
  8
0
 62
     7
100
AcDbCircle
 10
12.62059663268361
 20
9.22152789072275
 30
0.0
 40
0.0211461407222837
100
AcDbArc
 50
201.150816959864
 51
336.8106743924578
  0
CIRCLE
  5
6DD
330
2
100
AcDbEntity
  8
0
 62
     7
100
AcDbCircle
 10
12.62059663268361
 20
9.22152789072275
 30
0.0
 40
0.0130856835700509
  0
LINE
  5
6DE
330
2
100
AcDbEntity
  8
0
 62
     7
100
AcDbLine
 10
12.66769836167533
 20
9.148127408500146
 30
0.0
 11
12.55221473035901
 21
9.148127408500146
 31
0.0
  0
ARC
  5
6DF
330
2
100
AcDbEntity
  8
0
 62
     7
100
AcDbCircle
 10
12.59582321132789
 20
9.210884994468351
 30
0.0
 40
0.0058820185729876
100
AcDbArc
 50
30.81148722185998
 51
89.99999999999998
  0
ARC
  5
6E0
330
2
100
AcDbEntity
  8
0
 62
     7
100
AcDbCircle
 10
12.59548275515381
 20
9.231518613935239
 30
0.0
 40
0.0058820185729876
100
AcDbArc
 50
269.9999999999996
 51
338.3065046253323
  0
LINE
  5
6E1
330
2
100
AcDbEntity
  8
0
 62
     7
100
AcDbLine
 10
12.59575211308252
 20
9.216767013041339
 30
0.0
 11
12.58262308685263
 21
9.216767013041339
 31
0.0
  0
LINE
  5
6E2
330
2
100
AcDbEntity
  8
0
 62
     7
100
AcDbLine
 10
12.57647944573976
 20
9.205017696200654
 30
0.0
 11
12.57647944573976
 21
9.210861581414112
 31
0.0
  0
ARC
  5
6E3
330
2
100
AcDbEntity
  8
0
 62
     7
100
AcDbCircle
 10
12.5616586736561
 20
9.231518613935239
 30
0.0
 40
0.0058820185729876
100
AcDbArc
 50
180.0
 51
269.9999999999995
  0
LINE
  5
6E4
330
2
100
AcDbEntity
  8
0
 62
     7
100
AcDbLine
 10
12.55577665508311
 20
9.235632528567842
 30
0.0
 11
12.55577665508311
 21
9.231518613935239
 31
0.0
  0
ARC
  5
6E5
330
2
100
AcDbEntity
  8
0
 62
     7
100
AcDbCircle
 10
12.58236146431275
 20
9.210861581414112
 30
0.0
 40
0.0058820185729876
100
AcDbArc
 50
89.99999999999998
 51
180.0
  0
LINE
  5
6E6
330
2
100
AcDbEntity
  8
0
 62
     7
100
AcDbLine
 10
12.59548275515381
 20
9.225636595362251
 30
0.0
 11
12.5616586736561
 21
9.225636595362255
 31
0.0
  0
ARC
  5
6E7
330
2
100
AcDbEntity
  8
0
 62
     7
100
AcDbCircle
 10
12.55221473035901
 20
9.157930772788455
 30
0.0
 40
0.0098033642883126
100
AcDbArc
 50
180.0000000000001
 51
270.0
  0
LINE
  5
6E8
330
2
100
AcDbEntity
  8
0
 62
     7
100
AcDbLine
 10
12.66501664091373
 20
9.210884994468354
 30
0.0
 11
12.66501664091373
 21
9.204524442351132
 31
0.0
  0
ARC
  5
6E9
330
2
100
AcDbEntity
  8
0
 62
     7
100
AcDbCircle
 10
12.65913462234074
 20
9.210884994468351
 30
0.0
 40
0.0058820185729876
100
AcDbArc
 50
0.0
 51
89.99999999999998
  0
ARC
  5
6EA
330
2
100
AcDbEntity
  8
0
 62
     7
100
AcDbCircle
 10
12.65927741957782
 20
9.231443551816754
 30
0.0
 40
0.0058820185729876
100
AcDbArc
 50
278.6831100504179
 51
0.0
  0
ARC
  5
6EB
330
2
100
AcDbEntity
  8
0
 62
     7
100
AcDbCircle
 10
12.6454411522847
 20
9.210884994468351
 30
0.0
 40
0.0058820185729876
100
AcDbArc
 50
89.99999999999998
 51
156.8106743924578
  0
ARC
  5
6EC
330
2
100
AcDbEntity
  8
0
 62
     7
100
AcDbCircle
 10
12.64571051021342
 20
9.231518613935239
 30
0.0
 40
0.0058820185729876
100
AcDbArc
 50
201.6934953746675
 51
270.0
  0
LINE
  5
6ED
330
2
100
AcDbEntity
  8
0
 62
     7
100
AcDbLine
 10
12.66014929689598
 20
9.225636595362251
 30
0.0
 11
12.64571051021342
 21
9.225636595362251
 31
0.0
  0
LINE
  5
6EE
330
2
100
AcDbEntity
  8
0
 62
     7
100
AcDbLine
 10
12.65932761732479
 20
9.216767013041339
 30
0.0
 11
12.6454411522847
 21
9.216767013041339
 31
0.0
  0
ARC
  5
6EF
330
2
100
AcDbEntity
  8
0
 62
     7
100
AcDbCircle
 10
12.66769836167533
 20
9.157930772788455
 30
0.0
 40
0.0098033642883126
100
AcDbArc
 50
270.0
 51
0.0
  0
TEXT
  5
6F0
330
2
100
AcDbEntity
  8
0
 62
     7
100
AcDbText
 10
7.755393703407277
 20
1.665911962236485
 30
0.0
 40
0.084375
  1
DIMENSIONS IN INCHES
  7
ROMANS
100
AcDbText
  0
TEXT
  5
6F1
330
2
100
AcDbEntity
  8
0
 62
     7
100
AcDbText
 10
9.203123883162163
 20
5.589090443746512
 30
0.0
 40
0.06
  1
Isolating Amplifier
  7
ROMANS
100
AcDbText
  0
TEXT
  5
6F2
330
2
100
AcDbEntity
  8
0
 62
     7
100
AcDbText
 10
8.864926156911399
 20
5.434117440954
 30
0.0
 40
0.06
  1
In / Out:     0(4)...20mA
  7
ROMANS
100
AcDbText
  0
TEXT
  5
6F5
330
2
100
AcDbEntity
  8
0
 62
     7
100
AcDbText
 10
8.864926156911399
 20
5.309482998802361
 30
0.0
 40
0.06
  1
Load:        < 500
  7
ROMANS
100
AcDbText
  0
TEXT
  5
6F6
330
2
100
AcDbEntity
  8
0
 62
     7
100
AcDbText
 10
8.864926156911399
 20
5.184848615163978
 30
0.0
 40
0.06
  1
Transm. Error: < 0.1% of full scale
  7
ROMANS
100
AcDbText
  0
TEXT
  5
6F7
330
2
100
AcDbEntity
  8
0
 62
     7
100
AcDbText
 10
8.867331922914885
 20
5.057810069274768
 30
0.0
 40
0.06
  1
Test Voltage:  1.5kV, 50Hz, 1min
  7
ROMANS
100
AcDbText
  0
TEXT
  5
6F8
330
2
100
AcDbEntity
  8
0
 62
     7
100
AcDbText
 10
8.869737688918355
 20
4.922293903458334
 30
0.0
 40
0.06
  1
Amb. Temp.:  -20%%D...+65%%DC / -4%%d...+149%%DF
  7
ROMANS
100
AcDbText
  0
TEXT
  5
6F9
330
2
100
AcDbEntity
  8
0
 62
     7
100
AcDbText
 10
8.899154807246148
 20
4.515745288982532
 30
0.0
 40
0.06
  1
Out I
  7
ROMANS
100
AcDbText
  0
TEXT
  5
6FA
330
2
100
AcDbEntity
  8
0
100
AcDbText
 10
9.349110383631263
 20
4.416543915373799
 30
0.0
 40
0.06
  1
OUT
  7
ROMANS
100
AcDbText
  0
TEXT
  5
6FB
330
2
100
AcDbEntity
  8
0
 62
     7
100
AcDbText
 10
8.845051653503084
 20
4.316077141315837
 30
0.0
 40
0.06
  1
GND 2
  7
ROMANS
100
AcDbText
  0
TEXT
  5
6FC
330
2
100
AcDbEntity
  8
0
 62
     7
100
AcDbText
 10
8.562571220557217
 20
4.144246099486674
 30
0.0
 40
0.06
  1
19.2...30VDC
  7
ROMANS
100
AcDbText
  0
TEXT
  5
6FD
330
2
100
AcDbEntity
  8
0
100
AcDbText
 10
9.500739158585076
 20
4.047019763362321
 30
0.0
 40
0.06
  1
POWER
  7
ROMANS
100
AcDbText
  0
TEXT
  5
6FE
330
2
100
AcDbEntity
  8
0
 62
     7
100
AcDbText
 10
8.846934443290926
 20
3.963937496243541
 30
0.0
 40
0.06
  1
GND 3
  7
ROMANS
100
AcDbText
  0
TEXT
  5
6FF
330
2
100
AcDbEntity
  8
0
 62
     7
100
AcDbText
 10
10.14742884193077
 20
3.963937496243538
 30
0.0
 40
0.06
  1
GND 3
  7
ROMANS
100
AcDbText
  0
TEXT
  5
700
330
2
100
AcDbEntity
  8
0
 62
     7
100
AcDbText
 10
10.12816209714482
 20
4.144246099486672
 30
0.0
 40
0.06
  1
19.2...30VDC
  7
ROMANS
100
AcDbText
  0
TEXT
  5
701
330
2
100
AcDbEntity
  8
0
 62
     7
100
AcDbText
 10
10.13905209215998
 20
4.324554845048093
 30
0.0
 40
0.06
  1
GND 1
  7
ROMANS
100
AcDbText
  0
TEXT
  5
702
330
2
100
AcDbEntity
  8
0
 62
     7
100
AcDbText
 10
10.14135048166219
 20
4.515745288982532
 30
0.0
 40
0.06
  1
In I
  7
ROMANS
100
AcDbText
  0
TEXT
  5
703
330
2
100
AcDbEntity
  8
0
100
AcDbText
 10
9.383878205286919
 20
4.515745347495784
 30
0.0
 40
0.06
  1
5+
  7
ROMANS
100
AcDbText
  0
TEXT
  5
704
330
2
100
AcDbEntity
  8
0
100
AcDbText
 10
9.332865307805631
 20
4.313365004577394
 30
0.0
 40
0.06
  1
6-
  7
ROMANS
100
AcDbText
  0
TEXT
  5
705
330
2
100
AcDbEntity
  8
0
100
AcDbText
 10
9.797602194638171
 20
4.321842708309648
 30
0.0
 40
0.06
  1
-2
  7
ROMANS
100
AcDbText
  0
TEXT
  5
706
330
2
100
AcDbEntity
  8
0
100
AcDbText
 10
9.800438054286331
 20
4.425021644397825
 30
0.0
 40
0.06
  1
IN
  7
ROMANS
100
AcDbText
  0
TEXT
  5
707
330
2
100
AcDbEntity
  8
0
100
AcDbText
 10
9.774247344213314
 20
4.515745347495784
 30
0.0
 40
0.06
  1
+1
  7
ROMANS
100
AcDbText
  0
TEXT
  5
708
330
2
100
AcDbEntity
  8
0
100
AcDbText
 10
9.319755311928915
 20
3.981836514755173
 30
0.0
 40
0.06
  1
8-
  7
ROMANS
100
AcDbText
  0
TEXT
  5
709
330
2
100
AcDbEntity
  8
0
 62
     7
100
AcDbText
 10
9.213661983915351
 20
4.14791565425703
 30
0.0
 40
0.06
  1
 
  7
ROMANS
100
AcDbText
  0
TEXT
  5
70A
330
2
100
AcDbEntity
  8
0
100
AcDbText
 10
9.310855674283061
 20
4.128850569902559
 30
0.0
 40
0.06
  1
7+
  7
ROMANS
100
AcDbText
  0
TEXT
  5
70C
330
2
100
AcDbEntity
  8
0
100
AcDbText
 10
9.853333741555452
 20
3.965202914054856
 30
0.0
 40
0.06
  1
-4
  7
ROMANS
100
AcDbText
  0
TEXT
  5
70D
330
2
100
AcDbEntity
  8
0
100
AcDbText
 10
9.83814054990875
 20
4.137971760704306
 30
0.0
 40
0.06
  1
+3
  7
ROMANS
100
AcDbText
  0
TEXT
  5
70E
330
2
100
AcDbEntity
  8
0
 62
     7
100
AcDbText
 10
10.67249085398543
 20
2.822409737966403
 30
0.0
 40
0.045
  1
>PBT-FR<
  7
ROMANS
100
AcDbText
  0
ARC
  5
716
330
2
100
AcDbEntity
  8
0
 62
     7
100
AcDbCircle
 10
10.72258024428456
 20
2.842530695170913
 30
0.0
 40
0.0654487936921496
100
AcDbArc
 50
84.59294342574095
 51
272.7771164982407
  0
ARC
  5
718
330
2
100
AcDbEntity
  8
0
 62
     7
100
AcDbCircle
 10
10.9826988099974
 20
2.842530673147203
 30
0.0
 40
0.0654487936921496
100
AcDbArc
 50
273.7929888016379
 51
85.245485186035
  0
LINE
  5
719
330
2
100
AcDbEntity
  8
0
100
AcDbLine
 10
10.98702836553671
 20
2.777225240413091
 30
0.0
 11
10.72575129398872
 21
2.777158766642444
 31
0.0
  0
LINE
  5
71A
330
2
100
AcDbEntity
  8
0
100
AcDbLine
 10
10.99002461629806
 20
2.907754739497296
 30
0.0
 11
10.72874754475008
 21
2.907688265726648
 31
0.0
  0
LINE
  5
71B
330
2
100
AcDbEntity
  8
0
 62
     3
100
AcDbLine
 10
11.1444166539483
 20
3.293405941637153
 30
0.0
 11
11.1444166539483
 21
3.390739488169657
 31
0.0
  0
LINE
  5
71C
330
2
100
AcDbEntity
  8
0
 62
     3
100
AcDbLine
 10
11.1444166539483
 20
3.293405941637153
 30
0.0
 11
11.4245616515609
 21
3.410586618252668
 31
0.0
  0
LINE
  5
71D
330
2
100
AcDbEntity
  8
0
 62
     3
100
AcDbLine
 10
11.1444166539483
 20
3.390739488169657
 30
0.0
 11
11.4245616515609
 21
3.507920164785173
 31
0.0
  0
LINE
  5
71E
330
2
100
AcDbEntity
  8
0
 62
     3
100
AcDbLine
 10
8.059807305484389
 20
3.293405941637153
 30
0.0
 11
7.779662307871781
 21
3.410586618252668
 31
0.0
  0
LINE
  5
71F
330
2
100
AcDbEntity
  8
0
 62
     3
100
AcDbLine
 10
8.059807305484389
 20
3.390739488169657
 30
0.0
 11
7.779662307871781
 21
3.507920164785173
 31
0.0
  0
LINE
  5
720
330
2
100
AcDbEntity
  8
0
 62
     3
100
AcDbLine
 10
8.059807305484389
 20
3.293405941637153
 30
0.0
 11
8.059807305484389
 21
3.390739488169657
 31
0.0
  0
LINE
  5
721
330
2
100
AcDbEntity
  8
0
 62
     3
100
AcDbLine
 10
8.059807305484389
 20
3.590739488169656
 30
0.0
 11
7.779662307871781
 21
3.707920164785173
 31
0.0
  0
LINE
  5
722
330
2
100
AcDbEntity
  8
0
 62
     3
100
AcDbLine
 10
8.059807305484389
 20
3.493405941637153
 30
0.0
 11
7.779662307871781
 21
3.61058661825267
 31
0.0
  0
LINE
  5
724
330
2
100
AcDbEntity
  8
0
 62
     3
100
AcDbLine
 10
8.059807305484389
 20
3.493405941637153
 30
0.0
 11
8.059807305484389
 21
3.590739488169656
 31
0.0
  0
LINE
  5
726
330
2
100
AcDbEntity
  8
0
 62
     3
100
AcDbLine
 10
11.1444166539483
 20
3.493405941637153
 30
0.0
 11
11.4245616515609
 21
3.61058661825267
 31
0.0
  0
LINE
  5
727
330
2
100
AcDbEntity
  8
0
 62
     3
100
AcDbLine
 10
11.1444166539483
 20
3.590739488169656
 30
0.0
 11
11.4245616515609
 21
3.707920164785173
 31
0.0
  0
LINE
  5
728
330
2
100
AcDbEntity
  8
0
 62
     3
100
AcDbLine
 10
11.1444166539483
 20
3.493405941637153
 30
0.0
 11
11.1444166539483
 21
3.590739488169656
 31
0.0
  0
LINE
  5
72A
330
2
100
AcDbEntity
  8
0
 62
     3
100
AcDbLine
 10
8.059807305484389
 20
3.790739488169657
 30
0.0
 11
7.779662307871781
 21
3.907920164785173
 31
0.0
  0
LINE
  5
72B
330
2
100
AcDbEntity
  8
0
 62
     3
100
AcDbLine
 10
8.059807305484389
 20
3.693405941637152
 30
0.0
 11
7.779662307871781
 21
3.810586618252668
 31
0.0
  0
LINE
  5
72D
330
2
100
AcDbEntity
  8
0
 62
     3
100
AcDbLine
 10
8.059807305484389
 20
3.693405941637152
 30
0.0
 11
8.059807305484389
 21
3.790739488169657
 31
0.0
  0
LINE
  5
72F
330
2
100
AcDbEntity
  8
0
 62
     3
100
AcDbLine
 10
11.1444166539483
 20
3.693405941637152
 30
0.0
 11
11.4245616515609
 21
3.810586618252668
 31
0.0
  0
LINE
  5
730
330
2
100
AcDbEntity
  8
0
 62
     3
100
AcDbLine
 10
11.1444166539483
 20
3.790739488169657
 30
0.0
 11
11.4245616515609
 21
3.907920164785173
 31
0.0
  0
LINE
  5
731
330
2
100
AcDbEntity
  8
0
 62
     3
100
AcDbLine
 10
11.1444166539483
 20
3.693405941637152
 30
0.0
 11
11.1444166539483
 21
3.790739488169657
 31
0.0
  0
LINE
  5
733
330
2
100
AcDbEntity
  8
0
 62
     3
100
AcDbLine
 10
8.059807305484389
 20
3.990739488169657
 30
0.0
 11
7.779662307871781
 21
4.107920164785173
 31
0.0
  0
LINE
  5
734
330
2
100
AcDbEntity
  8
0
 62
     3
100
AcDbLine
 10
8.059807305484389
 20
3.893405941637153
 30
0.0
 11
7.779662307871781
 21
4.01058661825267
 31
0.0
  0
LINE
  5
736
330
2
100
AcDbEntity
  8
0
 62
     3
100
AcDbLine
 10
8.059807305484389
 20
3.893405941637153
 30
0.0
 11
8.059807305484389
 21
3.990739488169657
 31
0.0
  0
LINE
  5
738
330
2
100
AcDbEntity
  8
0
 62
     3
100
AcDbLine
 10
11.1444166539483
 20
3.893405941637153
 30
0.0
 11
11.4245616515609
 21
4.01058661825267
 31
0.0
  0
LINE
  5
739
330
2
100
AcDbEntity
  8
0
 62
     3
100
AcDbLine
 10
11.1444166539483
 20
3.990739488169657
 30
0.0
 11
11.4245616515609
 21
4.107920164785173
 31
0.0
  0
LINE
  5
73A
330
2
100
AcDbEntity
  8
0
 62
     3
100
AcDbLine
 10
11.1444166539483
 20
3.893405941637153
 30
0.0
 11
11.1444166539483
 21
3.990739488169657
 31
0.0
  0
TEXT
  5
73C
330
2
100
AcDbEntity
  8
0
100
AcDbText
 10
9.619820488417815
 20
4.376969493349181
 30
0.0
 40
0.06
  1
.
  7
ROMANS
100
AcDbText
  0
LINE
  5
73D
330
2
100
AcDbEntity
  8
0
100
AcDbLine
 10
9.618346747162872
 20
4.487364392331605
 30
0.0
 11
9.618346747162872
 21
4.643098127483892
 31
0.0
  0
LINE
  5
73E
330
2
100
AcDbEntity
  8
0
100
AcDbLine
 10
9.64432241041355
 20
4.493853276886468
 30
0.0
 11
9.64432241041355
 21
4.649587012038753
 31
0.0
  0
LINE
  5
73F
330
2
100
AcDbEntity
  8
0
100
AcDbLine
 10
9.64432241041355
 20
4.487364367039823
 30
0.0
 11
9.64432241041355
 21
4.643098102192108
 31
0.0
  0
LINE
  5
740
330
2
100
AcDbEntity
  8
0
100
AcDbLine
 10
9.587867481298538
 20
3.847996774782006
 30
0.0
 11
9.587867481298538
 21
4.003730509934293
 31
0.0
  0
LINE
  5
741
330
2
100
AcDbEntity
  8
0
100
AcDbLine
 10
9.58786752546883
 20
4.00373048464251
 30
0.0
 11
9.568385778030815
 21
3.951819256452935
 31
0.0
  0
LINE
  5
742
330
2
100
AcDbEntity
  8
0
100
AcDbLine
 10
9.58786752546883
 20
4.00373048464251
 30
0.0
 11
9.607349272906843
 21
3.951819256452935
 31
0.0
  0
ARC
  5
743
330
2
100
AcDbEntity
  8
0
 62
     7
100
AcDbCircle
 10
9.586619405655612
 20
3.805487348466517
 30
0.0
 40
0.0375803263721565
100
AcDbArc
 50
354.5929434257409
 51
182.7771164982407
  0
ARC
  5
744
330
2
100
AcDbEntity
  8
0
 62
     7
100
AcDbCircle
 10
9.710003806096338
 20
3.805487348466517
 30
0.0
 40
0.0375803263721565
100
AcDbArc
 50
354.5929434257409
 51
182.7771164982407
  0
LINE
  5
745
330
2
100
AcDbEntity
  8
0
100
AcDbLine
 10
9.711251881739263
 20
3.847996774782006
 30
0.0
 11
9.711251881739263
 21
4.003730509934293
 31
0.0
  0
LINE
  5
746
330
2
100
AcDbEntity
  8
0
100
AcDbLine
 10
9.711251925909555
 20
4.00373048464251
 30
0.0
 11
9.730733673347572
 21
3.951819256452935
 31
0.0
  0
LINE
  5
747
330
2
100
AcDbEntity
  8
0
100
AcDbLine
 10
9.711251925909555
 20
4.00373048464251
 30
0.0
 11
9.691770178471543
 21
3.951819256452935
 31
0.0
  0
LINE
  5
748
330
2
100
AcDbEntity
  8
0
100
AcDbLine
 10
9.237102010489227
 20
4.403533543197295
 30
0.0
 11
9.237135420102383
 21
4.219526574285668
 31
0.0
  0
LINE
  5
749
330
2
100
AcDbEntity
  8
0
100
AcDbLine
 10
10.03626206040237
 20
4.406344871097426
 30
0.0
 11
10.03626206040237
 21
4.241533182789403
 31
0.0
  0
LINE
  5
74B
330
2
100
AcDbEntity
  8
0
100
AcDbLine
 10
9.201802019523453
 20
4.206291745177254
 30
0.0
 11
9.201693237286054
 21
3.91820749602594
 31
0.0
  0
LINE
  5
74D
330
2
100
AcDbEntity
  8
0
100
AcDbLine
 10
9.237135420102383
 20
4.219526574285668
 30
0.0
 11
9.201802019523453
 21
4.206291745177254
 31
0.0
  0
LINE
  5
752
330
2
100
AcDbEntity
  8
0
100
AcDbLine
 10
10.0733389497154
 20
4.208974189556165
 30
0.0
 11
10.0733389497154
 21
3.917693689056028
 31
0.0
  0
LINE
  5
754
330
2
100
AcDbEntity
  8
0
100
AcDbLine
 10
10.03626206040237
 20
4.241533182789403
 30
0.0
 11
10.0733389497154
 21
4.208974189556165
 31
0.0
  0
LINE
  5
756
330
2
100
AcDbEntity
  8
0
100
AcDbLine
 10
9.27423968029918
 20
4.592963084864226
 30
0.0
 11
9.274451799948748
 21
4.422637861739405
 31
0.0
  0
LINE
  5
757
330
2
100
AcDbEntity
  8
0
100
AcDbLine
 10
9.274451799948748
 20
4.422637861739405
 30
0.0
 11
9.237102010489227
 21
4.403533543197295
 31
0.0
  0
LINE
  5
758
330
2
100
AcDbEntity
  8
0
100
AcDbLine
 10
9.872067797542225
 20
4.667749513512115
 30
0.0
 11
9.409051080546447
 21
4.668012688726853
 31
0.0
  0
LINE
  5
75F
330
2
100
AcDbEntity
  8
0
100
AcDbLine
 10
9.999367754026376
 20
4.596881535816303
 30
0.0
 11
9.999367754026373
 21
4.425036932772231
 31
0.0
  0
LINE
  5
760
330
2
100
AcDbEntity
  8
0
100
AcDbLine
 10
9.999367754026373
 20
4.425036932772231
 30
0.0
 11
10.03626206040237
 21
4.406344871097426
 31
0.0
  0
LINE
  5
761
330
2
100
AcDbEntity
  8
0
100
AcDbLine
 10
9.872067797542225
 20
4.667749513512115
 30
0.0
 11
9.999367754026376
 21
4.596881535816303
 31
0.0
  0
LINE
  5
762
330
2
100
AcDbEntity
  8
0
100
AcDbLine
 10
9.409051080546447
 20
4.668012688726853
 30
0.0
 11
9.27423968029918
 21
4.592963084864226
 31
0.0
  0
LINE
  5
763
330
2
100
AcDbEntity
  8
0
100
AcDbLine
 10
10.0733389497154
 20
3.917693689056028
 30
0.0
 11
9.201693237286054
 21
3.91820749602594
 31
0.0
  0
CIRCLE
  5
764
330
2
100
AcDbEntity
  8
0
100
AcDbCircle
 10
9.947872930533812
 20
4.547560343086273
 30
0.0
 40
0.0228584350222029
  0
CIRCLE
  5
765
330
2
100
AcDbEntity
  8
0
100
AcDbCircle
 10
9.328524345191812
 20
4.543321503866035
 30
0.0
 40
0.0228584350222029
  0
CIRCLE
  5
766
330
2
100
AcDbEntity
  8
0
100
AcDbCircle
 10
9.27888661755016
 20
4.348334798567987
 30
0.0
 40
0.0228584350222029
  0
CIRCLE
  5
767
330
2
100
AcDbEntity
  8
0
100
AcDbCircle
 10
9.990294075592226
 20
4.348334798567987
 30
0.0
 40
0.0228584350222029
  0
CIRCLE
  5
768
330
2
100
AcDbEntity
  8
0
100
AcDbCircle
 10
9.255416893525623
 20
4.161825771710412
 30
0.0
 40
0.0228584350222029
  0
CIRCLE
  5
769
330
2
100
AcDbEntity
  8
0
100
AcDbCircle
 10
10.02423099163896
 20
4.170303475442668
 30
0.0
 40
0.0228584350222029
  0
CIRCLE
  5
76A
330
2
100
AcDbEntity
  8
0
100
AcDbCircle
 10
9.260650513098344
 20
4.000749830757825
 30
0.0
 40
0.0228584350222029
  0
CIRCLE
  5
76B
330
2
100
AcDbEntity
  8
0
100
AcDbCircle
 10
10.02423099163896
 20
4.000749830757825
 30
0.0
 40
0.0228584350222029
  0
LWPOLYLINE
  5
76C
330
2
100
AcDbEntity
  8
0
 62
     3
100
AcDbPolyline
 90
        4
 70
     1
 43
0.0
 10
10.04921759570549
 20
3.112134108315061
 10
10.08615099635059
 20
3.112134108315061
 10
10.13705637042068
 20
3.024438504601179
 10
10.10229725222613
 20
3.024438529892963
  0
ARC
  5
76D
330
2
100
AcDbEntity
  8
0
 62
     3
100
AcDbCircle
 10
10.30714732539883
 20
3.080888746456356
 30
0.0
 40
0.0479441743986103
100
AcDbArc
 50
15.81537872171376
 51
141.9276779053849
  0
LINE
  5
76E
330
2
100
AcDbEntity
  8
0
 62
     3
100
AcDbLine
 10
10.26940408905817
 20
3.110453792867593
 30
0.0
 11
10.27085235995119
 21
3.092967416126461
 31
0.0
  0
LINE
  5
76F
330
2
100
AcDbEntity
  8
0
100
AcDbLine
 10
9.71824916658554
 20
4.253137634935781
 30
0.0
 11
10.00973052175447
 21
4.253137634935781
 31
0.0
  0
LINE
  5
770
330
2
100
AcDbEntity
  8
0
100
AcDbLine
 10
9.724738076432183
 20
4.253137634935781
 30
0.0
 11
10.01621943160111
 21
4.253137634935781
 31
0.0
  0
LINE
  5
771
330
2
100
AcDbEntity
  8
0
100
AcDbLine
 10
9.718249191877324
 20
4.279113298186459
 30
0.0
 11
10.00973054704625
 21
4.279113298186459
 31
0.0
  0
LINE
  5
772
330
2
100
AcDbEntity
  8
0
100
AcDbLine
 10
9.554144319730225
 20
4.279113298186459
 30
0.0
 11
9.262662964561293
 21
4.279113298186459
 31
0.0
  0
LINE
  5
773
330
2
100
AcDbEntity
  8
0
100
AcDbLine
 10
9.547655435175359
 20
4.253137634935781
 30
0.0
 11
9.256174080006431
 21
4.253137634935781
 31
0.0
  0
LINE
  5
774
330
2
100
AcDbEntity
  8
0
100
AcDbLine
 10
9.554144345022006
 20
4.253137634935781
 30
0.0
 11
9.262662989853076
 21
4.253137634935781
 31
0.0
  0
LINE
  5
775
330
2
100
AcDbEntity
  8
0
100
AcDbLine
 10
9.593775610745352
 20
5.304031388872316
 30
0.0
 11
9.653165213827136
 21
5.304031388872316
 31
0.0
  0
ARC
  5
776
330
2
100
AcDbEntity
  8
0
100
AcDbCircle
 10
9.92013196219757
 20
5.349294170226754
 30
0.0
 40
0.0254202456276058
100
AcDbArc
 50
354.0068112617583
 51
186.4925947993515
  0
LINE
  5
777
330
2
100
AcDbEntity
  8
0
100
AcDbLine
 10
9.894874749865833
 20
5.346419781074692
 30
0.0
 11
9.910876894488076
 21
5.312630290817811
 31
0.0
  0
LINE
  5
778
330
2
100
AcDbEntity
  8
0
100
AcDbLine
 10
9.910876894488076
 20
5.312630290817811
 30
0.0
 11
9.910876894488076
 21
5.312630290817811
 31
0.0
  0
LINE
  5
779
330
2
100
AcDbEntity
  8
0
100
AcDbLine
 10
9.910876894488076
 20
5.312630290817811
 30
0.0
 11
9.910876894488076
 21
5.312630290817811
 31
0.0
  0
LINE
  5
77A
330
2
100
AcDbEntity
  8
0
100
AcDbLine
 10
9.910876894488076
 20
5.312630290817811
 30
0.0
 11
9.910936303526083
 21
5.309879556746042
 31
0.0
  0
LINE
  5
77B
330
2
100
AcDbEntity
  8
0
100
AcDbLine
 10
9.910936303526083
 20
5.309879556746042
 30
0.0
 11
9.90266625624325
 21
5.309879556746042
 31
0.0
  0
LINE
  5
77C
330
2
100
AcDbEntity
  8
0
100
AcDbLine
 10
9.90266625624325
 20
5.309879556746042
 30
0.0
 11
9.901105852462036
 21
5.312218313001565
 31
0.0
  0
LINE
  5
77D
330
2
100
AcDbEntity
  8
0
100
AcDbLine
 10
9.937517453091279
 20
5.309879556746042
 30
0.0
 11
9.939077856872494
 21
5.312218313001565
 31
0.0
  0
LINE
  5
77E
330
2
100
AcDbEntity
  8
0
100
AcDbLine
 10
9.929247405808444
 20
5.309879556746042
 30
0.0
 11
9.937517453091279
 21
5.309879556746042
 31
0.0
  0
LINE
  5
77F
330
2
100
AcDbEntity
  8
0
100
AcDbLine
 10
9.929306814846457
 20
5.312630290817811
 30
0.0
 11
9.929247405808444
 21
5.309879556746042
 31
0.0
  0
LINE
  5
780
330
2
100
AcDbEntity
  8
0
100
AcDbLine
 10
9.929306814846457
 20
5.312630290817811
 30
0.0
 11
9.929306814846457
 21
5.312630290817811
 31
0.0
  0
LINE
  5
781
330
2
100
AcDbEntity
  8
0
100
AcDbLine
 10
9.929306814846457
 20
5.312630290817811
 30
0.0
 11
9.929306814846457
 21
5.312630290817811
 31
0.0
  0
LINE
  5
782
330
2
100
AcDbEntity
  8
0
100
AcDbLine
 10
9.945413268759235
 20
5.346640036411685
 30
0.0
 11
9.929306814846457
 21
5.312630290817811
 31
0.0
  0
ARC
  5
783
330
2
100
AcDbEntity
  8
0
100
AcDbCircle
 10
10.92434488861749
 20
3.239326150755633
 30
0.0
 40
0.0229097452173775
100
AcDbArc
 50
349.0061571468327
 51
149.4996689120938
  0
LINE
  5
784
330
2
100
AcDbEntity
  8
0
100
AcDbLine
 10
10.9324832369516
 20
3.198070572240903
 30
0.0
 11
10.95766738107846
 21
3.219613244123205
 31
0.0
  0
LINE
  5
785
330
2
100
AcDbEntity
  8
0
100
AcDbLine
 10
10.92421318966876
 20
3.198070572240903
 30
0.0
 11
10.9324832369516
 21
3.198070572240903
 31
0.0
  0
LINE
  5
786
330
2
100
AcDbEntity
  8
0
100
AcDbLine
 10
10.92196147670251
 20
3.201687322176513
 30
0.0
 11
10.92421318966876
 21
3.198070572240903
 31
0.0
  0
LINE
  5
787
330
2
100
AcDbEntity
  8
0
100
AcDbLine
 10
10.92196147670251
 20
3.201687322176513
 30
0.0
 11
10.92196147670251
 21
3.201687322176513
 31
0.0
  0
LINE
  5
788
330
2
100
AcDbEntity
  8
0
100
AcDbLine
 10
10.92196147670251
 20
3.201687322176513
 30
0.0
 11
10.92196147670251
 21
3.201687322176513
 31
0.0
  0
LINE
  5
789
330
2
100
AcDbEntity
  8
0
100
AcDbLine
 10
10.94189299349351
 20
3.225482135611845
 30
0.0
 11
10.92196147670251
 21
3.201687322176513
 31
0.0
  0
LINE
  5
78A
330
2
100
AcDbEntity
  8
0
100
AcDbLine
 10
10.89532091809931
 20
3.198936588104746
 30
0.0
 11
10.88451602630104
 21
3.237069992284938
 31
0.0
  0
LINE
  5
78B
330
2
100
AcDbEntity
  8
0
100
AcDbLine
 10
10.90301321800879
 20
3.199225243198171
 30
0.0
 11
10.89532091809931
 21
3.198936588104746
 31
0.0
  0
LINE
  5
78C
330
2
100
AcDbEntity
  8
0
100
AcDbLine
 10
10.90353155634413
 20
3.206306006005586
 30
0.0
 11
10.90301321800879
 21
3.199225243198171
 31
0.0
  0
LINE
  5
78D
330
2
100
AcDbEntity
  8
0
100
AcDbLine
 10
10.90353155634413
 20
3.206306006005586
 30
0.0
 11
10.90353155634413
 21
3.206306006005586
 31
0.0
  0
LINE
  5
78E
330
2
100
AcDbEntity
  8
0
100
AcDbLine
 10
10.90353155634413
 20
3.206306006005586
 30
0.0
 11
10.90353155634413
 21
3.206306006005586
 31
0.0
  0
LINE
  5
78F
330
2
100
AcDbEntity
  8
0
100
AcDbLine
 10
10.89821831234259
 20
3.233456125612285
 30
0.0
 11
10.90353155634413
 21
3.206306006005586
 31
0.0
  0
ARC
  5
790
330
2
100
AcDbEntity
  8
0
100
AcDbCircle
 10
10.96936825904128
 20
3.10348936074916
 30
0.0
 40
0.1812788975644884
100
AcDbArc
 50
92.32036408129385
 51
111.0270315656616
  0
ARC
  5
791
330
2
100
AcDbEntity
  8
0
100
AcDbCircle
 10
10.98227408808823
 20
3.19509707610116
 30
0.0
 40
0.1099909225745367
100
AcDbArc
 50
135.1289811486461
 51
146.6698246451908
  0
ARC
  5
792
330
2
100
AcDbEntity
  8
0
100
AcDbCircle
 10
10.92029822455326
 20
3.238164270019082
 30
0.0
 40
0.0357989267369981
100
AcDbArc
 50
166.5812971018211
 51
181.7516520548659
  0
LINE
  5
793
330
2
100
AcDbEntity
  8
0
100
AcDbLine
 10
10.98326628988296
 20
3.25440091043672
 30
0.0
 11
10.9660409513878
 21
3.227381228069671
 31
0.0
  0
LINE
  5
794
330
2
100
AcDbEntity
  8
0
100
AcDbLine
 10
10.87465400375617
 20
3.250498532124816
 30
0.0
 11
10.88547660215916
 21
3.246471963403189
 31
0.0
  0
LINE
  5
796
330
2
100
AcDbEntity
  8
0
100
AcDbLine
 10
10.8805826833172
 20
3.259176142415006
 30
0.0
 11
10.89037468171673
 21
3.25553301042308
 31
0.0
  0
ARC
  5
797
330
2
100
AcDbEntity
  8
0
100
AcDbCircle
 10
10.92347552467433
 20
3.236330514764346
 30
0.0
 40
0.0254202456276058
100
AcDbArc
 50
168.0647324922033
 51
186.4925947993515
  0
LINE
  5
798
330
2
100
AcDbEntity
  8
0
100
AcDbLine
 10
10.8362876930163
 20
3.194343044305716
 30
0.0
 11
11.0242987667404
 21
3.194343044305718
 31
0.0
  0
LINE
  5
799
330
2
100
AcDbEntity
  8
0
100
AcDbLine
 10
10.93029322987835
 20
3.331935809374436
 30
0.0
 11
10.96202883410554
 21
3.284619622008311
 31
0.0
  0
LINE
  5
79A
330
2
100
AcDbEntity
  8
0
100
AcDbLine
 10
10.93029322987835
 20
3.331935809374436
 30
0.0
 11
10.8805826833172
 21
3.259176142415006
 31
0.0
  0
LINE
  5
79B
330
2
100
AcDbEntity
  8
0
100
AcDbLine
 10
10.87465400375617
 20
3.250498532124816
 30
0.0
 11
10.8362876930163
 21
3.194343044305716
 31
0.0
  0
LINE
  5
79C
330
2
100
AcDbEntity
  8
0
100
AcDbLine
 10
10.89860481711899
 20
3.241587585570845
 30
0.0
 11
10.94189299349351
 21
3.225482135611845
 31
0.0
  0
LINE
  5
79D
330
2
100
AcDbEntity
  8
0
100
AcDbLine
 10
10.90460525127105
 20
3.250953839406256
 30
0.0
 11
10.94684754380699
 21
3.235087650098933
 31
0.0
  0
LINE
  5
79E
330
2
100
AcDbEntity
  8
0
100
AcDbLine
 10
10.95766738107846
 20
3.219613244123205
 30
0.0
 11
11.02385917611051
 21
3.194986458430922
 31
0.0
  0
LINE
  5
79F
330
2
100
AcDbEntity
  8
0
100
AcDbLine
 10
10.96604095138779
 20
3.227381228069671
 30
0.0
 11
11.01388918638029
 21
3.209579199459575
 31
0.0
  0
LINE
  5
7A0
330
2
100
AcDbEntity
  8
0
100
AcDbLine
 10
11.02385917611051
 20
3.194986458430921
 30
0.0
 11
11.0242987667404
 21
3.194343044305718
 31
0.0
  0
LINE
  5
7A1
330
2
100
AcDbEntity
  8
0
100
AcDbLine
 10
10.98326628988296
 20
3.254400910436718
 30
0.0
 11
11.01388918638029
 21
3.209579199459575
 31
0.0
  0
TEXT
  5
7A8
330
2
100
AcDbEntity
  8
0
 62
     7
100
AcDbText
 10
12.66247832332256
 20
4.131320389275233
 30
0.0
 40
0.05625
  1
4
  7
ROMANS
100
AcDbText
  0
TEXT
  5
7A9
330
2
100
AcDbEntity
  8
0
 62
     7
100
AcDbText
 10
12.66247832332256
 20
5.586171097422768
 30
0.0
 40
0.05625
  1
2
  7
ROMANS
100
AcDbText
  0
TEXT
  5
7AA
330
2
100
AcDbEntity
  8
0
 62
     7
100
AcDbText
 10
12.66247832332256
 20
4.87369655122027
 30
0.0
 40
0.05625
  1
3
  7
ROMANS
100
AcDbText
  0
TEXT
  5
7AB
330
2
100
AcDbEntity
  8
0
 62
     7
100
AcDbText
 10
12.67203902764772
 20
6.306393725992793
 30
0.0
 40
0.05625
  1
1
  7
ROMANS
100
AcDbText
  0
LINE
  5
7AC
330
2
100
AcDbEntity
  8
0
 62
     3
100
AcDbLine
 10
12.48976945099456
 20
4.125743862568718
 30
0.0
 11
12.72007176254014
 21
4.125743862568718
 31
0.0
  0
LINE
  5
7AD
330
2
100
AcDbEntity
  8
0
 62
     3
100
AcDbLine
 10
12.48976945099456
 20
4.864055389775661
 30
0.0
 11
12.72021289397738
 21
4.864055389775661
 31
0.0
  0
LINE
  5
7AE
330
2
100
AcDbEntity
  8
0
 62
     3
100
AcDbLine
 10
12.48976945099455
 20
5.642598692973712
 30
0.0
 11
12.72007176254014
 21
5.642598692973712
 31
0.0
  0
LINE
  5
7BE
330
2
100
AcDbEntity
  8
0
 62
     3
100
AcDbLine
 10
12.53092251570803
 20
8.220783010935633
 30
0.0
 11
12.6774206157556
 21
8.220783010935633
 31
0.0
  0
LINE
  5
7BF
330
2
100
AcDbEntity
  8
0
 62
     3
100
AcDbLine
 10
12.53092251570802
 20
8.292770238342717
 30
0.0
 11
12.53092251570803
 21
8.220783010935633
 31
0.0
  0
LINE
  5
7C0
330
2
100
AcDbEntity
  8
0
 62
     3
100
AcDbLine
 10
12.6774206157556
 20
8.220783010935633
 30
0.0
 11
12.6774206157556
 21
8.292770238342717
 31
0.0
  0
LINE
  5
7C1
330
2
100
AcDbEntity
  8
0
 62
     3
100
AcDbLine
 10
12.50676452800941
 20
9.582467202650679
 30
0.0
 11
12.49093235143045
 21
9.582467202650684
 31
0.0
  0
LINE
  5
7C2
330
2
100
AcDbEntity
  8
0
 62
     7
100
AcDbLine
 10
12.70144662018818
 20
9.582467202650684
 30
0.0
 11
12.50613342266045
 21
9.582467202650684
 31
0.0
  0
TEXT
  5
7C3
330
2
100
AcDbEntity
  8
0
 62
     7
100
AcDbText
 10
12.62341774315091
 20
10.37025347940546
 30
0.0
 40
0.05625
  1
6
  7
ROMANS
100
AcDbText
  0
TEXT
  5
7C4
330
2
100
AcDbEntity
  8
0
 62
     7
100
AcDbText
 10
12.62341774315091
 20
10.2314813959757
 30
0.0
 40
0.05625
  1
5
  7
ROMANS
100
AcDbText
  0
TEXT
  5
7C5
330
2
100
AcDbEntity
  8
0
 62
     7
100
AcDbText
 10
12.62320471106243
 20
10.64937117677559
 30
0.0
 40
0.05625
  1
8
  7
ROMANS
100
AcDbText
  0
TEXT
  5
7C6
330
2
100
AcDbEntity
  8
0
 62
     7
100
AcDbText
 10
12.62341774315091
 20
10.51434154412447
 30
0.0
 40
0.05625
  1
7
  7
ROMANS
100
AcDbText
  0
LINE
  5
7D6
330
2
100
AcDbEntity
  8
0
100
AcDbLine
 10
10.31648025531398
 20
2.635919393542514
 30
0.0
 11
12.07364474814149
 21
2.635919393542514
 31
0.0
  0
LINE
  5
7D7
330
2
100
AcDbEntity
  8
0
100
AcDbLine
 10
10.6309364896715
 20
6.608464413653588
 30
0.0
 11
12.07364474814149
 21
6.608464413653588
 31
0.0
  0
LINE
  5
7D8
330
2
100
AcDbEntity
  8
0
100
AcDbLine
 10
11.89364474814149
 20
2.815919393542515
 30
0.0
 11
11.89364474814149
 21
4.482191903598051
 31
0.0
  0
LINE
  5
7D9
330
2
100
AcDbEntity
  8
0
100
AcDbLine
 10
11.89364474814149
 20
6.428464413653588
 30
0.0
 11
11.89364474814149
 21
4.762191903598052
 31
0.0
  0
SOLID
  5
7DA
330
2
100
AcDbEntity
  8
0
100
AcDbTrace
 10
11.86364474814149
 20
2.815919393542515
 30
0.0
 11
11.92364474814149
 21
2.815919393542515
 31
0.0
 12
11.89364474814149
 22
2.635919393542514
 32
0.0
 13
11.89364474814149
 23
2.635919393542514
 33
0.0
  0
SOLID
  5
7DB
330
2
100
AcDbEntity
  8
0
100
AcDbTrace
 10
11.86364474814149
 20
6.428464413653588
 30
0.0
 11
11.92364474814149
 21
6.428464413653588
 31
0.0
 12
11.89364474814149
 22
6.608464413653588
 32
0.0
 13
11.89364474814149
 23
6.608464413653588
 33
0.0
  0
MTEXT
  5
7DC
330
2
100
AcDbEntity
  8
0
100
AcDbMText
 10
11.89364474814149
 20
4.622191903598053
 30
0.0
 40
0.1
 41
0.0
 71
     5
 72
     1
  1
4.00
  7
ROMANS
 73
     1
 44
1.0
1001
ACAD
1000
MTEXTBEGIN
1070
    73
1070
     1
1070
    44
1040
1.0
1070
    74
1070
     0
1000
MTEXTEND
  0
LINE
  5
7EB
330
2
100
AcDbEntity
  8
0
100
AcDbLine
 10
12.47763484087224
 20
6.693408162827436
 30
0.0
 11
12.47763484087224
 21
7.012901981267424
 31
0.0
  0
LINE
  5
7EC
330
2
100
AcDbEntity
  8
0
100
AcDbLine
 10
12.72470757750874
 20
6.693408162827436
 30
0.0
 11
12.72470757750874
 21
7.012901981267424
 31
0.0
  0
LINE
  5
7ED
330
2
100
AcDbEntity
  8
0
100
AcDbLine
 10
12.29763484087224
 20
6.832901981267426
 30
0.0
 11
12.11763484087224
 21
6.832901981267426
 31
0.0
  0
LINE
  5
7EE
330
2
100
AcDbEntity
  8
0
100
AcDbLine
 10
12.90470757750874
 20
6.832901981267426
 30
0.0
 11
13.08470757750874
 21
6.832901981267426
 31
0.0
  0
SOLID
  5
7EF
330
2
100
AcDbEntity
  8
0
100
AcDbTrace
 10
12.29763484087224
 20
6.862901981267426
 30
0.0
 11
12.29763484087224
 21
6.802901981267424
 31
0.0
 12
12.47763484087224
 22
6.832901981267426
 32
0.0
 13
12.47763484087224
 23
6.832901981267426
 33
0.0
  0
SOLID
  5
7F0
330
2
100
AcDbEntity
  8
0
100
AcDbTrace
 10
12.90470757750874
 20
6.862901981267426
 30
0.0
 11
12.90470757750874
 21
6.802901981267424
 31
0.0
 12
12.72470757750874
 22
6.832901981267426
 32
0.0
 13
12.72470757750874
 23
6.832901981267426
 33
0.0
  0
MTEXT
  5
7F1
330
2
100
AcDbEntity
  8
0
100
AcDbMText
 10
13.40804091084208
 20
6.832901981267426
 30
0.0
 40
0.1
 41
0.0
 71
     5
 72
     1
  1
0.24
  7
ROMANS
 73
     1
 44
1.0
1001
ACAD
1000
MTEXTBEGIN
1070
    73
1070
     1
1070
    44
1040
1.0
1070
    74
1070
     0
1000
MTEXTEND
  0
TEXT
  5
7FB
330
2
100
AcDbEntity
  8
0
 62
     7
100
AcDbText
 10
8.227924202015017
 20
3.589167932528193
 30
0.0
 40
0.0654564108800604
  1
www.interface.phoenixcontact.com
 50
90.0
  7
ROMANS
100
AcDbText
  0
LINE
  5
7FE
330
2
100
AcDbEntity
  8
0
 62
     3
100
AcDbLine
 10
12.48976945099455
 20
5.582959349704605
 30
0.0
 11
12.72007176254014
 21
5.582959349704605
 31
0.0
  0
LWPOLYLINE
  5
803
330
2
100
AcDbEntity
  8
0
100
AcDbPolyline
 90
        2
 70
     0
 43
0.025
 10
8.452863423135212
 20
3.578222132445084
 42
-0.9999999999999948
 10
8.452863423135212
 20
3.778222132445083
 42
-1.000000000000003
  0
LWPOLYLINE
  5
804
330
2
100
AcDbEntity
  8
0
100
AcDbPolyline
 90
        2
 70
     0
 43
0.025
 10
8.618320535265951
 20
3.578222132445084
 42
-0.9999999999999948
 10
8.618320535265951
 20
3.778222132445083
 42
-1.000000000000003
  0
LWPOLYLINE
  5
805
330
2
100
AcDbEntity
  8
0
100
AcDbPolyline
 90
        2
 70
     0
 43
0.025
 10
8.518320535265951
 20
3.678222132445083
 10
8.605820535265952
 20
3.678222132445083
  0
LINE
  5
80A
330
2
100
AcDbEntity
  8
0
 62
     3
100
AcDbLine
 10
12.60909366857924
 20
6.405890596485921
 30
0.0
 11
12.60909366857924
 21
6.606781784355192
 31
0.0
  0
LINE
  5
80B
330
2
100
AcDbEntity
  8
0
 62
     3
100
AcDbLine
 10
12.60909366857924
 20
6.100136014242628
 30
0.0
 11
12.60909366857924
 21
6.368664388021708
 31
0.0
  0
LINE
  5
80C
330
2
100
AcDbEntity
  8
0
 62
     3
100
AcDbLine
 10
12.60909366857924
 20
5.685198134825757
 30
0.0
 11
12.60909366857924
 21
5.980136014242632
 31
0.0
  0
LINE
  5
80D
330
2
100
AcDbEntity
  8
0
 62
     3
100
AcDbLine
 10
12.60909366857924
 20
5.398060955927856
 30
0.0
 11
12.60909366857924
 21
5.647971926361544
 31
0.0
  0
LINE
  5
80E
330
2
100
AcDbEntity
  8
0
 62
     3
100
AcDbLine
 10
12.60909366857924
 20
4.984312359249826
 30
0.0
 11
12.60909366857924
 21
5.278060955927858
 31
0.0
  0
LINE
  5
80F
330
2
100
AcDbEntity
  8
0
 62
     3
100
AcDbLine
 10
12.60909366857924
 20
4.641520152764029
 30
0.0
 11
12.60909366857924
 21
4.947102275759946
 31
0.0
  0
LINE
  5
810
330
2
100
AcDbEntity
  8
0
 62
     3
100
AcDbLine
 10
12.60909366857924
 20
3.936351121264421
 30
0.0
 11
12.60909366857924
 21
4.209353916297021
 31
0.0
  0
LINE
  5
811
330
2
100
AcDbEntity
  8
0
 62
     3
100
AcDbLine
 10
12.60909366857924
 20
4.246381197226273
 30
0.0
 11
12.60909366857924
 21
4.521520152764033
 31
0.0
  0
LINE
  5
824
330
2
100
AcDbEntity
  8
0
100
AcDbLine
 10
9.571590819712588
 20
6.129952953762172
 30
0.0
 11
9.598815819712593
 21
6.129952953762172
 31
0.0
  0
ENDSEC
  0
SECTION
  2
OBJECTS
  0
DICTIONARY
  5
7
330
0
100
AcDbDictionary
281
     1
  3
ACAD_COLOR
350
828
  3
ACAD_GROUP
350
1F
  3
ACAD_LAYOUT
350
B
  3
ACAD_MATERIAL
350
827
  3
ACAD_MLINESTYLE
350
20
  3
ACAD_PLOTSETTINGS
350
21
  3
ACAD_PLOTSTYLENAME
350
6
  3
ACAD_TABLESTYLE
350
829
  3
ACDBHEADERROUNDTRIPXREC
350
83E
  3
AcDbVariableDictionary
350
3B8
  3
ASE_INDEX_DICTIONARY
350
82F
  3
DWGPROPS
350
83D
  0
DICTIONARY
  5
828
102
{ACAD_REACTORS
330
7
102
}
330
7
100
AcDbDictionary
281
     1
  0
DICTIONARY
  5
1F
102
{ACAD_REACTORS
330
7
102
}
330
7
100
AcDbDictionary
281
     1
  0
DICTIONARY
  5
B
102
{ACAD_REACTORS
330
7
102
}
330
7
100
AcDbDictionary
281
     1
  3
Layout1
350
F
  3
Model
350
A
  0
DICTIONARY
  5
827
102
{ACAD_REACTORS
330
7
102
}
330
7
100
AcDbDictionary
281
     1
  0
DICTIONARY
  5
20
102
{ACAD_REACTORS
330
7
102
}
330
7
100
AcDbDictionary
281
     1
  3
STANDARD
350
23
  0
DICTIONARY
  5
21
102
{ACAD_REACTORS
330
7
102
}
330
7
100
AcDbDictionary
281
     1
  0
ACDBDICTIONARYWDFLT
  5
6
102
{ACAD_REACTORS
330
7
102
}
330
7
100
AcDbDictionary
281
     1
  3
Normal
350
5
100
AcDbDictionaryWithDefault
340
5
  0
DICTIONARY
  5
829
102
{ACAD_REACTORS
330
7
102
}
330
7
100
AcDbDictionary
281
     1
  3
Standard
350
82A
  0
DICTIONARY
  5
83E
102
{ACAD_REACTORS
330
7
102
}
330
7
100
AcDbDictionary
281
     1
  0
DICTIONARY
  5
3B8
102
{ACAD_REACTORS
330
7
102
}
330
7
100
AcDbDictionary
281
     1
  3
CTABLESTYLE
350
833
  3
DIMASSOC
350
3BA
  3
HIDETEXT
350
3B9
  3
PROJECTNAME
350
83B
  0
DICTIONARY
  5
82F
102
{ACAD_REACTORS
330
7
102
}
330
7
100
AcDbDictionary
281
     1
  3
ASEBlockHierarchyIndexRecord
350
831
1001
DCO15
1040
1565500996.693
  0
XRECORD
  5
83D
102
{ACAD_REACTORS
330
7
102
}
330
7
100
AcDbXrecord
280
     1
  1
DWGPROPS COOKIE
  2

  3

  4

  6

  7

  8

  9

300
=
301
=
302
=
303
=
304
=
305
=
306
=
307
=
308
=
309
=
 40
1.7973859375
 41
2451264.499460475
 42
2453936.406080394
  1

 90
        0
  0
LAYOUT
  5
F
102
{ACAD_XDICTIONARY
360
841
102
}
102
{ACAD_REACTORS
330
B
102
}
330
B
100
AcDbPlotSettings
  1

  2
\\PHUSDC2\EngHP4MVPS
  4

  6

 40
0.0
 41
0.0
 42
0.0
 43
0.0
 44
0.0
 45
0.0
 46
0.0
 47
0.0
 48
0.0
 49
0.0
140
0.0
141
0.0
142
1.0
143
1.0
 70
   688
 72
     0
 73
     0
 74
     5
  7
monochrome.ctb
 75
    16
147
1.0
148
0.0
149
0.0
100
AcDbLayout
  1
Layout1
 70
     1
 71
     1
 10
0.0
 20
0.0
 11
12.0
 21
9.0
 12
0.0
 22
0.0
 32
0.0
 14
1.000000000000000E+20
 24
1.000000000000000E+20
 34
1.000000000000000E+20
 15
-1.000000000000000E+20
 25
-1.000000000000000E+20
 35
-1.000000000000000E+20
146
0.0
 13
0.0
 23
0.0
 33
0.0
 16
1.0
 26
0.0
 36
0.0
 17
0.0
 27
1.0
 37
0.0
 76
     0
330
C
  0
LAYOUT
  5
A
102
{ACAD_XDICTIONARY
360
83F
102
}
102
{ACAD_REACTORS
330
B
102
}
330
B
100
AcDbPlotSettings
  1

  2
\\PHUSDC2\EngHP4MV
  4
Letter
  6

 40
7.143749713897705
 41
5.027085304260253
 42
7.14373779296875
 43
5.027069091796875
 44
215.8999938964844
 45
279.3999938964844
 46
24.13
 47
14.478
 48
7.581626758372472
 49
1.327190435701129
140
13.61093530984543
141
10.78930924110728
142
1.0
143
1.0
 70
 11956
 72
     0
 73
     0
 74
     4
  7
monochrome.ctb
 75
    16
147
1.0
148
-192.5733196626608
149
-33.7106370668087
100
AcDbLayout
  1
Model
 70
     1
 71
     0
 10
0.0
 20
0.0
 11
12.0
 21
9.0
 12
0.0
 22
0.0
 32
0.0
 14
0.0
 24
0.0
 34
0.0
 15
0.0
 25
0.0
 35
0.0
146
0.0
 13
0.0
 23
0.0
 33
0.0
 16
1.0
 26
0.0
 36
0.0
 17
0.0
 27
1.0
 37
0.0
 76
     0
330
2
  0
MLINESTYLE
  5
23
102
{ACAD_REACTORS
330
20
102
}
330
20
100
AcDbMlineStyle
  2
STANDARD
 70
     0
  3

 62
   256
 51
90.0
 52
90.0
 71
     2
 49
0.5
 62
   256
  6
BYLAYER
 49
-0.5
 62
   256
  6
BYLAYER
  0
ACDBPLACEHOLDER
  5
5
102
{ACAD_REACTORS
330
6
102
}
330
6
  0
TABLESTYLE
  5
82A
102
{ACAD_REACTORS
330
829
102
}
330
829
100
AcDbTableStyle
  3
Standard
 70
     0
 71
     0
 40
0.06
 41
0.06
280
     0
281
     0
  7
STANDARD
140
0.18
170
     2
 62
     0
 63
     7
283
     0
274
    -2
284
     1
 64
     0
275
    -2
285
     1
 65
     0
276
    -2
286
     1
 66
     0
277
    -2
287
     1
 67
     0
278
    -2
288
     1
 68
     0
279
    -2
289
     1
 69
     0
  7
STANDARD
140
0.25
170
     5
 62
     0
 63
     7
283
     0
274
    -2
284
     1
 64
     0
275
    -2
285
     1
 65
     0
276
    -2
286
     1
 66
     0
277
    -2
287
     1
 67
     0
278
    -2
288
     1
 68
     0
279
    -2
289
     1
 69
     0
  7
STANDARD
140
0.18
170
     5
 62
     0
 63
     7
283
     0
274
    -2
284
     1
 64
     0
275
    -2
285
     1
 65
     0
276
    -2
286
     1
 66
     0
277
    -2
287
     1
 67
     0
278
    -2
288
     1
 68
     0
279
    -2
289
     1
 69
     0
  0
DICTIONARYVAR
  5
833
102
{ACAD_REACTORS
330
3B8
102
}
330
3B8
100
DictionaryVariables
280
     0
  1
STANDARD
  0
DICTIONARYVAR
  5
3BA
102
{ACAD_REACTORS
330
3B8
102
}
330
3B8
100
DictionaryVariables
280
     0
  1
1
  0
DICTIONARYVAR
  5
3B9
102
{ACAD_REACTORS
330
3B8
102
}
330
3B8
100
DictionaryVariables
280
     0
  1
1
  0
DICTIONARYVAR
  5
83B
102
{ACAD_REACTORS
330
3B8
102
}
330
3B8
100
DictionaryVariables
280
     0
  1

  0
XRECORD
  5
831
102
{ACAD_REACTORS
330
82F
102
}
330
82F
100
AcDbXrecord
280
     1
  0
DICTIONARY
  5
841
330
F
100
AcDbDictionary
280
     1
281
     1
  3
ACAD_XREC_ROUNDTRIP
360
842
  0
DICTIONARY
  5
83F
330
A
100
AcDbDictionary
280
     1
281
     1
  3
ACAD_XREC_ROUNDTRIP
360
840
  0
XRECORD
  5
842
102
{ACAD_REACTORS
330
841
102
}
330
841
100
AcDbXrecord
280
     1
102
SHADEPLOT
 70
     0
102
SHADEPLOTRESLEVEL
 70
     2
102
SHADEPLOTCUSTOMDPI
 70
   300
  0
XRECORD
  5
840
102
{ACAD_REACTORS
330
83F
102
}
330
83F
100
AcDbXrecord
280
     1
102
SHADEPLOT
 70
     0
102
SHADEPLOTRESLEVEL
 70
     2
102
SHADEPLOTCUSTOMDPI
 70
   300
  0
ENDSEC
  0
EOF
