  0
SECTION
  2
HEADER
  9
$ACADVER
  1
AC1015
  9
$ACADMAINTVER
 70
    20
  9
$DWGCODEPAGE
  3
ANSI_1252
  9
$INSBASE
 10
0.0
 20
0.0
 30
0.0
  9
$EXTMIN
 10
0.3158706789786294
 20
-0.0025313690292004
 30
0.0
  9
$EXTMAX
 10
13.79493491388318
 20
8.538110994479037
 30
0.0
  9
$LIMMIN
 10
0.0
 20
0.0
  9
$LIMMAX
 10
12.0
 20
9.0
  9
$ORTHOMODE
 70
     0
  9
$REGENMODE
 70
     1
  9
$FILLMODE
 70
     1
  9
$QTEXTMODE
 70
     0
  9
$MIRRTEXT
 70
     0
  9
$LTSCALE
 40
1.0
  9
$ATTMODE
 70
     1
  9
$TEXTSIZE
 40
0.2
  9
$TRACEWID
 40
0.05
  9
$TEXTSTYLE
  7
Standard
  9
$CLAYER
  8
0
  9
$CELTYPE
  6
ByLayer
  9
$CECOLOR
 62
   256
  9
$CELTSCALE
 40
1.0
  9
$DISPSILH
 70
     0
  9
$DIMSCALE
 40
1.0
  9
$DIMASZ
 40
0.18
  9
$DIMEXO
 40
0.0625
  9
$DIMDLI
 40
0.38
  9
$DIMRND
 40
0.0
  9
$DIMDLE
 40
0.0
  9
$DIMEXE
 40
0.18
  9
$DIMTP
 40
0.0
  9
$DIMTM
 40
0.0
  9
$DIMTXT
 40
0.18
  9
$DIMCEN
 40
0.09
  9
$DIMTSZ
 40
0.0
  9
$DIMTOL
 70
     0
  9
$DIMLIM
 70
     0
  9
$DIMTIH
 70
     1
  9
$DIMTOH
 70
     1
  9
$DIMSE1
 70
     0
  9
$DIMSE2
 70
     0
  9
$DIMTAD
 70
     0
  9
$DIMZIN
 70
     0
  9
$DIMBLK
  1

  9
$DIMASO
 70
     1
  9
$DIMSHO
 70
     1
  9
$DIMPOST
  1

  9
$DIMAPOST
  1

  9
$DIMALT
 70
     0
  9
$DIMALTD
 70
     2
  9
$DIMALTF
 40
25.4
  9
$DIMLFAC
 40
1.0
  9
$DIMTOFL
 70
     0
  9
$DIMTVP
 40
0.0
  9
$DIMTIX
 70
     0
  9
$DIMSOXD
 70
     0
  9
$DIMSAH
 70
     0
  9
$DIMBLK1
  1

  9
$DIMBLK2
  1

  9
$DIMSTYLE
  2
Standard
  9
$DIMCLRD
 70
     0
  9
$DIMCLRE
 70
     0
  9
$DIMCLRT
 70
     0
  9
$DIMTFAC
 40
1.0
  9
$DIMGAP
 40
0.09
  9
$DIMJUST
 70
     0
  9
$DIMSD1
 70
     0
  9
$DIMSD2
 70
     0
  9
$DIMTOLJ
 70
     1
  9
$DIMTZIN
 70
     0
  9
$DIMALTZ
 70
     0
  9
$DIMALTTZ
 70
     0
  9
$DIMUPT
 70
     0
  9
$DIMDEC
 70
     4
  9
$DIMTDEC
 70
     4
  9
$DIMALTU
 70
     2
  9
$DIMALTTD
 70
     2
  9
$DIMTXSTY
  7
Standard
  9
$DIMAUNIT
 70
     0
  9
$DIMADEC
 70
     0
  9
$DIMALTRND
 40
0.0
  9
$DIMAZIN
 70
     0
  9
$DIMDSEP
 70
    46
  9
$DIMATFIT
 70
     3
  9
$DIMFRAC
 70
     0
  9
$DIMLDRBLK
  1

  9
$DIMLUNIT
 70
     2
  9
$DIMLWD
 70
    -2
  9
$DIMLWE
 70
    -2
  9
$DIMTMOVE
 70
     0
  9
$LUNITS
 70
     2
  9
$LUPREC
 70
     4
  9
$SKETCHINC
 40
0.1
  9
$FILLETRAD
 40
0.0
  9
$AUNITS
 70
     0
  9
$AUPREC
 70
     0
  9
$MENU
  1
.
  9
$ELEVATION
 40
0.0
  9
$PELEVATION
 40
0.0
  9
$THICKNESS
 40
0.0
  9
$LIMCHECK
 70
     0
  9
$CHAMFERA
 40
0.0
  9
$CHAMFERB
 40
0.0
  9
$CHAMFERC
 40
0.0
  9
$CHAMFERD
 40
0.0
  9
$SKPOLY
 70
     0
  9
$TDCREATE
 40
2453927.448397061
  9
$TDUCREATE
 40
2453927.615063727
  9
$TDUPDATE
 40
2453936.400885845
  9
$TDUUPDATE
 40
2453936.567552512
  9
$TDINDWG
 40
0.0008025810
  9
$TDUSRTIMER
 40
0.0008025810
  9
$USRTIMER
 70
     1
  9
$ANGBASE
 50
0.0
  9
$ANGDIR
 70
     0
  9
$PDMODE
 70
     0
  9
$PDSIZE
 40
0.0
  9
$PLINEWID
 40
0.0
  9
$SPLFRAME
 70
     0
  9
$SPLINETYPE
 70
     6
  9
$SPLINESEGS
 70
     8
  9
$HANDSEED
  5
413
  9
$SURFTAB1
 70
     6
  9
$SURFTAB2
 70
     6
  9
$SURFTYPE
 70
     6
  9
$SURFU
 70
     6
  9
$SURFV
 70
     6
  9
$UCSBASE
  2

  9
$UCSNAME
  2

  9
$UCSORG
 10
0.0
 20
0.0
 30
0.0
  9
$UCSXDIR
 10
1.0
 20
0.0
 30
0.0
  9
$UCSYDIR
 10
0.0
 20
1.0
 30
0.0
  9
$UCSORTHOREF
  2

  9
$UCSORTHOVIEW
 70
     0
  9
$UCSORGTOP
 10
0.0
 20
0.0
 30
0.0
  9
$UCSORGBOTTOM
 10
0.0
 20
0.0
 30
0.0
  9
$UCSORGLEFT
 10
0.0
 20
0.0
 30
0.0
  9
$UCSORGRIGHT
 10
0.0
 20
0.0
 30
0.0
  9
$UCSORGFRONT
 10
0.0
 20
0.0
 30
0.0
  9
$UCSORGBACK
 10
0.0
 20
0.0
 30
0.0
  9
$PUCSBASE
  2

  9
$PUCSNAME
  2

  9
$PUCSORG
 10
0.0
 20
0.0
 30
0.0
  9
$PUCSXDIR
 10
1.0
 20
0.0
 30
0.0
  9
$PUCSYDIR
 10
0.0
 20
1.0
 30
0.0
  9
$PUCSORTHOREF
  2

  9
$PUCSORTHOVIEW
 70
     0
  9
$PUCSORGTOP
 10
0.0
 20
0.0
 30
0.0
  9
$PUCSORGBOTTOM
 10
0.0
 20
0.0
 30
0.0
  9
$PUCSORGLEFT
 10
0.0
 20
0.0
 30
0.0
  9
$PUCSORGRIGHT
 10
0.0
 20
0.0
 30
0.0
  9
$PUCSORGFRONT
 10
0.0
 20
0.0
 30
0.0
  9
$PUCSORGBACK
 10
0.0
 20
0.0
 30
0.0
  9
$USERI1
 70
     0
  9
$USERI2
 70
     0
  9
$USERI3
 70
     0
  9
$USERI4
 70
     0
  9
$USERI5
 70
     0
  9
$USERR1
 40
0.0
  9
$USERR2
 40
0.0
  9
$USERR3
 40
0.0
  9
$USERR4
 40
0.0
  9
$USERR5
 40
0.0
  9
$WORLDVIEW
 70
     1
  9
$SHADEDGE
 70
     3
  9
$SHADEDIF
 70
    70
  9
$TILEMODE
 70
     1
  9
$MAXACTVP
 70
    64
  9
$PINSBASE
 10
0.0
 20
0.0
 30
0.0
  9
$PLIMCHECK
 70
     0
  9
$PEXTMIN
 10
0.0
 20
0.0
 30
0.0
  9
$PEXTMAX
 10
0.0
 20
0.0
 30
0.0
  9
$PLIMMIN
 10
0.0
 20
0.0
  9
$PLIMMAX
 10
12.0
 20
9.0
  9
$UNITMODE
 70
     0
  9
$VISRETAIN
 70
     1
  9
$PLINEGEN
 70
     0
  9
$PSLTSCALE
 70
     1
  9
$TREEDEPTH
 70
  3020
  9
$CMLSTYLE
  2
Standard
  9
$CMLJUST
 70
     0
  9
$CMLSCALE
 40
1.0
  9
$PROXYGRAPHICS
 70
     1
  9
$MEASUREMENT
 70
     0
  9
$CELWEIGHT
370
    -1
  9
$ENDCAPS
280
     0
  9
$JOINSTYLE
280
     0
  9
$LWDISPLAY
290
     0
  9
$INSUNITS
 70
     1
  9
$HYPERLINKBASE
  1

  9
$STYLESHEET
  1

  9
$XEDIT
290
     1
  9
$CEPSNTYPE
380
     0
  9
$PSTYLEMODE
290
     1
  9
$FINGERPRINTGUID
  2
{06A40D14-D1B9-45E7-93C9-468A7B8F84ED}
  9
$VERSIONGUID
  2
{F23D2F28-D4A5-4269-BB3E-87FBB319DF3D}
  9
$EXTNAMES
290
     1
  9
$PSVPSCALE
 40
0.0
  9
$OLESTARTUP
290
     0
  0
ENDSEC
  0
SECTION
  2
CLASSES
  0
CLASS
  1
ACDBDICTIONARYWDFLT
  2
AcDbDictionaryWithDefault
  3
ObjectDBX Classes
 90
        0
280
     0
281
     0
  0
CLASS
  1
DICTIONARYVAR
  2
AcDbDictionaryVar
  3
ObjectDBX Classes
 90
        0
280
     0
281
     0
  0
CLASS
  1
TABLESTYLE
  2
AcDbTableStyle
  3
ObjectDBX Classes
 90
     2047
280
     0
281
     0
  0
CLASS
  1
ACDBPLACEHOLDER
  2
AcDbPlaceHolder
  3
ObjectDBX Classes
 90
        0
280
     0
281
     0
  0
CLASS
  1
LAYOUT
  2
AcDbLayout
  3
ObjectDBX Classes
 90
        0
280
     0
281
     0
  0
ENDSEC
  0
SECTION
  2
TABLES
  0
TABLE
  2
VPORT
  5
8
330
0
100
AcDbSymbolTable
 70
     2
  0
VPORT
  5
408
330
8
100
AcDbSymbolTableRecord
100
AcDbViewportTableRecord
  2
*Active
 70
     0
 10
0.0
 20
0.0
 11
1.0
 21
1.0
 12
7.05560305651231
 22
4.312503203480897
 13
0.0
 23
0.0
 14
0.5
 24
0.5
 15
0.5
 25
0.5
 16
0.0
 26
0.0
 36
1.0
 17
0.0
 27
0.0
 37
0.0
 40
8.919138407464586
 41
1.51889168765743
 42
50.0
 43
0.0
 44
0.0
 50
0.0
 51
0.0
 71
     0
 72
  1000
 73
     1
 74
     2
 75
     0
 76
     0
 77
     0
 78
     0
281
     0
 65
     1
110
0.0
120
0.0
130
0.0
111
1.0
121
0.0
131
0.0
112
0.0
122
1.0
132
0.0
 79
     0
146
0.0
  0
ENDTAB
  0
TABLE
  2
LTYPE
  5
5
330
0
100
AcDbSymbolTable
 70
     1
  0
LTYPE
  5
14
330
5
100
AcDbSymbolTableRecord
100
AcDbLinetypeTableRecord
  2
ByBlock
 70
     0
  3

 72
    65
 73
     0
 40
0.0
  0
LTYPE
  5
15
330
5
100
AcDbSymbolTableRecord
100
AcDbLinetypeTableRecord
  2
ByLayer
 70
     0
  3

 72
    65
 73
     0
 40
0.0
  0
LTYPE
  5
16
330
5
100
AcDbSymbolTableRecord
100
AcDbLinetypeTableRecord
  2
Continuous
 70
     0
  3
Solid line
 72
    65
 73
     0
 40
0.0
  0
ENDTAB
  0
TABLE
  2
LAYER
  5
2
330
0
100
AcDbSymbolTable
 70
     6
  0
LAYER
  5
10
330
2
100
AcDbSymbolTableRecord
100
AcDbLayerTableRecord
  2
0
 70
     0
 62
     7
  6
Continuous
370
    -3
390
F
  0
LAYER
  5
8B
330
2
100
AcDbSymbolTableRecord
100
AcDbLayerTableRecord
  2
BOARD
 70
     0
 62
     7
  6
Continuous
370
    -3
390
F
  0
LAYER
  5
8C
330
2
100
AcDbSymbolTableRecord
100
AcDbLayerTableRecord
  2
HOUSING
 70
     0
 62
     7
  6
Continuous
370
    -3
390
F
  0
LAYER
  5
8D
330
2
100
AcDbSymbolTableRecord
100
AcDbLayerTableRecord
  2
BORDER
 70
     0
 62
     7
  6
Continuous
370
    -3
390
F
  0
LAYER
  5
8E
330
2
100
AcDbSymbolTableRecord
100
AcDbLayerTableRecord
  2
7
 70
     0
 62
     7
  6
Continuous
370
    -3
390
F
  0
LAYER
  5
8F
330
2
100
AcDbSymbolTableRecord
100
AcDbLayerTableRecord
  2
DEFPOINTS
 70
     0
 62
     7
  6
Continuous
290
     0
370
    -3
390
F
  0
ENDTAB
  0
TABLE
  2
STYLE
  5
3
330
0
100
AcDbSymbolTable
 70
     2
  0
STYLE
  5
11
330
3
100
AcDbSymbolTableRecord
100
AcDbTextStyleTableRecord
  2
Standard
 70
     0
 40
0.0
 41
1.0
 50
0.0
 71
     0
 42
0.2
  3
txt
  4

  0
STYLE
  5
90
330
3
100
AcDbSymbolTableRecord
100
AcDbTextStyleTableRecord
  2
ROMANS
 70
     0
 40
0.1
 41
1.0
 50
0.0
 71
     0
 42
0.1
  3
SIMPLEX.SHX
  4

  0
ENDTAB
  0
TABLE
  2
VIEW
  5
6
330
0
100
AcDbSymbolTable
 70
     0
  0
ENDTAB
  0
TABLE
  2
UCS
  5
7
330
0
100
AcDbSymbolTable
 70
     0
  0
ENDTAB
  0
TABLE
  2
APPID
  5
9
330
0
100
AcDbSymbolTable
 70
     1
  0
APPID
  5
12
330
9
100
AcDbSymbolTableRecord
100
AcDbRegAppTableRecord
  2
ACAD
 70
     0
  0
ENDTAB
  0
TABLE
  2
DIMSTYLE
  5
A
330
0
100
AcDbSymbolTable
 70
     1
100
AcDbDimStyleTable
 71
     0
  0
DIMSTYLE
105
27
330
A
100
AcDbSymbolTableRecord
100
AcDbDimStyleTableRecord
  2
Standard
 70
     0
340
11
  0
ENDTAB
  0
TABLE
  2
BLOCK_RECORD
  5
1
330
0
100
AcDbSymbolTable
 70
     1
  0
BLOCK_RECORD
  5
1F
330
1
100
AcDbSymbolTableRecord
100
AcDbBlockTableRecord
  2
*Model_Space
340
22
  0
BLOCK_RECORD
  5
58
330
1
100
AcDbSymbolTableRecord
100
AcDbBlockTableRecord
  2
*Paper_Space
340
59
  0
BLOCK_RECORD
  5
5D
330
1
100
AcDbSymbolTableRecord
100
AcDbBlockTableRecord
  2
*Paper_Space0
340
5E
  0
ENDTAB
  0
ENDSEC
  0
SECTION
  2
BLOCKS
  0
BLOCK
  5
20
330
1F
100
AcDbEntity
  8
0
100
AcDbBlockBegin
  2
*Model_Space
 70
     0
 10
0.0
 20
0.0
 30
0.0
  3
*Model_Space
  1

  0
ENDBLK
  5
21
330
1F
100
AcDbEntity
  8
0
100
AcDbBlockEnd
  0
BLOCK
  5
5A
330
58
100
AcDbEntity
 67
     1
  8
0
100
AcDbBlockBegin
  2
*Paper_Space
 70
     0
 10
0.0
 20
0.0
 30
0.0
  3
*Paper_Space
  1

  0
ENDBLK
  5
5B
330
58
100
AcDbEntity
 67
     1
  8
0
100
AcDbBlockEnd
  0
BLOCK
  5
5F
330
5D
100
AcDbEntity
 67
     1
  8
0
100
AcDbBlockBegin
  2
*Paper_Space0
 70
     0
 10
0.0
 20
0.0
 30
0.0
  3
*Paper_Space0
  1

  0
ENDBLK
  5
60
330
5D
100
AcDbEntity
 67
     1
  8
0
100
AcDbBlockEnd
  0
ENDSEC
  0
SECTION
  2
ENTITIES
  0
LINE
  5
24B
330
1F
100
AcDbEntity
  8
HOUSING
100
AcDbLine
 10
3.290870678978626
 20
4.24548452655082
 30
0.0
 11
4.540870678978627
 21
3.455735572575926
 31
0.0
  0
LINE
  5
24C
330
1F
100
AcDbEntity
  8
BOARD
100
AcDbLine
 10
3.988415397543267
 20
4.903041748934196
 30
0.0
 11
3.290870678978626
 21
4.903041748934196
 31
0.0
  0
LINE
  5
24D
330
1F
100
AcDbEntity
  8
BOARD
100
AcDbLine
 10
3.988415397543267
 20
1.019407814703386
 30
0.0
 11
3.290870678978626
 21
1.019407814703386
 31
0.0
  0
LINE
  5
24E
330
1F
100
AcDbEntity
  8
HOUSING
100
AcDbLine
 10
4.540870678978627
 20
2.455735572575926
 30
0.0
 11
3.290870678978626
 21
1.66598661860103
 31
0.0
  0
LINE
  5
24F
330
1F
100
AcDbEntity
  8
HOUSING
100
AcDbLine
 10
3.711959551040843
 20
3.818570170980779
 30
0.0
 11
3.711959551040843
 21
2.080461159110412
 31
0.0
  0
LINE
  5
250
330
1F
100
AcDbEntity
  8
BOARD
100
AcDbLine
 10
0.6918202901746992
 20
3.993934057177382
 30
0.0
 11
0.6918202901746992
 21
1.911725180402723
 31
0.0
  0
LINE
  5
251
330
1F
100
AcDbEntity
  8
HOUSING
100
AcDbLine
 10
0.5708706789786302
 20
1.250735572575925
 30
0.0
 11
0.5708706789786302
 21
3.780735572575924
 31
0.0
  0
LWPOLYLINE
  5
252
330
1F
100
AcDbEntity
  8
HOUSING
100
AcDbPolyline
 90
        2
 70
     0
 43
0.0
 10
3.434658212630348
 20
1.893193289348585
 10
0.7058740130078211
 20
1.893193289348585
  0
LINE
  5
253
330
1F
100
AcDbEntity
  8
HOUSING
100
AcDbLine
 10
1.349781790089739
 20
1.555735572575924
 30
0.0
 11
0.9675595678675172
 21
1.125735572575925
 31
0.0
  0
LWPOLYLINE
  5
254
330
1F
100
AcDbEntity
  8
HOUSING
100
AcDbPolyline
 90
        2
 70
     0
 43
0.0
 10
2.758670678978629
 20
1.295735572575924
 10
1.118670678978629
 20
1.295735572575924
  0
LWPOLYLINE
  5
255
330
1F
100
AcDbEntity
  8
HOUSING
100
AcDbPolyline
 90
        2
 70
     0
 43
0.0
 10
1.258670678978629
 20
1.295735572575924
 10
1.188670678978629
 20
1.374485572575925
  0
ARC
  5
256
330
1F
100
AcDbEntity
  8
BOARD
100
AcDbCircle
 10
0.7118202901746982
 20
1.911725180402723
 30
0.0
 40
0.02
100
AcDbArc
 50
180.0
 51
254.1123168941871
  0
LINE
  5
257
330
1F
100
AcDbEntity
  8
HOUSING
100
AcDbLine
 10
0.570890820038523
 20
1.125735572575925
 30
0.0
 11
0.4208706789786297
 21
1.345735572575924
 31
0.0
  0
LINE
  5
258
330
1F
100
AcDbEntity
  8
HOUSING
100
AcDbLine
 10
0.9675595678675172
 20
1.125735572575925
 30
0.0
 11
0.570890820038523
 21
1.125735572575925
 31
0.0
  0
LINE
  5
259
330
1F
100
AcDbEntity
  8
HOUSING
100
AcDbLine
 10
0.7808908200385241
 20
1.125735572575925
 30
0.0
 11
0.5708706789786302
 21
1.250735572575925
 31
0.0
  0
LINE
  5
25A
330
1F
100
AcDbEntity
  8
HOUSING
100
AcDbLine
 10
0.5708706789786302
 20
1.345735572575927
 30
0.0
 11
0.3158706789786294
 21
1.345735572575924
 31
0.0
  0
LWPOLYLINE
  5
25B
330
1F
100
AcDbEntity
  8
HOUSING
100
AcDbPolyline
 90
        9
 70
     0
 43
0.0
 10
0.5708706789786302
 20
2.231324517442934
 10
0.5345384220167224
 20
2.231324517442934
 10
0.5150489950672885
 20
2.324126463496701
 10
0.3436712326644936
 20
2.232697556108703
 10
0.3436712326644936
 20
2.203735572575925
 10
0.3158706789786294
 20
2.203735572575925
 10
0.3158706789786294
 20
1.175735572575924
 10
0.3488706789786305
 20
1.175735572575925
 10
0.3488706789786305
 20
1.345735572575924
  0
CIRCLE
  5
25C
330
1F
100
AcDbEntity
  8
0
100
AcDbCircle
 10
0.9112845198431987
 20
1.226506900060154
 30
0.0
 40
0.0578923055131888
  0
CIRCLE
  5
25D
330
1F
100
AcDbEntity
  8
0
100
AcDbCircle
 10
0.7210722255979074
 20
1.788643429096604
 30
0.0
 40
0.0578923055131888
  0
LINE
  5
25E
330
1F
100
AcDbEntity
  8
HOUSING
100
AcDbLine
 10
3.290870678978626
 20
1.66598661860103
 30
0.0
 11
3.290870678978626
 21
1.005735572575924
 31
0.0
  0
LINE
  5
25F
330
1F
100
AcDbEntity
  8
HOUSING
100
AcDbLine
 10
2.918670678978628
 20
1.005735572575924
 30
0.0
 11
2.918670678978628
 21
1.115735572575927
 31
0.0
  0
LINE
  5
260
330
1F
100
AcDbEntity
  8
HOUSING
100
AcDbLine
 10
3.290870678978626
 20
1.005735572575924
 30
0.0
 11
2.918670678978628
 21
1.005735572575924
 31
0.0
  0
LINE
  5
261
330
1F
100
AcDbEntity
  8
HOUSING
100
AcDbLine
 10
2.527559567867518
 20
1.555735572575924
 30
0.0
 11
1.349781790089739
 21
1.555735572575924
 31
0.0
  0
LWPOLYLINE
  5
262
330
1F
100
AcDbEntity
  8
HOUSING
100
AcDbPolyline
 90
        2
 70
     0
 43
0.0
 10
2.633670678978628
 20
1.295735572575924
 10
2.402559567867518
 20
1.555735572575924
  0
LWPOLYLINE
  5
263
330
1F
100
AcDbEntity
  8
HOUSING
100
AcDbPolyline
 90
        2
 70
     0
 43
0.0
 10
1.383670678978629
 20
1.295735572575924
 10
1.251170678978629
 20
1.444798072575926
  0
LWPOLYLINE
  5
264
330
1F
100
AcDbEntity
  8
HOUSING
100
AcDbPolyline
 90
        2
 70
     0
 43
0.0
 10
2.383670678978628
 20
1.295735572575924
 10
2.152559567867518
 20
1.555735572575924
  0
LWPOLYLINE
  5
265
330
1F
100
AcDbEntity
  8
HOUSING
100
AcDbPolyline
 90
        2
 70
     0
 43
0.0
 10
2.508670678978628
 20
1.295735572575924
 10
2.277559567867518
 20
1.555735572575924
  0
LWPOLYLINE
  5
266
330
1F
100
AcDbEntity
  8
HOUSING
100
AcDbPolyline
 90
        2
 70
     0
 43
0.0
 10
2.008670678978629
 20
1.295735572575924
 10
1.777559567867518
 20
1.555735572575924
  0
LWPOLYLINE
  5
267
330
1F
100
AcDbEntity
  8
HOUSING
100
AcDbPolyline
 90
        2
 70
     0
 43
0.0
 10
1.633670678978629
 20
1.295735572575924
 10
1.402559567867518
 20
1.555735572575924
  0
LWPOLYLINE
  5
268
330
1F
100
AcDbEntity
  8
HOUSING
100
AcDbPolyline
 90
        2
 70
     0
 43
0.0
 10
1.883670678978629
 20
1.295735572575924
 10
1.652559567867518
 20
1.555735572575924
  0
LWPOLYLINE
  5
269
330
1F
100
AcDbEntity
  8
HOUSING
100
AcDbPolyline
 90
        2
 70
     0
 43
0.0
 10
1.758670678978629
 20
1.295735572575924
 10
1.527559567867518
 20
1.555735572575924
  0
LWPOLYLINE
  5
26A
330
1F
100
AcDbEntity
  8
HOUSING
100
AcDbPolyline
 90
        2
 70
     0
 43
0.0
 10
1.508670678978629
 20
1.295735572575924
 10
1.313670678978629
 20
1.515110572575926
  0
LWPOLYLINE
  5
26B
330
1F
100
AcDbEntity
  8
HOUSING
100
AcDbPolyline
 90
        2
 70
     0
 43
0.0
 10
2.258670678978628
 20
1.295735572575924
 10
2.027559567867518
 20
1.555735572575924
  0
LWPOLYLINE
  5
26C
330
1F
100
AcDbEntity
  8
HOUSING
100
AcDbPolyline
 90
        2
 70
     0
 43
0.0
 10
2.133670678978629
 20
1.295735572575924
 10
1.902559567867518
 20
1.555735572575924
  0
ARC
  5
26D
330
1F
100
AcDbEntity
  8
HOUSING
100
AcDbCircle
 10
3.691959551040843
 20
2.080461159110412
 30
0.0
 40
0.02
100
AcDbArc
 50
302.2846630111053
 51
0.0
  0
LINE
  5
26E
330
1F
100
AcDbEntity
  8
HOUSING
100
AcDbLine
 10
3.702642072435944
 20
2.063553062332736
 30
0.0
 11
3.433595857059961
 21
1.893569888601466
 31
0.0
  0
LINE
  5
26F
330
1F
100
AcDbEntity
  8
HOUSING
100
AcDbLine
 10
2.918670678978628
 20
1.115735572575927
 30
0.0
 11
2.527559567867518
 21
1.555735572575924
 31
0.0
  0
CIRCLE
  5
270
330
1F
100
AcDbEntity
  8
0
100
AcDbCircle
 10
3.152491758168078
 20
1.226506900060154
 30
0.0
 40
0.0578923055131888
  0
LWPOLYLINE
  5
272
330
1F
100
AcDbEntity
  8
HOUSING
100
AcDbPolyline
 90
        2
 70
     0
 43
0.0
 10
3.434658212630348
 20
4.005838040742601
 10
0.7058740130078211
 20
4.005838040742601
  0
LINE
  5
273
330
1F
100
AcDbEntity
  8
HOUSING
100
AcDbLine
 10
0.9675595678675172
 20
4.785735572575922
 30
0.0
 11
1.349781790089739
 21
4.355735572575922
 31
0.0
  0
LWPOLYLINE
  5
274
330
1F
100
AcDbEntity
  8
HOUSING
100
AcDbPolyline
 90
        2
 70
     0
 43
0.0
 10
2.758670678978629
 20
4.615735572575925
 10
1.118670678978629
 20
4.615735572575925
  0
LWPOLYLINE
  5
275
330
1F
100
AcDbEntity
  8
HOUSING
100
AcDbPolyline
 90
        2
 70
     0
 43
0.0
 10
1.258670678978629
 20
4.615735572575925
 10
1.188670678978629
 20
4.536985572575924
  0
LINE
  5
276
330
1F
100
AcDbEntity
  8
HOUSING
100
AcDbLine
 10
0.4208706789786297
 20
4.455735572575925
 30
0.0
 11
0.6508706789786303
 21
4.785735572575922
 31
0.0
  0
CIRCLE
  5
277
330
1F
100
AcDbEntity
  8
0
100
AcDbCircle
 10
0.8695319224323752
 20
4.673864860357922
 30
0.0
 40
0.0578923055131888
  0
ARC
  5
278
330
1F
100
AcDbEntity
  8
BOARD
100
AcDbCircle
 10
0.7118202901746982
 20
3.987306149688466
 30
0.0
 40
0.02
100
AcDbArc
 50
105.8876831058129
 51
180.0
  0
LINE
  5
279
330
1F
100
AcDbEntity
  8
HOUSING
100
AcDbLine
 10
0.4208706789786297
 20
3.680735572575925
 30
0.0
 11
0.4208706789786297
 21
4.455735572575925
 31
0.0
  0
LINE
  5
27A
330
1F
100
AcDbEntity
  8
HOUSING
100
AcDbLine
 10
0.4935899656741409
 20
3.680735572575925
 30
0.0
 11
0.4208706789786297
 21
3.680735572575925
 31
0.0
  0
LINE
  5
27B
330
1F
100
AcDbEntity
  8
HOUSING
100
AcDbLine
 10
0.4935899656741409
 20
3.780735572575924
 30
0.0
 11
0.4935899656741409
 21
3.680735572575925
 31
0.0
  0
LINE
  5
27C
330
1F
100
AcDbEntity
  8
HOUSING
100
AcDbLine
 10
0.5708706789786302
 20
3.780735572575924
 30
0.0
 11
0.4935899656741409
 21
3.780735572575924
 31
0.0
  0
CIRCLE
  5
27D
330
1F
100
AcDbEntity
  8
0
100
AcDbCircle
 10
0.693573289682054
 20
4.123638650522316
 30
0.0
 40
0.0578923055131888
  0
LINE
  5
27F
330
1F
100
AcDbEntity
  8
HOUSING
100
AcDbLine
 10
0.6508706789786303
 20
4.785735572575922
 30
0.0
 11
0.9675595678675172
 21
4.785735572575922
 31
0.0
  0
LINE
  5
280
330
1F
100
AcDbEntity
  8
HOUSING
100
AcDbLine
 10
3.290870678978626
 20
4.905735572575921
 30
0.0
 11
3.290870678978626
 21
4.24548452655082
 31
0.0
  0
LINE
  5
281
330
1F
100
AcDbEntity
  8
HOUSING
100
AcDbLine
 10
2.527559567867518
 20
4.355735572575922
 30
0.0
 11
2.918670678978628
 21
4.795735572575924
 31
0.0
  0
LINE
  5
282
330
1F
100
AcDbEntity
  8
HOUSING
100
AcDbLine
 10
1.349781790089739
 20
4.355735572575922
 30
0.0
 11
2.527559567867518
 21
4.355735572575922
 31
0.0
  0
LWPOLYLINE
  5
283
330
1F
100
AcDbEntity
  8
HOUSING
100
AcDbPolyline
 90
        2
 70
     0
 43
0.0
 10
2.633670678978628
 20
4.615735572575925
 10
2.402559567867518
 20
4.355735572575922
  0
LWPOLYLINE
  5
284
330
1F
100
AcDbEntity
  8
HOUSING
100
AcDbPolyline
 90
        2
 70
     0
 43
0.0
 10
1.383670678978629
 20
4.615735572575925
 10
1.251170678978629
 20
4.466673072575924
  0
LWPOLYLINE
  5
285
330
1F
100
AcDbEntity
  8
HOUSING
100
AcDbPolyline
 90
        2
 70
     0
 43
0.0
 10
2.383670678978628
 20
4.615735572575925
 10
2.152559567867518
 20
4.355735572575922
  0
LWPOLYLINE
  5
286
330
1F
100
AcDbEntity
  8
HOUSING
100
AcDbPolyline
 90
        2
 70
     0
 43
0.0
 10
2.508670678978628
 20
4.615735572575925
 10
2.277559567867518
 20
4.355735572575922
  0
LWPOLYLINE
  5
287
330
1F
100
AcDbEntity
  8
HOUSING
100
AcDbPolyline
 90
        2
 70
     0
 43
0.0
 10
2.008670678978629
 20
4.615735572575925
 10
1.777559567867518
 20
4.355735572575922
  0
LWPOLYLINE
  5
288
330
1F
100
AcDbEntity
  8
HOUSING
100
AcDbPolyline
 90
        2
 70
     0
 43
0.0
 10
1.633670678978629
 20
4.615735572575925
 10
1.402559567867518
 20
4.355735572575922
  0
LWPOLYLINE
  5
289
330
1F
100
AcDbEntity
  8
HOUSING
100
AcDbPolyline
 90
        2
 70
     0
 43
0.0
 10
1.883670678978629
 20
4.615735572575925
 10
1.652559567867518
 20
4.355735572575922
  0
LWPOLYLINE
  5
28A
330
1F
100
AcDbEntity
  8
HOUSING
100
AcDbPolyline
 90
        2
 70
     0
 43
0.0
 10
1.758670678978629
 20
4.615735572575925
 10
1.527559567867518
 20
4.355735572575922
  0
LWPOLYLINE
  5
28B
330
1F
100
AcDbEntity
  8
HOUSING
100
AcDbPolyline
 90
        2
 70
     0
 43
0.0
 10
1.508670678978629
 20
4.615735572575925
 10
1.313670678978629
 20
4.396360572575924
  0
LWPOLYLINE
  5
28C
330
1F
100
AcDbEntity
  8
HOUSING
100
AcDbPolyline
 90
        2
 70
     0
 43
0.0
 10
2.133670678978629
 20
4.615735572575925
 10
1.902559567867518
 20
4.355735572575922
  0
LWPOLYLINE
  5
28D
330
1F
100
AcDbEntity
  8
HOUSING
100
AcDbPolyline
 90
        2
 70
     0
 43
0.0
 10
2.258670678978628
 20
4.615735572575925
 10
2.027559567867518
 20
4.355735572575922
  0
ARC
  5
28E
330
1F
100
AcDbEntity
  8
HOUSING
100
AcDbCircle
 10
3.691959551040843
 20
3.818570170980779
 30
0.0
 40
0.02
100
AcDbArc
 50
0.0
 51
57.71533698889469
  0
LINE
  5
28F
330
1F
100
AcDbEntity
  8
HOUSING
100
AcDbLine
 10
3.702642072435944
 20
3.835478267758452
 30
0.0
 11
3.433595857059961
 21
4.00546144148972
 31
0.0
  0
TEXT
  5
290
330
1F
100
AcDbEntity
  8
BORDER
100
AcDbText
 10
1.328551327025458
 20
5.132216123043233
 30
0.0
 40
0.1
  1
LEFT VIEW
  7
ROMANS
100
AcDbText
  0
LINE
  5
291
330
1F
100
AcDbEntity
  8
HOUSING
100
AcDbLine
 10
2.918670678978628
 20
4.905735572575921
 30
0.0
 11
3.290870678978626
 21
4.905735572575921
 31
0.0
  0
LINE
  5
292
330
1F
100
AcDbEntity
  8
HOUSING
100
AcDbLine
 10
2.918670678978628
 20
4.795735572575924
 30
0.0
 11
2.918670678978628
 21
4.905735572575921
 31
0.0
  0
CIRCLE
  5
293
330
1F
100
AcDbEntity
  8
0
100
AcDbCircle
 10
3.110024685019391
 20
4.730451660188216
 30
0.0
 40
0.0578923055131888
  0
TEXT
  5
294
330
1F
100
AcDbEntity
  8
0
100
AcDbText
 10
6.982894733798095
 20
2.527344740534156
 30
0.0
 40
0.075
  1
MCR-1CLP-I/I-00
 50
90.0
  7
ROMANS
100
AcDbText
  0
LINE
  5
295
330
1F
100
AcDbEntity
  8
0
100
AcDbLine
 10
7.301632814961235
 20
4.199504272208848
 30
0.0
 11
7.301632814961235
 21
1.717436849230144
 31
0.0
  0
LINE
  5
296
330
1F
100
AcDbEntity
  8
0
100
AcDbLine
 10
6.861553022167471
 20
1.717436849230144
 30
0.0
 11
6.861553022167471
 21
4.199504272208848
 31
0.0
  0
LINE
  5
297
330
1F
100
AcDbEntity
  8
0
100
AcDbLine
 10
7.336487850648793
 20
4.908470560719497
 30
0.0
 11
7.336487850648793
 21
1.008470560719499
 31
0.0
  0
LINE
  5
298
330
1F
100
AcDbEntity
  8
0
100
AcDbLine
 10
6.826697986479913
 20
1.008470560719499
 30
0.0
 11
6.826697986479912
 21
4.908470560719497
 31
0.0
  0
LINE
  5
299
330
1F
100
AcDbEntity
  8
HOUSING
100
AcDbLine
 10
4.540870678978627
 20
3.455735572575926
 30
0.0
 11
4.540870678978627
 21
2.455735572575926
 31
0.0
  0
LINE
  5
29A
330
1F
100
AcDbEntity
  8
HOUSING
100
AcDbLine
 10
4.790870678978627
 20
4.145517610597655
 30
0.0
 11
4.790870678978627
 21
1.776931953039928
 31
0.0
  0
LINE
  5
29B
330
1F
100
AcDbEntity
  8
0
100
AcDbLine
 10
7.336487850648793
 20
4.908470560719495
 30
0.0
 11
7.336487850648793
 21
1.008470560719497
 31
0.0
  0
LINE
  5
29C
330
1F
100
AcDbEntity
  8
0
100
AcDbLine
 10
6.82669798647991
 20
1.008470560719497
 30
0.0
 11
6.82669798647991
 21
4.908470560719495
 31
0.0
  0
LINE
  5
29D
330
1F
100
AcDbEntity
  8
0
  6
ByBlock
 62
     0
100
AcDbLine
 10
6.730759553707747
 20
0.117833466357772
 30
0.0
 11
6.630759553707744
 21
0.117833466357772
 31
0.0
  0
SOLID
  5
29E
330
1F
100
AcDbEntity
  8
0
  6
ByBlock
 62
     0
100
AcDbTrace
 10
5.486408281455079
 20
1.101002264369975
 30
0.0
 11
5.519741614788411
 21
1.101002264369975
 31
0.0
 12
5.503074948121745
 22
1.001002264369973
 32
0.0
 13
5.503074948121745
 23
1.001002264369973
 33
0.0
  0
LINE
  5
29F
330
1F
100
AcDbEntity
  8
BOARD
100
AcDbLine
 10
4.088169391303122
 20
1.369882864033209
 30
0.0
 11
3.988415397543267
 21
1.019407814703386
 31
0.0
  0
LINE
  5
2A0
330
1F
100
AcDbEntity
  8
0
  6
ByBlock
 62
     0
100
AcDbLine
 10
4.140184349380386
 20
1.001002264369973
 30
0.0
 11
5.603074948121745
 21
1.001002264369973
 31
0.0
  0
POINT
  5
2A1
330
1F
100
AcDbEntity
  8
DEFPOINTS
  6
ByBlock
 62
     0
100
AcDbPoint
 10
4.790380573641113
 20
1.001002264369973
 30
0.0
  0
ARC
  5
2A2
330
1F
100
AcDbEntity
  8
BOARD
100
AcDbCircle
 10
4.107405394911878
 20
1.364407814703388
 30
0.0
 40
0.02
100
AcDbArc
 50
90.00000000000005
 51
164.1123168941871
  0
LINE
  5
2A3
330
1F
100
AcDbEntity
  8
BOARD
100
AcDbLine
 10
4.644112455166938
 20
1.384407814703386
 30
0.0
 11
4.107405394911878
 21
1.384407814703386
 31
0.0
  0
ARC
  5
2A4
330
1F
100
AcDbEntity
  8
HOUSING
100
AcDbCircle
 10
4.770870678978629
 20
1.780214083102906
 30
0.0
 40
0.02
100
AcDbArc
 50
341.3609176728704
 51
0.0
  0
ARC
  5
2A5
330
1F
100
AcDbEntity
  8
0
100
AcDbCircle
 10
4.644112455166938
 20
1.404407814703387
 30
0.0
 40
0.02
100
AcDbArc
 50
270.0
 51
341.3609176728704
  0
LINE
  5
2A6
330
1F
100
AcDbEntity
  8
HOUSING
100
AcDbLine
 10
4.790870678978627
 20
1.776931953039928
 30
0.0
 11
4.663063467617256
 21
1.398015700256052
 31
0.0
  0
LINE
  5
2A7
330
1F
100
AcDbEntity
  8
0
  6
ByBlock
 62
     0
100
AcDbLine
 10
5.503074948121745
 20
1.101002264369975
 30
0.0
 11
5.503074948121745
 21
2.815760483582493
 31
0.0
  0
LINE
  5
2A8
330
1F
100
AcDbEntity
  8
0
100
AcDbLine
 10
7.185357795935582
 20
1.131837883750938
 30
0.0
 11
7.185357795935576
 21
1.038661954196602
 31
0.0
  0
LINE
  5
2A9
330
1F
100
AcDbEntity
  8
0
100
AcDbLine
 10
6.988922542517507
 20
1.131837883750938
 30
0.0
 11
6.988922542517507
 21
1.038661954196602
 31
0.0
  0
LINE
  5
2AA
330
1F
100
AcDbEntity
  8
0
100
AcDbLine
 10
7.289532814961242
 20
1.388659812569208
 30
0.0
 11
7.289532814961242
 21
1.008470560719497
 31
0.0
  0
LINE
  5
2AB
330
1F
100
AcDbEntity
  8
0
100
AcDbLine
 10
6.880987508083197
 20
1.008470560719497
 30
0.0
 11
6.880987508083197
 21
1.388659812569209
 31
0.0
  0
POINT
  5
2AC
330
1F
100
AcDbEntity
  8
DEFPOINTS
  6
ByBlock
 62
     0
100
AcDbPoint
 10
7.336522923965856
 20
0.117833466357772
 30
0.0
  0
POINT
  5
2AD
330
1F
100
AcDbEntity
  8
DEFPOINTS
  6
ByBlock
 62
     0
100
AcDbPoint
 10
7.336522923965856
 20
0.9518649242157639
 30
0.0
  0
POINT
  5
2AE
330
1F
100
AcDbEntity
  8
DEFPOINTS
  6
ByBlock
 62
     0
100
AcDbPoint
 10
6.830759553707745
 20
0.9518649242157639
 30
0.0
  0
TEXT
  5
2AF
330
1F
100
AcDbEntity
  8
0
  6
ByBlock
 62
     0
100
AcDbText
 10
6.891737366177647
 20
0.0576510363164993
 30
0.0
 40
0.1
  1
12.50
  7
ROMANS
 72
     4
 11
7.082213556653838
 21
0.1076510363164993
 31
0.0
100
AcDbText
  0
SOLID
  5
2B0
330
1F
100
AcDbEntity
  8
0
  6
ByBlock
 62
     0
100
AcDbTrace
 10
7.436522923965855
 20
0.1345001330244377
 30
0.0
 11
7.436522923965855
 21
0.1011667996911045
 31
0.0
 12
7.336522923965856
 22
0.117833466357772
 32
0.0
 13
7.336522923965856
 23
0.117833466357772
 33
0.0
  0
SOLID
  5
2B1
330
1F
100
AcDbEntity
  8
0
  6
ByBlock
 62
     0
100
AcDbTrace
 10
6.730759553707747
 20
0.1345001330244377
 30
0.0
 11
6.730759553707747
 21
0.1011667996911045
 31
0.0
 12
6.830759553707745
 22
0.117833466357772
 32
0.0
 13
6.830759553707745
 23
0.117833466357772
 33
0.0
  0
LINE
  5
2B2
330
1F
100
AcDbEntity
  8
0
  6
ByBlock
 62
     0
100
AcDbLine
 10
7.436522923965855
 20
0.117833466357772
 30
0.0
 11
7.536522923965853
 21
0.117833466357772
 31
0.0
  0
LINE
  5
2B3
330
1F
100
AcDbEntity
  8
0
  6
ByBlock
 62
     0
100
AcDbLine
 10
7.336522923965856
 20
0.8893649242157637
 30
0.0
 11
7.336522923965856
 21
0.0178334663577711
 31
0.0
  0
LINE
  5
2B4
330
1F
100
AcDbEntity
  8
0
  6
ByBlock
 62
     0
100
AcDbLine
 10
6.830759553707745
 20
0.8893649242157637
 30
0.0
 11
6.830759553707745
 21
0.0178334663577711
 31
0.0
  0
LINE
  5
2B5
330
1F
100
AcDbEntity
  8
0
100
AcDbLine
 10
7.336487850648793
 20
1.008470560719499
 30
0.0
 11
6.826697986479913
 21
1.008470560719499
 31
0.0
  0
LINE
  5
2B6
330
1F
100
AcDbEntity
  8
0
100
AcDbLine
 10
7.185357795935576
 20
1.069249787141242
 30
0.0
 11
7.289532814961242
 21
1.069249787141242
 31
0.0
  0
LINE
  5
2B7
330
1F
100
AcDbEntity
  8
0
100
AcDbLine
 10
6.988922542517507
 20
1.069249787141242
 30
0.0
 11
6.880987508083197
 21
1.069249787141242
 31
0.0
  0
LINE
  5
2B8
330
1F
100
AcDbEntity
  8
0
100
AcDbLine
 10
6.826478859784558
 20
1.038661954196602
 30
0.0
 11
7.336487850648793
 21
1.038661954196604
 31
0.0
  0
LINE
  5
2B9
330
1F
100
AcDbEntity
  8
0
100
AcDbLine
 10
6.880987508083195
 20
1.008470560719497
 30
0.0
 11
6.880987508083195
 21
1.039058393664135
 31
0.0
  0
LINE
  5
2BA
330
1F
100
AcDbEntity
  8
0
100
AcDbLine
 10
7.336487850648793
 20
1.008470560719497
 30
0.0
 11
6.826697986479913
 21
1.008470560719497
 31
0.0
  0
TEXT
  5
2BB
330
1F
100
AcDbEntity
  8
BORDER
100
AcDbText
 10
7.161290282248827
 20
2.431665558274254
 30
0.0
 40
0.052734375
  1
IN
 50
90.0
  7
ROMANS
100
AcDbText
  0
CIRCLE
  5
2BC
330
1F
100
AcDbEntity
  8
0
100
AcDbCircle
 10
7.138328811354487
 20
2.615008615937171
 30
0.0
 40
0.0497299020175812
  0
SOLID
  5
2BD
330
1F
100
AcDbEntity
  8
0
100
AcDbTrace
 10
7.124829892919275
 20
2.59479274235606
 30
0.0
 11
7.149829892919273
 21
2.59479274235606
 31
0.0
 12
7.137329892919276
 22
2.650693399828294
 32
0.0
 13
7.137329892919276
 23
2.650693399828294
 33
0.0
  0
LINE
  5
2BE
330
1F
100
AcDbEntity
  8
0
100
AcDbLine
 10
7.137329892919276
 20
2.59479274235606
 30
0.0
 11
7.137329892919276
 21
2.529075663558576
 31
0.0
  0
LINE
  5
2BF
330
1F
100
AcDbEntity
  8
0
100
AcDbLine
 10
6.861553022167471
 20
2.009396731176575
 30
0.0
 11
7.301632814961235
 21
2.009396731176575
 31
0.0
  0
LINE
  5
2C0
330
1F
100
AcDbEntity
  8
0
100
AcDbLine
 10
6.861553022167471
 20
1.853172571814725
 30
0.0
 11
7.301632814961235
 21
1.853172571814725
 31
0.0
  0
LWPOLYLINE
  5
2C1
330
1F
100
AcDbEntity
  8
7
  6
Continuous
100
AcDbPolyline
 90
        2
 70
     0
 43
0.0
 10
7.076685280924579
 20
1.85524003420403
 10
7.076685280924579
 20
1.921990034204032
  0
TEXT
  5
2C2
330
1F
100
AcDbEntity
  8
BORDER
100
AcDbText
 10
6.946821796493535
 20
1.946359520569354
 30
0.0
 40
0.05625
  1
  IN
  7
ROMANS
100
AcDbText
  0
TEXT
  5
2C3
330
1F
100
AcDbEntity
  8
BORDER
100
AcDbText
 10
6.90188653066984
 20
1.874313789608482
 30
0.0
 40
0.0421875
  1
 I
  7
ROMANS
100
AcDbText
  0
TEXT
  5
2C4
330
1F
100
AcDbEntity
  8
BORDER
100
AcDbText
 10
7.098001409856107
 20
1.872412106698136
 30
0.0
 40
0.0421875
  1
GND 1
  7
ROMANS
100
AcDbText
  0
LWPOLYLINE
  5
2C5
330
1F
100
AcDbEntity
  8
7
  6
Continuous
100
AcDbPolyline
 90
       26
 70
     0
 43
0.0
 10
7.091941279156767
 20
2.096464210462648
 10
7.110925654156765
 20
2.077901710462647
 10
7.110925654156765
 20
2.077901710462647
 10
7.110925654156765
 20
2.077901710462647
 10
7.110925654156765
 20
2.077901710462647
 10
7.110925654156765
 20
2.078323585462648
 10
7.110925654156765
 20
2.096886085462648
 10
7.127800654156767
 20
2.096886085462648
 10
7.127800654156767
 20
2.050479835462648
 10
7.115144404156767
 20
2.050479835462648
 10
7.094894404156766
 20
2.069042335462647
 10
7.094894404156766
 20
2.069042335462647
 10
7.094894404156766
 20
2.069042335462647
 10
7.094894404156766
 20
2.069042335462647
 10
7.094894404156766
 20
2.069042335462647
 10
7.094894404156766
 20
2.050901710462645
 10
7.092785029156765
 20
2.050901710462645
 10
7.090675654156764
 20
2.050901710462645
 10
7.088566279156767
 20
2.050901710462645
 10
7.086456904156767
 20
2.050901710462645
 10
7.084347529156764
 20
2.050901710462645
 10
7.082238154156769
 20
2.050901710462645
 10
7.080128779156766
 20
2.050901710462645
 10
7.077597529156767
 20
2.050901710462645
 10
7.078019404156764
 20
2.096464210462648
 10
7.091941279156767
 20
2.096464210462648
  0
LWPOLYLINE
  5
2C6
330
1F
100
AcDbEntity
  8
7
  6
Continuous
100
AcDbPolyline
 90
        5
 70
     0
 43
0.0
 10
7.222300654156766
 20
2.101948585462646
 10
7.205847529156763
 20
2.101948585462646
 10
7.205847529156763
 20
2.147932960462647
 10
7.222300654156766
 20
2.147932960462647
 10
7.222300654156766
 20
2.101948585462646
  0
LWPOLYLINE
  5
2C7
330
1F
100
AcDbEntity
  8
7
  6
Continuous
100
AcDbPolyline
 90
       17
 70
     0
 43
0.0
 10
6.931628779156767
 20
2.113761085462648
 10
6.934160029156764
 20
2.113339210462648
 10
6.936269404156766
 20
2.111651710462648
 10
6.937535029156767
 20
2.109542335462649
 10
6.937956904156764
 20
2.107011085462648
 10
6.937535029156767
 20
2.104479835462647
 10
6.936269404156766
 20
2.102370460462648
 10
6.934160029156764
 20
2.100682960462648
 10
6.931628779156767
 20
2.100261085462648
 10
6.929097529156766
 20
2.100682960462648
 10
6.927410029156766
 20
2.102370460462648
 10
6.925722529156765
 20
2.104479835462647
 10
6.925300654156766
 20
2.107011085462648
 10
6.925722529156765
 20
2.109542335462649
 10
6.927410029156766
 20
2.111651710462648
 10
6.929097529156766
 20
2.113339210462648
 10
6.931628779156767
 20
2.113761085462648
  0
LWPOLYLINE
  5
2C8
330
1F
100
AcDbEntity
  8
7
  6
Continuous
100
AcDbPolyline
 90
       49
 70
     0
 43
0.0
 10
6.939222529156764
 20
2.137386085462646
 10
6.943019404156767
 20
2.137386085462646
 10
6.946394404156764
 20
2.136964210462647
 10
6.949769404156767
 20
2.136120460462648
 10
6.952722529156765
 20
2.135276710462648
 10
6.956097529156767
 20
2.133589210462648
 10
6.958628779156766
 20
2.131901710462646
 10
6.961160029156767
 20
2.129792335462648
 10
6.963691279156766
 20
2.127261085462648
 10
6.967910029156767
 20
2.121354835462649
 10
6.970441279156767
 20
2.114604835462649
 10
6.971285029156766
 20
2.107432960462648
 10
6.970863154156765
 20
2.100261085462648
 10
6.969597529156767
 20
2.096886085462648
 10
6.968331904156767
 20
2.093511085462648
 10
6.966644404156767
 20
2.090979835462646
 10
6.964956904156767
 20
2.088026710462648
 10
6.962425654156767
 20
2.085495460462648
 10
6.960316279156766
 20
2.083386085462648
 10
6.957785029156764
 20
2.081698585462649
 10
6.954831904156766
 20
2.080011085462647
 10
6.952722529156765
 20
2.079167335462646
 10
6.950613154156764
 20
2.078323585462648
 10
6.948503779156767
 20
2.077901710462647
 10
6.946394404156764
 20
2.077479835462646
 10
6.944285029156764
 20
2.077057960462648
 10
6.942175654156763
 20
2.077057960462648
 10
6.940488154156767
 20
2.077057960462648
 10
6.938378779156766
 20
2.077479835462646
 10
6.936691279156766
 20
2.080854835462648
 10
6.936269404156766
 20
2.084651710462646
 10
6.935847529156767
 20
2.088026710462648
 10
6.936269404156766
 20
2.091401710462648
 10
6.939644404156764
 20
2.094776710462649
 10
6.942597529156767
 20
2.097729835462647
 10
6.945550654156765
 20
2.101526710462649
 10
6.946394404156764
 20
2.106167335462647
 10
6.945128779156767
 20
2.112073585462648
 10
6.942175654156763
 20
2.116292335462648
 10
6.938800654156767
 20
2.119667335462647
 10
6.935847529156767
 20
2.123886085462646
 10
6.935847529156767
 20
2.127682960462649
 10
6.935847529156767
 20
2.131479835462648
 10
6.936691279156766
 20
2.134854835462646
 10
6.938800654156767
 20
2.137386085462646
 10
6.938800654156767
 20
2.137386085462646
 10
6.939222529156764
 20
2.137386085462646
 10
6.939222529156764
 20
2.137386085462646
 10
6.939222529156764
 20
2.137386085462646
  0
LWPOLYLINE
  5
2C9
330
1F
100
AcDbEntity
  8
7
  6
Continuous
100
AcDbPolyline
 90
       34
 70
     0
 43
0.0
 10
6.898300654156765
 20
2.136542335462649
 10
6.925300654156766
 20
2.136542335462649
 10
6.926144404156764
 20
2.136542335462649
 10
6.926566279156764
 20
2.136120460462648
 10
6.926988154156764
 20
2.135698585462648
 10
6.926988154156764
 20
2.134854835462646
 10
6.926988154156764
 20
2.121776710462647
 10
6.926988154156764
 20
2.121354835462649
 10
6.926988154156764
 20
2.121354835462649
 10
6.926566279156764
 20
2.120932960462648
 10
6.926566279156764
 20
2.120511085462648
 10
6.922769404156767
 20
2.117557960462646
 10
6.919816279156764
 20
2.114604835462649
 10
6.918128779156765
 20
2.110386085462645
 10
6.918128779156765
 20
2.105745460462645
 10
6.919394404156767
 20
2.101104835462648
 10
6.922347529156767
 20
2.097307960462648
 10
6.925300654156766
 20
2.094354835462648
 10
6.927831904156767
 20
2.090979835462646
 10
6.927831904156767
 20
2.063979835462649
 10
6.927831904156767
 20
2.063136085462648
 10
6.927410029156766
 20
2.062714210462647
 10
6.926566279156764
 20
2.062292335462647
 10
6.926144404156764
 20
2.062292335462647
 10
6.898300654156765
 20
2.062292335462647
 10
6.897456904156767
 20
2.062292335462647
 10
6.897035029156767
 20
2.062714210462647
 10
6.896613154156766
 20
2.063557960462648
 10
6.896191279156766
 20
2.064401710462647
 10
6.896191279156766
 20
2.134432960462649
 10
6.896191279156766
 20
2.135276710462648
 10
6.896613154156766
 20
2.136120460462648
 10
6.897456904156767
 20
2.136542335462649
 10
6.898300654156765
 20
2.136542335462649
  0
LWPOLYLINE
  5
2CA
330
1F
100
AcDbEntity
  8
7
  6
Continuous
100
AcDbPolyline
 90
       21
 70
     0
 43
0.0
 10
6.890285029156767
 20
2.148354835462646
 10
6.976347529156766
 20
2.148354835462646
 10
6.978035029156766
 20
2.147932960462647
 10
6.979722529156764
 20
2.147089210462648
 10
6.980988154156767
 20
2.145401710462645
 10
6.981410029156767
 20
2.143292335462644
 10
6.981410029156767
 20
2.055120460462648
 10
6.980988154156767
 20
2.053011085462645
 10
6.979722529156764
 20
2.051323585462647
 10
6.978035029156766
 20
2.050479835462648
 10
6.976347529156766
 20
2.050057960462648
 10
6.890285029156767
 20
2.050057960462648
 10
6.888175654156764
 20
2.050479835462648
 10
6.886488154156767
 20
2.051323585462647
 10
6.885644404156766
 20
2.053011085462645
 10
6.885222529156767
 20
2.055120460462648
 10
6.885222529156767
 20
2.143292335462644
 10
6.885644404156766
 20
2.145401710462645
 10
6.886488154156767
 20
2.147089210462648
 10
6.888175654156764
 20
2.147932960462647
 10
6.890285029156767
 20
2.148354835462646
  0
LWPOLYLINE
  5
2CB
330
1F
100
AcDbEntity
  8
7
  6
Continuous
100
AcDbPolyline
 90
        4
 70
     0
 43
0.0
 10
7.190660029156764
 20
2.069886085462648
 10
7.185175654156764
 20
2.069886085462648
 10
7.188128779156764
 20
2.078745460462648
 10
7.190660029156764
 20
2.069886085462648
  0
LWPOLYLINE
  5
2CC
330
1F
100
AcDbEntity
  8
7
  6
Continuous
100
AcDbPolyline
 90
       25
 70
     0
 43
0.0
 10
7.048910029156767
 20
2.083807960462649
 10
7.051019404156765
 20
2.083807960462649
 10
7.053128779156763
 20
2.083386085462648
 10
7.055238154156767
 20
2.082542335462648
 10
7.056503779156765
 20
2.080854835462648
 10
7.057769404156764
 20
2.077057960462648
 10
7.058191279156765
 20
2.073261085462647
 10
7.057769404156764
 20
2.069886085462648
 10
7.056503779156765
 20
2.066511085462646
 10
7.054816279156766
 20
2.065245460462648
 10
7.052706904156766
 20
2.064401710462647
 10
7.051019404156765
 20
2.063979835462649
 10
7.048910029156767
 20
2.063979835462649
 10
7.046800654156767
 20
2.065245460462648
 10
7.045113154156764
 20
2.066511085462646
 10
7.043847529156766
 20
2.068620460462649
 10
7.043003779156767
 20
2.070729835462645
 10
7.043003779156767
 20
2.074104835462648
 10
7.043425654156764
 20
2.077479835462646
 10
7.044269404156767
 20
2.080432960462649
 10
7.046378779156764
 20
2.082542335462648
 10
7.047222529156766
 20
2.082964210462648
 10
7.047644404156763
 20
2.083386085462648
 10
7.048488154156767
 20
2.083807960462649
 10
7.048910029156767
 20
2.083807960462649
  0
LWPOLYLINE
  5
2CD
330
1F
100
AcDbEntity
  8
7
  6
Continuous
100
AcDbPolyline
 90
       61
 70
     0
 43
0.0
 10
7.234113154156767
 20
2.096464210462648
 10
7.281054365757628
 20
2.096464210462648
 10
7.281054365757628
 20
2.084229835462647
 10
7.270816279156764
 20
2.084229835462647
 10
7.270816279156764
 20
2.050479835462648
 10
7.253519404156769
 20
2.050479835462648
 10
7.253519404156769
 20
2.084651710462646
 10
7.250988154156765
 20
2.084651710462646
 10
7.248456904156767
 20
2.084651710462646
 10
7.245925654156766
 20
2.084651710462646
 10
7.243394404156764
 20
2.084651710462646
 10
7.240441279156769
 20
2.084651710462646
 10
7.237910029156764
 20
2.084229835462647
 10
7.235378779156767
 20
2.083807960462649
 10
7.233269404156767
 20
2.082964210462648
 10
7.230738154156767
 20
2.080854835462648
 10
7.229050654156765
 20
2.078323585462648
 10
7.227785029156767
 20
2.075792335462647
 10
7.227785029156767
 20
2.072417335462644
 10
7.228206904156767
 20
2.069464210462649
 10
7.229472529156763
 20
2.067354835462648
 10
7.231160029156765
 20
2.065667335462644
 10
7.233269404156767
 20
2.063979835462649
 10
7.235378779156767
 20
2.063136085462648
 10
7.237066279156767
 20
2.062714210462647
 10
7.239175654156767
 20
2.062714210462647
 10
7.241285029156767
 20
2.062714210462647
 10
7.242972529156764
 20
2.063136085462648
 10
7.245081904156767
 20
2.063557960462648
 10
7.246769404156767
 20
2.063979835462649
 10
7.248456904156767
 20
2.064823585462646
 10
7.248456904156767
 20
2.053854835462646
 10
7.247191279156766
 20
2.053011085462645
 10
7.245503779156766
 20
2.052167335462648
 10
7.244238154156767
 20
2.051745460462647
 10
7.242550654156764
 20
2.051323585462647
 10
7.240863154156764
 20
2.050901710462645
 10
7.238753779156767
 20
2.050901710462645
 10
7.237066279156767
 20
2.050479835462648
 10
7.235378779156767
 20
2.050479835462648
 10
7.232003779156767
 20
2.050479835462648
 10
7.228628779156767
 20
2.051323585462647
 10
7.225675654156765
 20
2.052167335462648
 10
7.222722529156767
 20
2.053432960462647
 10
7.220191279156766
 20
2.055120460462648
 10
7.217660029156767
 20
2.057229835462647
 10
7.215550654156764
 20
2.059339210462648
 10
7.213863154156767
 20
2.061870460462649
 10
7.212175654156767
 20
2.067776710462648
 10
7.211753779156767
 20
2.073682960462646
 10
7.212175654156767
 20
2.080011085462647
 10
7.214285029156764
 20
2.085495460462648
 10
7.215550654156764
 20
2.087604835462648
 10
7.217238154156767
 20
2.089714210462648
 10
7.219347529156767
 20
2.091401710462648
 10
7.221456904156764
 20
2.093089210462647
 10
7.223566279156764
 20
2.093932960462648
 10
7.226097529156767
 20
2.095198585462647
 10
7.228628779156767
 20
2.096042335462648
 10
7.231160029156765
 20
2.096464210462648
 10
7.234113154156767
 20
2.096464210462648
  0
LWPOLYLINE
  5
2CE
330
1F
100
AcDbEntity
  8
7
  6
Continuous
100
AcDbPolyline
 90
       16
 70
     0
 43
0.0
 10
7.196566279156766
 20
2.096886085462648
 10
7.215550654156764
 20
2.050901710462645
 10
7.199097529156764
 20
2.050901710462645
 10
7.195722529156767
 20
2.058917335462648
 10
7.194035029156767
 20
2.058917335462648
 10
7.192347529156767
 20
2.058917335462648
 10
7.190660029156764
 20
2.058917335462648
 10
7.188550654156767
 20
2.058917335462648
 10
7.186863154156767
 20
2.058917335462648
 10
7.184753779156767
 20
2.058917335462648
 10
7.183066279156767
 20
2.058917335462648
 10
7.180956904156767
 20
2.058917335462648
 10
7.176738154156763
 20
2.050901710462645
 10
7.161550654156764
 20
2.050901710462645
 10
7.179556622011068
 20
2.097038209709465
 10
7.196566279156766
 20
2.096886085462648
  0
LWPOLYLINE
  5
2CF
330
1F
100
AcDbEntity
  8
7
  6
Continuous
100
AcDbPolyline
 90
       22
 70
     0
 43
0.0
 10
7.130753779156764
 20
2.096886085462648
 10
7.169566279156766
 20
2.096886085462648
 10
7.169566279156766
 20
2.093932960462648
 10
7.169566279156766
 20
2.091401710462648
 10
7.169566279156766
 20
2.088870460462647
 10
7.169566279156766
 20
2.085917335462645
 10
7.158597529156763
 20
2.085917335462645
 10
7.158597529156763
 20
2.077057960462648
 10
7.158597529156763
 20
2.068198585462648
 10
7.158597529156763
 20
2.059339210462648
 10
7.158597529156763
 20
2.050901710462645
 10
7.142144404156763
 20
2.050901710462645
 10
7.142144404156763
 20
2.085917335462645
 10
7.139191279156767
 20
2.085917335462645
 10
7.136660029156765
 20
2.085917335462645
 10
7.134128779156767
 20
2.085917335462645
 10
7.130753779156764
 20
2.085917335462645
 10
7.130753779156764
 20
2.096464210462648
 10
7.130753779156764
 20
2.096464210462648
 10
7.130753779156764
 20
2.096886085462648
 10
7.130753779156764
 20
2.096886085462648
 10
7.130753779156764
 20
2.096886085462648
  0
LWPOLYLINE
  5
2D0
330
1F
100
AcDbEntity
  8
7
  6
Continuous
100
AcDbPolyline
 90
       37
 70
     0
 43
0.0
 10
7.046378779156764
 20
2.097729835462647
 10
7.049753779156764
 20
2.097729835462647
 10
7.053128779156763
 20
2.097729835462647
 10
7.056503779156765
 20
2.097307960462648
 10
7.059878779156764
 20
2.096464210462648
 10
7.062831904156767
 20
2.095620460462646
 10
7.065785029156766
 20
2.093932960462648
 10
7.068316279156767
 20
2.091823585462648
 10
7.070425654156767
 20
2.089292335462648
 10
7.073378779156767
 20
2.084229835462647
 10
7.075066279156767
 20
2.078745460462648
 10
7.075488154156767
 20
2.072839210462646
 10
7.075066279156767
 20
2.067354835462648
 10
7.073800654156767
 20
2.062714210462647
 10
7.071269404156763
 20
2.058917335462648
 10
7.068316279156767
 20
2.055542335462649
 10
7.064519404156767
 20
2.053432960462647
 10
7.061144404156767
 20
2.052167335462648
 10
7.057769404156764
 20
2.051323585462647
 10
7.053972529156767
 20
2.050479835462648
 10
7.050597529156767
 20
2.050479835462648
 10
7.047222529156766
 20
2.050479835462648
 10
7.043425654156764
 20
2.051323585462647
 10
7.040050654156765
 20
2.052167335462648
 10
7.036675654156763
 20
2.053432960462647
 10
7.032878779156766
 20
2.055964210462647
 10
7.029925654156764
 20
2.059761085462644
 10
7.027394404156766
 20
2.063979835462649
 10
7.026128779156767
 20
2.069042335462647
 10
7.025706904156765
 20
2.076214210462648
 10
7.026972529156764
 20
2.082542335462648
 10
7.029925654156764
 20
2.088448585462649
 10
7.034566279156766
 20
2.093089210462647
 10
7.037097529156767
 20
2.094776710462649
 10
7.040050654156765
 20
2.096042335462648
 10
7.043425654156764
 20
2.096886085462648
 10
7.046378779156764
 20
2.097729835462647
  0
LWPOLYLINE
  5
2D1
330
1F
100
AcDbEntity
  8
7
  6
Continuous
100
AcDbPolyline
 90
       62
 70
     0
 43
0.0
 10
7.007144404156764
 20
2.097729835462647
 10
7.009253779156766
 20
2.097729835462647
 10
7.011363154156766
 20
2.097729835462647
 10
7.013472529156764
 20
2.097729835462647
 10
7.015581904156767
 20
2.097307960462648
 10
7.017691279156767
 20
2.097307960462648
 10
7.019800654156767
 20
2.096886085462648
 10
7.021910029156766
 20
2.096464210462648
 10
7.024019404156766
 20
2.095620460462646
 10
7.024019404156766
 20
2.083807960462649
 10
7.022331904156767
 20
2.084229835462647
 10
7.020644404156767
 20
2.084651710462646
 10
7.018535029156763
 20
2.085073585462648
 10
7.016425654156766
 20
2.085495460462648
 10
7.014316279156767
 20
2.085495460462648
 10
7.012206904156764
 20
2.085073585462648
 10
7.010097529156767
 20
2.084651710462646
 10
7.007988154156767
 20
2.083386085462648
 10
7.005878779156763
 20
2.081276710462648
 10
7.004191279156767
 20
2.078745460462648
 10
7.003347529156764
 20
2.075792335462647
 10
7.003347529156764
 20
2.072417335462644
 10
7.003769404156765
 20
2.069886085462648
 10
7.005035029156764
 20
2.067354835462648
 10
7.007144404156764
 20
2.065667335462644
 10
7.009253779156766
 20
2.063979835462649
 10
7.012206904156764
 20
2.063136085462648
 10
7.015160029156767
 20
2.062714210462647
 10
7.017691279156767
 20
2.062714210462647
 10
7.020644404156767
 20
2.063557960462648
 10
7.021488154156764
 20
2.063979835462649
 10
7.022331904156767
 20
2.064401710462647
 10
7.023175654156767
 20
2.064823585462646
 10
7.024019404156766
 20
2.065245460462648
 10
7.024019404156766
 20
2.061870460462649
 10
7.024019404156766
 20
2.058917335462648
 10
7.024019404156766
 20
2.055964210462647
 10
7.024019404156766
 20
2.053011085462645
 10
7.021066279156767
 20
2.051745460462647
 10
7.018113154156765
 20
2.050901710462645
 10
7.014738154156765
 20
2.050479835462648
 10
7.011785029156767
 20
2.050057960462648
 10
7.008410029156767
 20
2.050479835462648
 10
7.005456904156765
 20
2.050901710462645
 10
7.002081904156766
 20
2.051745460462647
 10
6.999128779156764
 20
2.053011085462645
 10
6.994910029156763
 20
2.055542335462649
 10
6.991113154156766
 20
2.058917335462648
 10
6.988581904156767
 20
2.063136085462648
 10
6.986894404156767
 20
2.068198585462648
 10
6.986050654156764
 20
2.074104835462648
 10
6.986894404156767
 20
2.080011085462647
 10
6.988581904156767
 20
2.085495460462648
 10
6.991535029156767
 20
2.090136085462646
 10
6.993222529156767
 20
2.091823585462648
 10
6.994910029156763
 20
2.093089210462647
 10
6.997019404156764
 20
2.094354835462648
 10
6.998706904156764
 20
2.095198585462647
 10
7.000816279156767
 20
2.096042335462648
 10
7.002925654156767
 20
2.096464210462648
 10
7.005035029156764
 20
2.097307960462648
 10
7.007144404156764
 20
2.097729835462647
  0
LWPOLYLINE
  5
2D2
330
1F
100
AcDbEntity
  8
7
  6
Continuous
100
AcDbPolyline
 90
       25
 70
     0
 43
0.0
 10
7.105441279156766
 20
2.134854835462646
 10
7.107550654156766
 20
2.134854835462646
 10
7.109660029156767
 20
2.134854835462646
 10
7.111347529156763
 20
2.134011085462648
 10
7.112613154156764
 20
2.133167335462649
 10
7.113878779156767
 20
2.130214210462646
 10
7.114300654156767
 20
2.126839210462648
 10
7.114300654156767
 20
2.123464210462645
 10
7.113456904156767
 20
2.120511085462648
 10
7.112613154156764
 20
2.118823585462645
 10
7.111347529156763
 20
2.117557960462646
 10
7.110081904156764
 20
2.116292335462648
 10
7.108394404156767
 20
2.115870460462648
 10
7.106285029156767
 20
2.115870460462648
 10
7.104597529156764
 20
2.116292335462648
 10
7.102910029156767
 20
2.116714210462649
 10
7.101644404156767
 20
2.117979835462648
 10
7.099956904156766
 20
2.121354835462649
 10
7.099535029156767
 20
2.124729835462648
 10
7.099535029156767
 20
2.128526710462647
 10
7.100800654156767
 20
2.131479835462648
 10
7.102066279156769
 20
2.132745460462647
 10
7.103331904156767
 20
2.134011085462648
 10
7.104175654156764
 20
2.134432960462649
 10
7.105441279156766
 20
2.134854835462646
  0
LWPOLYLINE
  5
2D3
330
1F
100
AcDbEntity
  8
7
  6
Continuous
100
AcDbPolyline
 90
       21
 70
     0
 43
0.0
 10
7.006722529156767
 20
2.137807960462648
 10
7.008410029156767
 20
2.137807960462648
 10
7.010097529156767
 20
2.137807960462648
 10
7.012206904156764
 20
2.136964210462647
 10
7.013472529156764
 20
2.135698585462648
 10
7.013894404156767
 20
2.134011085462648
 10
7.013894404156767
 20
2.132323585462644
 10
7.013894404156767
 20
2.130636085462647
 10
7.013472529156764
 20
2.129370460462648
 10
7.011785029156767
 20
2.128526710462647
 10
7.010097529156767
 20
2.128104835462649
 10
7.007988154156767
 20
2.128104835462649
 10
7.005878779156763
 20
2.128104835462649
 10
7.005878779156763
 20
2.130214210462646
 10
7.005878779156763
 20
2.132745460462647
 10
7.005878779156763
 20
2.135276710462648
 10
7.005878779156763
 20
2.137807960462648
 10
7.005878779156763
 20
2.137807960462648
 10
7.006300654156767
 20
2.137807960462648
 10
7.006300654156767
 20
2.137807960462648
 10
7.006722529156767
 20
2.137807960462648
  0
LWPOLYLINE
  5
2D4
330
1F
100
AcDbEntity
  8
7
  6
Continuous
100
AcDbPolyline
 90
        7
 70
     0
 43
0.0
 10
7.245081904156767
 20
2.147932960462647
 10
7.253097529156766
 20
2.137807960462648
 10
7.260691279156764
 20
2.147932960462647
 10
7.280420730387826
 20
2.147932960462647
 10
7.263644404156766
 20
2.126417335462646
 10
7.28095786155992
 20
2.10237791902067
 10
7.26748810011174
 20
2.10237791902067
  0
LWPOLYLINE
  5
2D5
330
1F
100
AcDbEntity
  8
7
  6
Continuous
100
AcDbPolyline
 90
       26
 70
     0
 43
0.0
 10
7.151425654156767
 20
2.147932960462647
 10
7.165769404156766
 20
2.147932960462647
 10
7.183910029156765
 20
2.129792335462648
 10
7.184331904156767
 20
2.129792335462648
 10
7.184331904156767
 20
2.129792335462648
 10
7.184753779156767
 20
2.129792335462648
 10
7.184753779156767
 20
2.129792335462648
 10
7.184753779156767
 20
2.147932960462647
 10
7.201628779156764
 20
2.147932960462647
 10
7.201628779156764
 20
2.101526710462649
 10
7.189394404156765
 20
2.101526710462649
 10
7.168722529156764
 20
2.120511085462648
 10
7.168722529156764
 20
2.120511085462648
 10
7.168722529156764
 20
2.120511085462648
 10
7.168722529156764
 20
2.120511085462648
 10
7.168722529156764
 20
2.120511085462648
 10
7.168722529156764
 20
2.101526710462649
 10
7.166613154156767
 20
2.101526710462649
 10
7.164503779156767
 20
2.101526710462649
 10
7.162394404156767
 20
2.101526710462649
 10
7.160285029156766
 20
2.101526710462649
 10
7.158175654156766
 20
2.101526710462649
 10
7.156066279156767
 20
2.101526710462649
 10
7.153956904156767
 20
2.101526710462649
 10
7.151847529156764
 20
2.101526710462649
 10
7.151425654156767
 20
2.147932960462647
  0
LWPOLYLINE
  5
2D6
330
1F
100
AcDbEntity
  8
7
  6
Continuous
100
AcDbPolyline
 90
       42
 70
     0
 43
0.0
 10
7.101644404156767
 20
2.148354835462646
 10
7.148050654156769
 20
2.148354835462646
 10
7.148050654156769
 20
2.137386085462646
 10
7.129910029156767
 20
2.137386085462646
 10
7.129910029156767
 20
2.130636085462647
 10
7.148050654156769
 20
2.130636085462647
 10
7.148050654156769
 20
2.120511085462648
 10
7.129910029156767
 20
2.120511085462648
 10
7.129910029156767
 20
2.113339210462648
 10
7.132019404156767
 20
2.113339210462648
 10
7.134550654156766
 20
2.113339210462648
 10
7.136660029156765
 20
2.113339210462648
 10
7.138769404156767
 20
2.113339210462648
 10
7.140878779156767
 20
2.113339210462648
 10
7.143410029156764
 20
2.113339210462648
 10
7.145519404156765
 20
2.113339210462648
 10
7.148050654156769
 20
2.113339210462648
 10
7.148050654156769
 20
2.102370460462648
 10
7.141300654156767
 20
2.102370460462648
 10
7.136238154156766
 20
2.102370460462648
 10
7.131597529156767
 20
2.102370460462648
 10
7.127378779156766
 20
2.102370460462648
 10
7.122738154156767
 20
2.102370460462648
 10
7.116831904156766
 20
2.102370460462648
 10
7.110081904156764
 20
2.102370460462648
 10
7.100800654156767
 20
2.102370460462648
 10
7.097003779156767
 20
2.104901710462648
 10
7.093628779156764
 20
2.107432960462648
 10
7.091097529156766
 20
2.109542335462649
 10
7.088988154156766
 20
2.111651710462648
 10
7.087300654156766
 20
2.114182960462648
 10
7.086035029156767
 20
2.117136085462648
 10
7.085191279156764
 20
2.120511085462648
 10
7.084769404156764
 20
2.124729835462648
 10
7.085191279156764
 20
2.130636085462647
 10
7.086456904156767
 20
2.135276710462648
 10
7.088144404156767
 20
2.138651710462645
 10
7.090253779156767
 20
2.141604835462651
 10
7.092785029156765
 20
2.143714210462646
 10
7.095316279156769
 20
2.145401710462645
 10
7.098691279156767
 20
2.146667335462648
 10
7.101644404156767
 20
2.148354835462646
  0
LWPOLYLINE
  5
2D7
330
1F
100
AcDbEntity
  8
7
  6
Continuous
100
AcDbPolyline
 90
       20
 70
     0
 43
0.0
 10
7.047644404156763
 20
2.147932960462647
 10
7.047644404156763
 20
2.132745460462647
 10
7.049753779156764
 20
2.132745460462647
 10
7.051441279156764
 20
2.132745460462647
 10
7.053550654156767
 20
2.132745460462647
 10
7.055660029156767
 20
2.132745460462647
 10
7.057769404156764
 20
2.132745460462647
 10
7.059878779156764
 20
2.132745460462647
 10
7.061566279156767
 20
2.132745460462647
 10
7.063675654156766
 20
2.132745460462647
 10
7.063675654156766
 20
2.147932960462647
 10
7.080128779156766
 20
2.147932960462647
 10
7.080128779156766
 20
2.102370460462648
 10
7.063675654156766
 20
2.102370460462648
 10
7.063675654156766
 20
2.119245460462646
 10
7.047644404156763
 20
2.118823585462645
 10
7.048066279156767
 20
2.102370460462648
 10
7.030769404156766
 20
2.102370460462648
 10
7.030769404156766
 20
2.147932960462647
 10
7.047644404156763
 20
2.147932960462647
  0
LWPOLYLINE
  5
2D8
330
1F
100
AcDbEntity
  8
7
  6
Continuous
100
AcDbPolyline
 90
       32
 70
     0
 43
0.0
 10
6.989003779156766
 20
2.148354835462646
 10
6.994488154156766
 20
2.148354835462646
 10
6.999128779156764
 20
2.148354835462646
 10
7.004191279156767
 20
2.148354835462646
 10
7.008831904156767
 20
2.148354835462646
 10
7.013050654156766
 20
2.147932960462647
 10
7.016847529156767
 20
2.147089210462648
 10
7.020222529156765
 20
2.145401710462645
 10
7.023597529156765
 20
2.143292335462644
 10
7.026972529156764
 20
2.139495460462647
 10
7.028660029156767
 20
2.134432960462649
 10
7.028660029156767
 20
2.128948585462648
 10
7.027394404156766
 20
2.124307960462648
 10
7.025706904156765
 20
2.121776710462647
 10
7.024019404156766
 20
2.119667335462647
 10
7.021910029156766
 20
2.117979835462648
 10
7.019378779156767
 20
2.117136085462648
 10
7.017691279156767
 20
2.116714210462649
 10
7.016003779156767
 20
2.116292335462648
 10
7.014316279156767
 20
2.116292335462648
 10
7.012628779156764
 20
2.115870460462648
 10
7.010519404156764
 20
2.115870460462648
 10
7.008831904156767
 20
2.115870460462648
 10
7.007144404156764
 20
2.115870460462648
 10
7.005456904156765
 20
2.115870460462648
 10
7.005456904156765
 20
2.102370460462648
 10
6.989003779156766
 20
2.101948585462646
 10
6.989003779156766
 20
2.148354835462646
 10
6.989003779156766
 20
2.148354835462646
 10
6.989003779156766
 20
2.148354835462646
 10
6.989003779156766
 20
2.148354835462646
 10
6.989003779156766
 20
2.148354835462646
  0
LINE
  5
2D9
330
1F
100
AcDbEntity
  8
0
100
AcDbLine
 10
6.826478859784556
 20
1.328215035733103
 30
0.0
 11
7.336487850648793
 21
1.328215035733103
 31
0.0
  0
TEXT
  5
2DA
330
1F
100
AcDbEntity
  8
0
100
AcDbText
 10
6.898717664354842
 20
1.336462679885961
 30
0.0
 40
0.05
  1
 1
 41
1.627334351376801
  7
ROMANS
 72
     5
 11
6.991708198719231
 21
1.336462679885961
 31
0.0
100
AcDbText
  0
TEXT
  5
2DB
330
1F
100
AcDbEntity
  8
0
100
AcDbText
 10
7.111574265381571
 20
1.336462679885961
 30
0.0
 40
0.05
  1
 2
 41
1.183515891910434
  7
ROMANS
 72
     5
 11
7.204564799745962
 21
1.336462679885961
 31
0.0
100
AcDbText
  0
LINE
  5
2DC
330
1F
100
AcDbEntity
  8
0
100
AcDbLine
 10
6.880987508083197
 20
1.131837883750938
 30
0.0
 11
7.289532814961242
 21
1.131837883750938
 31
0.0
  0
LINE
  5
2DD
330
1F
100
AcDbEntity
  8
0
100
AcDbLine
 10
7.185357795935576
 20
1.10824978714124
 30
0.0
 11
6.988922542517507
 21
1.10824978714124
 31
0.0
  0
LINE
  5
2DE
330
1F
100
AcDbEntity
  8
0
100
AcDbLine
 10
6.880987508083197
 20
1.388659812569209
 30
0.0
 11
6.880987508083197
 21
1.717436849230144
 31
0.0
  0
LINE
  5
2DF
330
1F
100
AcDbEntity
  8
0
100
AcDbLine
 10
7.301632814961235
 20
1.717436849230144
 30
0.0
 11
6.861553022167471
 21
1.717436849230144
 31
0.0
  0
LINE
  5
2E0
330
1F
100
AcDbEntity
  8
0
100
AcDbLine
 10
7.289532814961242
 20
1.717436849230144
 30
0.0
 11
7.289532814961242
 21
1.388659812569208
 31
0.0
  0
LINE
  5
2E1
330
1F
100
AcDbEntity
  8
0
100
AcDbLine
 10
6.880987508083197
 20
1.388659812569209
 30
0.0
 11
7.289532814961242
 21
1.388659812569208
 31
0.0
  0
LINE
  5
2E2
330
1F
100
AcDbEntity
  8
0
100
AcDbLine
 10
7.242014485609831
 20
1.511223897458445
 30
0.0
 11
7.116149132916011
 21
1.568198288130274
 31
0.0
  0
LINE
  5
2E3
330
1F
100
AcDbEntity
  8
0
100
AcDbLine
 10
7.251998950415655
 20
1.533912811997089
 30
0.0
 11
7.126608211641401
 21
1.590672363252885
 31
0.0
  0
CIRCLE
  5
2E4
330
1F
100
AcDbEntity
  8
0
100
AcDbCircle
 10
7.183893890126554
 20
1.550341733121541
 30
0.0
 40
0.0700586089377872
  0
CIRCLE
  5
2E5
330
1F
100
AcDbEntity
  8
0
100
AcDbCircle
 10
7.183893890126554
 20
1.550341733121541
 30
0.0
 40
0.075
  0
LINE
  5
2E6
330
1F
100
AcDbEntity
  8
0
100
AcDbLine
 10
7.045014485609829
 20
1.511223897458445
 30
0.0
 11
6.919149132916011
 21
1.568198288130274
 31
0.0
  0
LINE
  5
2E7
330
1F
100
AcDbEntity
  8
0
100
AcDbLine
 10
7.054998950415654
 20
1.533912811997089
 30
0.0
 11
6.929608211641401
 21
1.590672363252885
 31
0.0
  0
CIRCLE
  5
2E8
330
1F
100
AcDbEntity
  8
0
100
AcDbCircle
 10
6.986893890126554
 20
1.550341733121541
 30
0.0
 40
0.0700586089377872
  0
CIRCLE
  5
2E9
330
1F
100
AcDbEntity
  8
0
100
AcDbCircle
 10
6.986893890126554
 20
1.550341733121541
 30
0.0
 40
0.075
  0
LINE
  5
2EA
330
1F
100
AcDbEntity
  8
0
  6
ByBlock
 62
     0
100
AcDbLine
 10
5.503074948121745
 20
4.810518702795008
 30
0.0
 11
5.503074948121745
 21
3.095760483582491
 31
0.0
  0
LINE
  5
2EB
330
1F
100
AcDbEntity
  8
BOARD
100
AcDbLine
 10
4.088169391303122
 20
4.552566699604375
 30
0.0
 11
3.988415397543267
 21
4.903041748934196
 31
0.0
  0
LINE
  5
2EC
330
1F
100
AcDbEntity
  8
BOARD
100
AcDbLine
 10
4.644112455166938
 20
4.538041748934197
 30
0.0
 11
4.107405394911878
 21
4.538041748934197
 31
0.0
  0
ARC
  5
2ED
330
1F
100
AcDbEntity
  8
BOARD
100
AcDbCircle
 10
4.107405394911878
 20
4.558041748934197
 30
0.0
 40
0.02
100
AcDbArc
 50
195.8876831058129
 51
270.0
  0
LINE
  5
2EE
330
1F
100
AcDbEntity
  8
HOUSING
100
AcDbLine
 10
4.790870678978627
 20
4.145517610597655
 30
0.0
 11
4.663063467617256
 21
4.52443386338153
 31
0.0
  0
ARC
  5
2EF
330
1F
100
AcDbEntity
  8
0
100
AcDbCircle
 10
4.644112455166938
 20
4.518041748934198
 30
0.0
 40
0.02
100
AcDbArc
 50
18.63908232712963
 51
90.0
  0
TEXT
  5
2F0
330
1F
100
AcDbEntity
  8
0
  6
ByBlock
 62
     0
100
AcDbText
 10
5.303074948121745
 20
2.905760483582492
 30
0.0
 40
0.1
  1
99.25
  7
ROMANS
 72
     4
 11
5.503074948121745
 21
2.955760483582491
 31
0.0
100
AcDbText
  0
LINE
  5
2F1
330
1F
100
AcDbEntity
  8
0
  6
ByBlock
 62
     0
100
AcDbLine
 10
4.140184349380386
 20
4.910518702795013
 30
0.0
 11
5.603074948121745
 21
4.910518702795013
 31
0.0
  0
POINT
  5
2F2
330
1F
100
AcDbEntity
  8
DEFPOINTS
  6
ByBlock
 62
     0
100
AcDbPoint
 10
4.790380573641113
 20
4.910518702795013
 30
0.0
  0
POINT
  5
2F3
330
1F
100
AcDbEntity
  8
DEFPOINTS
  6
ByBlock
 62
     0
100
AcDbPoint
 10
5.503074948121745
 20
4.910518702795013
 30
0.0
  0
SOLID
  5
2F4
330
1F
100
AcDbEntity
  8
0
  6
ByBlock
 62
     0
100
AcDbTrace
 10
5.486408281455079
 20
4.810518702795008
 30
0.0
 11
5.519741614788411
 21
4.810518702795008
 31
0.0
 12
5.503074948121745
 22
4.910518702795013
 32
0.0
 13
5.503074948121745
 23
4.910518702795013
 33
0.0
  0
LINE
  5
2F5
330
1F
100
AcDbEntity
  8
0
100
AcDbLine
 10
7.289532814961242
 20
4.877882727774858
 30
0.0
 11
7.289532814961242
 21
4.19950427220885
 31
0.0
  0
LINE
  5
2F6
330
1F
100
AcDbEntity
  8
0
100
AcDbLine
 10
6.880987508083197
 20
4.19950427220885
 30
0.0
 11
6.880987508083197
 21
4.877882727774858
 31
0.0
  0
LINE
  5
2F7
330
1F
100
AcDbEntity
  8
0
100
AcDbLine
 10
7.137329892919276
 20
3.490440016676298
 30
0.0
 11
7.137329892919276
 21
3.424722937878813
 31
0.0
  0
SOLID
  5
2F8
330
1F
100
AcDbEntity
  8
0
100
AcDbTrace
 10
7.124829892919275
 20
3.490440016676298
 30
0.0
 11
7.149829892919273
 21
3.490440016676298
 31
0.0
 12
7.137329892919276
 22
3.546340674148533
 32
0.0
 13
7.137329892919276
 23
3.546340674148533
 33
0.0
  0
CIRCLE
  5
2F9
330
1F
100
AcDbEntity
  8
0
100
AcDbCircle
 10
7.138328811354487
 20
3.421514527311153
 30
0.0
 40
0.0497299020175812
  0
TEXT
  5
2FA
330
1F
100
AcDbEntity
  8
BORDER
100
AcDbText
 10
7.096145191167161
 20
4.043349618680723
 30
0.0
 40
0.0421875
  1
GND 2
  7
ROMANS
100
AcDbText
  0
LWPOLYLINE
  5
2FB
330
1F
100
AcDbEntity
  8
7
  6
Continuous
100
AcDbPolyline
 90
        2
 70
     0
 43
0.0
 10
7.076685280924579
 20
4.031892625576876
 10
7.076685280924579
 20
4.098642625576876
  0
LINE
  5
2FC
330
1F
100
AcDbEntity
  8
0
100
AcDbLine
 10
6.861553022167471
 20
4.032185598376116
 30
0.0
 11
7.301632814961235
 21
4.032185598376116
 31
0.0
  0
TEXT
  5
2FD
330
1F
100
AcDbEntity
  8
BORDER
100
AcDbText
 10
6.954084811725874
 20
4.115480413906335
 30
0.0
 40
0.05625
  1
 OUT
  7
ROMANS
100
AcDbText
  0
TEXT
  5
2FE
330
1F
100
AcDbEntity
  8
BORDER
100
AcDbText
 10
6.881170978058191
 20
4.049186334373517
 30
0.0
 40
0.0421875
  1
 I
  7
ROMANS
100
AcDbText
  0
LINE
  5
2FF
330
1F
100
AcDbEntity
  8
0
100
AcDbLine
 10
6.826478859784556
 20
4.53616312795549
 30
0.0
 11
7.336487850648793
 21
4.53616312795549
 31
0.0
  0
TEXT
  5
300
330
1F
100
AcDbEntity
  8
0
100
AcDbText
 10
7.098294408299691
 20
4.482247457885188
 30
0.0
 40
0.05
  1
 6
 41
1.220500763532624
  7
ROMANS
 72
     5
 11
7.191284942664082
 21
4.482247457885188
 31
0.0
100
AcDbText
  0
TEXT
  5
301
330
1F
100
AcDbEntity
  8
0
100
AcDbText
 10
6.910046544578027
 20
4.482247457885188
 30
0.0
 40
0.05
  1
 5
 41
1.183515891910423
  7
ROMANS
 72
     5
 11
7.003037078942417
 21
4.482247457885188
 31
0.0
100
AcDbText
  0
LINE
  5
302
330
1F
100
AcDbEntity
  8
0
100
AcDbLine
 10
6.861553022167471
 20
4.199504272208848
 30
0.0
 11
7.301632814961235
 21
4.199504272208848
 31
0.0
  0
LINE
  5
303
330
1F
100
AcDbEntity
  8
0
100
AcDbLine
 10
6.880987508083195
 20
4.479776713305412
 30
0.0
 11
7.289532814961242
 21
4.479776713305414
 31
0.0
  0
LINE
  5
304
330
1F
100
AcDbEntity
  8
0
100
AcDbLine
 10
7.242014485609831
 20
4.364375138829512
 30
0.0
 11
7.116149132916011
 21
4.307400748157681
 31
0.0
  0
LINE
  5
305
330
1F
100
AcDbEntity
  8
0
100
AcDbLine
 10
7.251998950415655
 20
4.341686224290866
 30
0.0
 11
7.126608211641401
 21
4.284926673035073
 31
0.0
  0
CIRCLE
  5
306
330
1F
100
AcDbEntity
  8
0
100
AcDbCircle
 10
7.183893890126554
 20
4.325257303166416
 30
0.0
 40
0.0700586089377872
  0
CIRCLE
  5
307
330
1F
100
AcDbEntity
  8
0
100
AcDbCircle
 10
7.183893890126554
 20
4.325257303166416
 30
0.0
 40
0.075
  0
LINE
  5
308
330
1F
100
AcDbEntity
  8
0
100
AcDbLine
 10
7.045014485609829
 20
4.364375138829512
 30
0.0
 11
6.919149132916011
 21
4.307400748157681
 31
0.0
  0
LINE
  5
309
330
1F
100
AcDbEntity
  8
0
100
AcDbLine
 10
7.054998950415654
 20
4.341686224290866
 30
0.0
 11
6.929608211641401
 21
4.284926673035073
 31
0.0
  0
CIRCLE
  5
30A
330
1F
100
AcDbEntity
  8
0
100
AcDbCircle
 10
6.986893890126554
 20
4.325257303166416
 30
0.0
 40
0.0700586089377872
  0
CIRCLE
  5
30B
330
1F
100
AcDbEntity
  8
0
100
AcDbCircle
 10
6.986893890126554
 20
4.325257303166416
 30
0.0
 40
0.075
  0
LINE
  5
30C
330
1F
100
AcDbEntity
  8
0
100
AcDbLine
 10
6.880987508083197
 20
4.785984535734379
 30
0.0
 11
7.289532814961242
 21
4.785984535734379
 31
0.0
  0
LINE
  5
30D
330
1F
100
AcDbEntity
  8
0
100
AcDbLine
 10
7.195547521049669
 20
4.863066541581567
 30
0.0
 11
6.988922542517513
 21
4.863066541581567
 31
0.0
  0
LINE
  5
30E
330
1F
100
AcDbEntity
  8
0
100
AcDbLine
 10
7.195547521049668
 20
4.877882727774858
 30
0.0
 11
7.289532814961242
 21
4.877882727774858
 31
0.0
  0
LINE
  5
30F
330
1F
100
AcDbEntity
  8
0
100
AcDbLine
 10
6.988922542517513
 20
4.877882727774855
 30
0.0
 11
6.880987508083197
 21
4.877882727774858
 31
0.0
  0
LINE
  5
310
330
1F
100
AcDbEntity
  8
0
100
AcDbLine
 10
6.826697986479912
 20
4.908470560719497
 30
0.0
 11
7.336487850648793
 21
4.908470560719497
 31
0.0
  0
LINE
  5
311
330
1F
100
AcDbEntity
  8
0
100
AcDbLine
 10
6.880987508083197
 20
4.877882727774858
 30
0.0
 11
6.880987508083197
 21
4.908470560719495
 31
0.0
  0
LINE
  5
312
330
1F
100
AcDbEntity
  8
0
100
AcDbLine
 10
7.289532814961242
 20
4.908470560719495
 30
0.0
 11
7.289532814961242
 21
4.877882727774858
 31
0.0
  0
LINE
  5
313
330
1F
100
AcDbEntity
  8
0
100
AcDbLine
 10
6.988922542517514
 20
4.839478444971874
 30
0.0
 11
6.988922542517514
 21
4.908470560719495
 31
0.0
  0
LINE
  5
314
330
1F
100
AcDbEntity
  8
0
100
AcDbLine
 10
7.195547521049669
 20
4.839478444971874
 30
0.0
 11
7.195547521049665
 21
4.908470560719495
 31
0.0
  0
LINE
  5
315
330
1F
100
AcDbEntity
  8
0
100
AcDbLine
 10
6.880987508083197
 20
4.839478444971874
 30
0.0
 11
7.289532814961242
 21
4.839478444971874
 31
0.0
  0
TEXT
  5
316
330
1F
100
AcDbEntity
  8
BORDER
100
AcDbText
 10
6.657691873499753
 20
5.290706040620585
 30
0.0
 40
0.1
  1
TOP VIEW
  7
ROMANS
100
AcDbText
  0
LINE
  5
317
330
1F
100
AcDbEntity
  8
0
100
AcDbLine
 10
6.826697986479912
 20
4.908470560719495
 30
0.0
 11
7.336487850648793
 21
4.908470560719495
 31
0.0
  0
TEXT
  5
318
330
1F
100
AcDbEntity
  8
0
100
AcDbText
 10
10.58647848865798
 20
2.655628150908661
 30
0.0
 40
0.075
  1
MCR-1CLP-I/I-00
 50
90.0
  7
ROMANS
100
AcDbText
  0
LINE
  5
319
330
1F
100
AcDbEntity
  8
HOUSING
100
AcDbLine
 10
11.94988144728515
 20
3.952308147482493
 30
0.0
 11
11.94988144728515
 21
1.945295633658176
 31
0.0
  0
LINE
  5
31A
330
1F
100
AcDbEntity
  8
0
100
AcDbLine
 10
11.15341797159538
 20
2.95476662517572
 30
0.0
 11
11.15341797159538
 21
2.881885135472336
 31
0.0
  0
LINE
  5
31B
330
1F
100
AcDbEntity
  8
HOUSING
100
AcDbLine
 10
13.02043949558149
 20
3.952308147482493
 30
0.0
 11
13.02043949558149
 21
1.945295633658176
 31
0.0
  0
TEXT
  5
31C
330
1F
100
AcDbEntity
  8
BORDER
100
AcDbText
 10
13.10738000194826
 20
2.015373442859826
 30
0.0
 40
0.05625
  1
APPROBATIONEN / APPROVALS
 50
90.0
  7
ROMANS
100
AcDbText
  0
LINE
  5
31D
330
1F
100
AcDbEntity
  8
HOUSING
100
AcDbLine
 10
10.80526298758547
 20
3.952308147482493
 30
0.0
 11
10.80526298758547
 21
1.945295633658176
 31
0.0
  0
TEXT
  5
31E
330
1F
100
AcDbEntity
  8
BORDER
100
AcDbText
 10
10.71373622412102
 20
2.649463852782766
 30
0.0
 40
0.05625
  1
Art. - Nr. : 28 14 01 6
 50
90.0
  7
ROMANS
100
AcDbText
  0
LINE
  5
31F
330
1F
100
AcDbEntity
  8
HOUSING
100
AcDbLine
 10
10.47575349344151
 20
3.774403671208761
 30
0.0
 11
10.47575349344151
 21
2.12320010993191
 31
0.0
  0
LINE
  5
320
330
1F
100
AcDbEntity
  8
BOARD
100
AcDbLine
 10
13.34488579126435
 20
3.938272689724932
 30
0.0
 11
13.34488579126435
 21
1.962900930159609
 31
0.0
  0
LINE
  5
321
330
1F
100
AcDbEntity
  8
HOUSING
100
AcDbLine
 10
10.39884604182097
 20
3.818570170980779
 30
0.0
 11
10.39884604182097
 21
2.080461159110412
 31
0.0
  0
LINE
  5
322
330
1F
100
AcDbEntity
  8
BOARD
100
AcDbLine
 10
13.41898530268712
 20
3.993934057177382
 30
0.0
 11
13.41898530268712
 21
1.911725180402723
 31
0.0
  0
LINE
  5
323
330
1F
100
AcDbEntity
  8
HOUSING
100
AcDbLine
 10
9.569934913883187
 20
3.455735572575926
 30
0.0
 11
9.569934913883187
 21
2.455735572575926
 31
0.0
  0
LINE
  5
324
330
1F
100
AcDbEntity
  8
HOUSING
100
AcDbLine
 10
9.319934913883182
 20
4.063464359023153
 30
0.0
 11
9.319934913883182
 21
1.841356998157861
 31
0.0
  0
LINE
  5
325
330
1F
100
AcDbEntity
  8
HOUSING
100
AcDbLine
 10
13.53993491388318
 20
1.250735572575925
 30
0.0
 11
13.53993491388318
 21
3.780735572575924
 31
0.0
  0
TEXT
  5
326
330
1F
100
AcDbEntity
  8
0
  6
ByBlock
 62
     0
100
AcDbText
 10
11.4367092529693
 20
0.0474686309708011
 30
0.0
 40
0.1
  1
113.75
  7
ROMANS
 72
     4
 11
11.66528068154073
 21
0.0974686309708011
 31
0.0
100
AcDbText
  0
LWPOLYLINE
  5
327
330
1F
100
AcDbEntity
  8
HOUSING
100
AcDbPolyline
 90
        3
 70
     0
 43
0.0
 10
10.48460509811617
 20
2.10713741799312
 10
10.74076527332181
 20
1.945295633658176
 10
13.33153475457288
 20
1.945295633658176
  0
LWPOLYLINE
  5
328
330
1F
100
AcDbEntity
  8
HOUSING
100
AcDbPolyline
 90
        3
 70
     0
 43
0.0
 10
10.40816352042587
 20
2.063553062332736
 10
10.67780581011602
 20
1.893193289348585
 10
13.40493157985398
 20
1.893193289348585
  0
LINE
  5
329
330
1F
100
AcDbEntity
  8
HOUSING
100
AcDbLine
 10
11.58324602499429
 20
1.555735572575924
 30
0.0
 11
12.76102380277207
 21
1.555735572575924
 31
0.0
  0
LWPOLYLINE
  5
32A
330
1F
100
AcDbEntity
  8
HOUSING
100
AcDbPolyline
 90
        2
 70
     0
 43
0.0
 10
11.72713491388319
 20
1.295735572575924
 10
11.9582460249943
 20
1.555735572575924
  0
LWPOLYLINE
  5
32B
330
1F
100
AcDbEntity
  8
HOUSING
100
AcDbPolyline
 90
        2
 70
     0
 43
0.0
 10
11.35213491388318
 20
1.295735572575924
 10
12.99213491388318
 20
1.295735572575924
  0
LINE
  5
32C
330
1F
100
AcDbEntity
  8
0
  6
ByBlock
 62
     0
100
AcDbLine
 10
9.32729367278832
 20
1.286014479916834
 30
0.0
 11
9.32729367278832
 21
-0.0025313690292004
 31
0.0
  0
LINE
  5
32D
330
1F
100
AcDbEntity
  8
HOUSING
100
AcDbLine
 10
10.81993491388319
 20
1.66598661860103
 30
0.0
 11
10.81993491388319
 21
1.005735572575924
 31
0.0
  0
LINE
  5
32E
330
1F
100
AcDbEntity
  8
HOUSING
100
AcDbLine
 10
11.19213491388318
 20
1.005735572575924
 30
0.0
 11
11.19213491388318
 21
1.115735572575927
 31
0.0
  0
LINE
  5
32F
330
1F
100
AcDbEntity
  8
BOARD
100
AcDbLine
 10
10.02263620155869
 20
1.352254657576642
 30
0.0
 11
10.12239019531855
 21
1.001779608246821
 31
0.0
  0
LINE
  5
330
330
1F
100
AcDbEntity
  8
0
  6
ByBlock
 62
     0
100
AcDbLine
 10
9.427293672788321
 20
0.0974686309708011
 30
0.0
 11
11.39003214937511
 21
0.0974686309708011
 31
0.0
  0
LINE
  5
331
330
1F
100
AcDbEntity
  8
BOARD
100
AcDbLine
 10
10.12239019531855
 20
1.006258395393232
 30
0.0
 11
10.81993491388319
 21
1.006258395393232
 31
0.0
  0
SOLID
  5
332
330
1F
100
AcDbEntity
  8
0
  6
ByBlock
 62
     0
100
AcDbTrace
 10
9.427293672788321
 20
0.1141352976374672
 30
0.0
 11
9.427293672788321
 21
0.080801964304134
 31
0.0
 12
9.32729367278832
 22
0.0974686309708011
 32
0.0
 13
9.32729367278832
 23
0.0974686309708011
 33
0.0
  0
LINE
  5
333
330
1F
100
AcDbEntity
  8
HOUSING
100
AcDbLine
 10
10.81993491388319
 20
1.005735572575924
 30
0.0
 11
11.19213491388318
 21
1.005735572575924
 31
0.0
  0
LINE
  5
334
330
1F
100
AcDbEntity
  8
HOUSING
100
AcDbLine
 10
9.569934913883187
 20
2.455735572575926
 30
0.0
 11
10.81993491388319
 21
1.66598661860103
 31
0.0
  0
POINT
  5
335
330
1F
100
AcDbEntity
  8
DEFPOINTS
  6
ByBlock
 62
     0
100
AcDbPoint
 10
9.32729367278832
 20
1.348514479916834
 30
0.0
  0
ARC
  5
336
330
1F
100
AcDbEntity
  8
HOUSING
100
AcDbCircle
 10
10.49475349344151
 20
2.12320010993191
 30
0.0
 40
0.019
100
AcDbArc
 50
180.0
 51
237.7153369888947
  0
ARC
  5
337
330
1F
100
AcDbEntity
  8
HOUSING
100
AcDbCircle
 10
10.41884604182097
 20
2.080461159110412
 30
0.0
 40
0.02
100
AcDbArc
 50
180.0
 51
237.7153369888947
  0
ARC
  5
338
330
1F
100
AcDbEntity
  8
BOARD
100
AcDbCircle
 10
10.00340019794994
 20
1.346779608246821
 30
0.0
 40
0.02
100
AcDbArc
 50
15.88768310581292
 51
89.99999999999998
  0
ARC
  5
339
330
1F
100
AcDbEntity
  8
0
100
AcDbCircle
 10
9.466693137694877
 20
1.386779608246822
 30
0.0
 40
0.02
100
AcDbArc
 50
198.6390823271296
 51
270.0
  0
LINE
  5
33A
330
1F
100
AcDbEntity
  8
HOUSING
100
AcDbLine
 10
9.346159602625194
 20
1.681554136974478
 30
0.0
 11
9.447742125244554
 21
1.380387493799487
 31
0.0
  0
LINE
  5
33B
330
1F
100
AcDbEntity
  8
BOARD
100
AcDbLine
 10
9.466693137694877
 20
1.366779608246821
 30
0.0
 11
10.00340019794994
 21
1.366779608246821
 31
0.0
  0
LWPOLYLINE
  5
33C
330
1F
100
AcDbEntity
  8
0
100
AcDbPolyline
 90
        2
 70
     0
 43
0.01875
 10
11.11205087300477
 20
2.808320542455843
 10
11.19471527608381
 20
2.808320542455843
  0
LINE
  5
33D
330
1F
100
AcDbEntity
  8
0
100
AcDbLine
 10
11.11132086007894
 20
2.798729998555539
 30
0.0
 11
11.11132086007894
 21
2.839807750907612
 31
0.0
  0
LINE
  5
33E
330
1F
100
AcDbEntity
  8
0
100
AcDbLine
 10
11.1957958184773
 20
2.798729998555539
 30
0.0
 11
11.1957958184773
 21
2.839807750907612
 31
0.0
  0
LINE
  5
33F
330
1F
100
AcDbEntity
  8
0
100
AcDbLine
 10
11.1957958184773
 20
2.778191151835168
 30
0.0
 11
11.1957958184773
 21
2.737113399483091
 31
0.0
  0
LINE
  5
340
330
1F
100
AcDbEntity
  8
0
100
AcDbLine
 10
11.11132086007894
 20
2.778191151835168
 30
0.0
 11
11.11132086007894
 21
2.737113399483091
 31
0.0
  0
LWPOLYLINE
  5
341
330
1F
100
AcDbEntity
  8
0
100
AcDbPolyline
 90
        2
 70
     0
 43
0.01875
 10
11.11205087300477
 20
2.768600607934866
 10
11.19471527608381
 20
2.768600607934866
  0
LINE
  5
342
330
1F
100
AcDbEntity
  8
0
100
AcDbLine
 10
10.93093625640803
 20
2.478694477049666
 30
0.0
 11
10.93093625640803
 21
2.412977398252185
 31
0.0
  0
SOLID
  5
343
330
1F
100
AcDbEntity
  8
0
100
AcDbTrace
 10
10.91843625640803
 20
2.478694477049666
 30
0.0
 11
10.94343625640803
 21
2.478694477049666
 31
0.0
 12
10.93093625640803
 22
2.534595134521903
 32
0.0
 13
10.93093625640803
 23
2.534595134521903
 33
0.0
  0
CIRCLE
  5
344
330
1F
100
AcDbEntity
  8
0
100
AcDbCircle
 10
10.93193517484323
 20
2.498910350630779
 30
0.0
 40
0.0497299020175812
  0
TEXT
  5
345
330
1F
100
AcDbEntity
  8
BORDER
100
AcDbText
 10
10.95489664573759
 20
2.315567292967863
 30
0.0
 40
0.052734375
  1
IN
 50
90.0
  7
ROMANS
100
AcDbText
  0
LINE
  5
346
330
1F
100
AcDbEntity
  8
0
100
AcDbLine
 10
11.21986837610347
 20
2.422550476715598
 30
0.0
 11
11.21986837610347
 21
2.196276019308938
 31
0.0
  0
LINE
  5
347
330
1F
100
AcDbEntity
  8
0
100
AcDbLine
 10
11.09464945556372
 20
2.422550476715598
 30
0.0
 11
11.09464945556372
 21
2.196276019308938
 31
0.0
  0
LINE
  5
348
330
1F
100
AcDbEntity
  8
0
100
AcDbLine
 10
11.15341797159538
 20
2.688877322972332
 30
0.0
 11
11.15341797159538
 21
2.617577824875364
 31
0.0
  0
LINE
  5
349
330
1F
100
AcDbEntity
  8
7
  6
Continuous
100
AcDbLine
 10
11.2529442048933
 20
2.422550476715598
 30
0.0
 11
11.2529442048933
 21
2.617575512830216
 31
0.0
  0
LINE
  5
34A
330
1F
100
AcDbEntity
  8
7
  6
Continuous
100
AcDbLine
 10
11.05993639239329
 20
2.422550476715598
 30
0.0
 11
11.2529442048933
 21
2.422550476715598
 31
0.0
  0
LINE
  5
34B
330
1F
100
AcDbEntity
  8
7
  6
Continuous
100
AcDbLine
 10
11.05993639239329
 20
2.617575512830216
 30
0.0
 11
11.05993639239329
 21
2.422550476715598
 31
0.0
  0
LINE
  5
34C
330
1F
100
AcDbEntity
  8
7
  6
Continuous
100
AcDbLine
 10
11.2529442048933
 20
2.617575512830216
 30
0.0
 11
11.05993639239329
 21
2.617575512830216
 31
0.0
  0
LINE
  5
34D
330
1F
100
AcDbEntity
  8
7
  6
Continuous
100
AcDbLine
 10
11.06147706572945
 20
2.881882823427189
 30
0.0
 11
11.25650210184407
 21
2.881882823427189
 31
0.0
  0
LINE
  5
34E
330
1F
100
AcDbEntity
  8
7
  6
Continuous
100
AcDbLine
 10
11.06147706572945
 20
2.688875010927187
 30
0.0
 11
11.06147706572945
 21
2.881882823427189
 31
0.0
  0
LINE
  5
34F
330
1F
100
AcDbEntity
  8
7
  6
Continuous
100
AcDbLine
 10
11.25650210184407
 20
2.688875010927187
 30
0.0
 11
11.06147706572945
 21
2.688875010927187
 31
0.0
  0
LINE
  5
350
330
1F
100
AcDbEntity
  8
7
  6
Continuous
100
AcDbLine
 10
11.25650210184407
 20
2.881882823427189
 30
0.0
 11
11.25650210184407
 21
2.688875010927187
 31
0.0
  0
CIRCLE
  5
351
330
1F
100
AcDbEntity
  8
0
100
AcDbCircle
 10
11.09464945556372
 20
2.148709496718896
 30
0.0
 40
0.0497299020175812
  0
TEXT
  5
352
330
1F
100
AcDbEntity
  8
BORDER
100
AcDbText
 10
11.11824832021882
 20
2.08491205661951
 30
0.0
 40
0.052734375
  1
 1
 50
90.0
  7
ROMANS
100
AcDbText
  0
TEXT
  5
353
330
1F
100
AcDbEntity
  8
BORDER
100
AcDbText
 10
11.24346724075857
 20
2.08491205661951
 30
0.0
 40
0.052734375
  1
 2
 50
90.0
  7
ROMANS
100
AcDbText
  0
CIRCLE
  5
354
330
1F
100
AcDbEntity
  8
0
100
AcDbCircle
 10
11.21986837610347
 20
2.148709496718896
 30
0.0
 40
0.0497299020175812
  0
LINE
  5
355
330
1F
100
AcDbEntity
  8
0
100
AcDbLine
 10
11.06241313443094
 20
2.617575512830216
 30
0.0
 11
11.24996607334171
 21
2.422996067735008
 31
0.0
  0
LWPOLYLINE
  5
356
330
1F
100
AcDbEntity
  8
7
  6
Continuous
100
AcDbPolyline
 90
       37
 70
     0
 43
0.0
 10
10.66602657279689
 20
2.272158189047694
 10
10.66602657279689
 20
2.276658189047693
 10
10.66602657279689
 20
2.281158189047693
 10
10.66658907279689
 20
2.285658189047693
 10
10.6677140727969
 20
2.290158189047693
 10
10.6688390727969
 20
2.294095689047694
 10
10.67108907279688
 20
2.298033189047694
 10
10.67390157279689
 20
2.301408189047693
 10
10.67727657279689
 20
2.304220689047694
 10
10.6840265727969
 20
2.308158189047693
 10
10.69133907279689
 20
2.310408189047693
 10
10.69921407279689
 20
2.310970689047694
 10
10.7065265727969
 20
2.310408189047693
 10
10.7127140727969
 20
2.308720689047695
 10
10.71777657279689
 20
2.305345689047693
 10
10.72227657279689
 20
2.301408189047693
 10
10.7250890727969
 20
2.296345689047694
 10
10.72677657279689
 20
2.291845689047693
 10
10.7279015727969
 20
2.287345689047693
 10
10.7290265727969
 20
2.282283189047694
 10
10.7290265727969
 20
2.277783189047694
 10
10.7290265727969
 20
2.273283189047694
 10
10.7279015727969
 20
2.268220689047693
 10
10.72677657279689
 20
2.263720689047693
 10
10.7250890727969
 20
2.259220689047693
 10
10.72171407279689
 20
2.254158189047693
 10
10.7166515727969
 20
2.250220689047694
 10
10.7110265727969
 20
2.246845689047693
 10
10.70427657279688
 20
2.245158189047693
 10
10.69471407279689
 20
2.244595689047693
 10
10.68627657279689
 20
2.246283189047693
 10
10.67840157279689
 20
2.250220689047694
 10
10.67221407279689
 20
2.256408189047697
 10
10.66996407279688
 20
2.259783189047693
 10
10.66827657279689
 20
2.263720689047693
 10
10.6671515727969
 20
2.268220689047693
 10
10.66602657279689
 20
2.272158189047694
  0
LWPOLYLINE
  5
357
330
1F
100
AcDbEntity
  8
7
  6
Continuous
100
AcDbPolyline
 90
       25
 70
     0
 43
0.0
 10
10.6845890727969
 20
2.275533189047694
 10
10.6845890727969
 20
2.278345689047696
 10
10.6851515727969
 20
2.281158189047693
 10
10.68627657279689
 20
2.283970689047693
 10
10.68852657279689
 20
2.285658189047693
 10
10.69358907279689
 20
2.287345689047693
 10
10.6986515727969
 20
2.287908189047693
 10
10.7031515727969
 20
2.287345689047693
 10
10.7076515727969
 20
2.285658189047693
 10
10.70933907279689
 20
2.283408189047693
 10
10.71046407279689
 20
2.280595689047693
 10
10.7110265727969
 20
2.278345689047696
 10
10.7110265727969
 20
2.275533189047694
 10
10.70933907279689
 20
2.272720689047694
 10
10.7076515727969
 20
2.270470689047694
 10
10.70483907279689
 20
2.268783189047693
 10
10.7020265727969
 20
2.267658189047693
 10
10.6975265727969
 20
2.267658189047693
 10
10.69302657279688
 20
2.268220689047693
 10
10.6890890727969
 20
2.269345689047693
 10
10.68627657279689
 20
2.272158189047694
 10
10.68571407279689
 20
2.273283189047694
 10
10.6851515727969
 20
2.273845689047694
 10
10.6845890727969
 20
2.274970689047693
 10
10.6845890727969
 20
2.275533189047694
  0
LWPOLYLINE
  5
358
330
1F
100
AcDbEntity
  8
7
  6
Continuous
100
AcDbPolyline
 90
       62
 70
     0
 43
0.0
 10
10.66602657279689
 20
2.219845689047693
 10
10.66602657279689
 20
2.222658189047693
 10
10.66602657279689
 20
2.225470689047694
 10
10.66602657279689
 20
2.228283189047693
 10
10.66658907279689
 20
2.231095689047693
 10
10.66658907279689
 20
2.233908189047694
 10
10.6671515727969
 20
2.236720689047696
 10
10.6677140727969
 20
2.239533189047693
 10
10.6688390727969
 20
2.242345689047693
 10
10.6845890727969
 20
2.242345689047693
 10
10.6840265727969
 20
2.240095689047693
 10
10.68346407279689
 20
2.237845689047693
 10
10.68290157279689
 20
2.235033189047693
 10
10.68233907279688
 20
2.232220689047693
 10
10.68233907279688
 20
2.229408189047694
 10
10.68290157279689
 20
2.226595689047694
 10
10.68346407279689
 20
2.223783189047694
 10
10.6851515727969
 20
2.220970689047693
 10
10.68796407279689
 20
2.218158189047693
 10
10.69133907279689
 20
2.215908189047693
 10
10.6952765727969
 20
2.214783189047693
 10
10.69977657279689
 20
2.214783189047693
 10
10.7031515727969
 20
2.215345689047693
 10
10.7065265727969
 20
2.217033189047693
 10
10.70877657279689
 20
2.219845689047693
 10
10.7110265727969
 20
2.222658189047693
 10
10.71215157279689
 20
2.226595689047694
 10
10.7127140727969
 20
2.230533189047693
 10
10.7127140727969
 20
2.233908189047694
 10
10.7115890727969
 20
2.237845689047693
 10
10.7110265727969
 20
2.238970689047693
 10
10.71046407279689
 20
2.240095689047693
 10
10.70990157279689
 20
2.241220689047693
 10
10.70933907279689
 20
2.242345689047693
 10
10.71383907279689
 20
2.242345689047693
 10
10.71777657279689
 20
2.242345689047693
 10
10.72171407279689
 20
2.242345689047693
 10
10.72565157279689
 20
2.242345689047693
 10
10.72733907279689
 20
2.238408189047695
 10
10.7284640727969
 20
2.234470689047693
 10
10.7290265727969
 20
2.229970689047694
 10
10.7295890727969
 20
2.226033189047694
 10
10.7290265727969
 20
2.221533189047693
 10
10.7284640727969
 20
2.217595689047693
 10
10.72733907279689
 20
2.213095689047693
 10
10.72565157279689
 20
2.209158189047693
 10
10.72227657279689
 20
2.203533189047694
 10
10.71777657279689
 20
2.198470689047693
 10
10.71215157279689
 20
2.195095689047696
 10
10.70540157279689
 20
2.192845689047696
 10
10.6975265727969
 20
2.191720689047692
 10
10.6896515727969
 20
2.192845689047696
 10
10.68233907279688
 20
2.195095689047696
 10
10.67615157279689
 20
2.199033189047693
 10
10.67390157279689
 20
2.201283189047694
 10
10.67221407279689
 20
2.203533189047694
 10
10.67052657279689
 20
2.206345689047693
 10
10.66940157279689
 20
2.208595689047693
 10
10.66827657279689
 20
2.211408189047693
 10
10.6677140727969
 20
2.214220689047694
 10
10.66658907279689
 20
2.217033189047693
 10
10.66602657279689
 20
2.219845689047693
  0
LWPOLYLINE
  5
359
330
1F
100
AcDbEntity
  8
7
  6
Continuous
100
AcDbPolyline
 90
       17
 70
     0
 43
0.0
 10
10.64465157279689
 20
2.119158189047693
 10
10.6452140727969
 20
2.122533189047692
 10
10.64746407279689
 20
2.125345689047692
 10
10.65027657279689
 20
2.127033189047693
 10
10.6536515727969
 20
2.127595689047693
 10
10.65702657279689
 20
2.127033189047693
 10
10.65983907279689
 20
2.125345689047692
 10
10.6620890727969
 20
2.122533189047692
 10
10.66265157279689
 20
2.119158189047693
 10
10.6620890727969
 20
2.115783189047697
 10
10.65983907279689
 20
2.113533189047694
 10
10.65702657279689
 20
2.111283189047695
 10
10.6536515727969
 20
2.110720689047694
 10
10.65027657279689
 20
2.111283189047695
 10
10.64746407279689
 20
2.113533189047694
 10
10.6452140727969
 20
2.115783189047697
 10
10.64465157279689
 20
2.119158189047693
  0
LWPOLYLINE
  5
35A
330
1F
100
AcDbEntity
  8
7
  6
Continuous
100
AcDbPolyline
 90
       22
 70
     0
 43
0.0
 10
10.6671515727969
 20
2.384658189047693
 10
10.6671515727969
 20
2.436408189047694
 10
10.67108907279688
 20
2.436408189047694
 10
10.67446407279688
 20
2.436408189047694
 10
10.67783907279689
 20
2.436408189047694
 10
10.68177657279689
 20
2.436408189047694
 10
10.68177657279689
 20
2.421783189047693
 10
10.69358907279689
 20
2.421783189047693
 10
10.70540157279689
 20
2.421783189047693
 10
10.71721407279689
 20
2.421783189047693
 10
10.7284640727969
 20
2.421783189047693
 10
10.7284640727969
 20
2.399845689047693
 10
10.68177657279689
 20
2.399845689047693
 10
10.68177657279689
 20
2.395908189047693
 10
10.68177657279689
 20
2.392533189047694
 10
10.68177657279689
 20
2.389158189047694
 10
10.68177657279689
 20
2.384658189047693
 10
10.6677140727969
 20
2.384658189047693
 10
10.6677140727969
 20
2.384658189047693
 10
10.6671515727969
 20
2.384658189047693
 10
10.6671515727969
 20
2.384658189047693
 10
10.6671515727969
 20
2.384658189047693
  0
LWPOLYLINE
  5
35B
330
1F
100
AcDbEntity
  8
7
  6
Continuous
100
AcDbPolyline
 90
       16
 70
     0
 43
0.0
 10
10.6671515727969
 20
2.472408189047693
 10
10.7284640727969
 20
2.497720689047694
 10
10.7284640727969
 20
2.475783189047694
 10
10.71777657279689
 20
2.471283189047694
 10
10.71777657279689
 20
2.469033189047694
 10
10.71777657279689
 20
2.466783189047694
 10
10.71777657279689
 20
2.464533189047694
 10
10.71777657279689
 20
2.461720689047693
 10
10.71777657279689
 20
2.459470689047694
 10
10.71777657279689
 20
2.456658189047693
 10
10.71777657279689
 20
2.454408189047696
 10
10.71777657279689
 20
2.451595689047694
 10
10.7284640727969
 20
2.445970689047693
 10
10.7284640727969
 20
2.425720689047693
 10
10.6677140727969
 20
2.449345689047695
 10
10.6671515727969
 20
2.472408189047693
  0
LWPOLYLINE
  5
35C
330
1F
100
AcDbEntity
  8
7
  6
Continuous
100
AcDbPolyline
 90
       61
 70
     0
 43
0.0
 10
10.6677140727969
 20
2.522470689047693
 10
10.6677140727969
 20
2.585470689047694
 10
10.6840265727969
 20
2.585470689047694
 10
10.6840265727969
 20
2.571408189047693
 10
10.7290265727969
 20
2.571408189047693
 10
10.7290265727969
 20
2.548345689047693
 10
10.68346407279689
 20
2.548345689047693
 10
10.68346407279689
 20
2.544970689047693
 10
10.68346407279689
 20
2.541595689047694
 10
10.68346407279689
 20
2.538220689047693
 10
10.68346407279689
 20
2.534845689047694
 10
10.68346407279689
 20
2.530908189047694
 10
10.6840265727969
 20
2.527533189047693
 10
10.6845890727969
 20
2.524158189047693
 10
10.68571407279689
 20
2.521345689047693
 10
10.68852657279689
 20
2.517970689047696
 10
10.69190157279688
 20
2.515720689047693
 10
10.6952765727969
 20
2.514033189047693
 10
10.69977657279689
 20
2.514033189047693
 10
10.70371407279689
 20
2.514595689047693
 10
10.7065265727969
 20
2.516283189047693
 10
10.70877657279689
 20
2.518533189047693
 10
10.7110265727969
 20
2.521345689047693
 10
10.71215157279689
 20
2.524158189047693
 10
10.7127140727969
 20
2.526408189047693
 10
10.7127140727969
 20
2.529220689047694
 10
10.7127140727969
 20
2.532033189047693
 10
10.71215157279689
 20
2.534283189047693
 10
10.7115890727969
 20
2.537095689047694
 10
10.7110265727969
 20
2.539345689047694
 10
10.70990157279689
 20
2.541595689047694
 10
10.72452657279689
 20
2.541595689047694
 10
10.72565157279689
 20
2.539908189047697
 10
10.72677657279689
 20
2.537658189047697
 10
10.72733907279689
 20
2.535970689047693
 10
10.7279015727969
 20
2.533720689047693
 10
10.7284640727969
 20
2.531470689047694
 10
10.7284640727969
 20
2.528658189047694
 10
10.7290265727969
 20
2.526408189047693
 10
10.7290265727969
 20
2.524158189047693
 10
10.7290265727969
 20
2.519658189047695
 10
10.7279015727969
 20
2.515158189047694
 10
10.72677657279689
 20
2.511220689047694
 10
10.7250890727969
 20
2.507283189047694
 10
10.72283907279689
 20
2.503908189047693
 10
10.72002657279689
 20
2.500533189047693
 10
10.71721407279689
 20
2.497720689047694
 10
10.71383907279689
 20
2.495470689047694
 10
10.7059640727969
 20
2.493220689047694
 10
10.69808907279689
 20
2.492658189047693
 10
10.6896515727969
 20
2.493220689047694
 10
10.68233907279688
 20
2.496033189047693
 10
10.67952657279689
 20
2.497720689047694
 10
10.6767140727969
 20
2.499970689047694
 10
10.67446407279688
 20
2.502783189047693
 10
10.67221407279689
 20
2.505595689047694
 10
10.67108907279688
 20
2.508408189047693
 10
10.66940157279689
 20
2.511783189047693
 10
10.66827657279689
 20
2.515158189047694
 10
10.6677140727969
 20
2.518533189047693
 10
10.6677140727969
 20
2.522470689047693
  0
LWPOLYLINE
  5
35D
330
1F
100
AcDbEntity
  8
7
  6
Continuous
100
AcDbPolyline
 90
        4
 70
     0
 43
0.0
 10
10.7031515727969
 20
2.464533189047694
 10
10.7031515727969
 20
2.457220689047693
 10
10.69133907279689
 20
2.461158189047694
 10
10.7031515727969
 20
2.464533189047694
  0
LWPOLYLINE
  5
35E
330
1F
100
AcDbEntity
  8
7
  6
Continuous
100
AcDbPolyline
 90
       26
 70
     0
 43
0.0
 10
10.6677140727969
 20
2.332908189047694
 10
10.69246407279689
 20
2.358220689047693
 10
10.69246407279689
 20
2.358220689047693
 10
10.69246407279689
 20
2.358220689047693
 10
10.69246407279689
 20
2.358220689047693
 10
10.69190157279688
 20
2.358220689047693
 10
10.6671515727969
 20
2.358220689047693
 10
10.6671515727969
 20
2.380720689047693
 10
10.7290265727969
 20
2.380720689047693
 10
10.7290265727969
 20
2.363845689047693
 10
10.70427657279688
 20
2.336845689047693
 10
10.70427657279688
 20
2.336845689047693
 10
10.70427657279688
 20
2.336845689047693
 10
10.70427657279688
 20
2.336845689047693
 10
10.70427657279688
 20
2.336845689047693
 10
10.7284640727969
 20
2.336845689047693
 10
10.7284640727969
 20
2.334033189047693
 10
10.7284640727969
 20
2.331220689047693
 10
10.7284640727969
 20
2.328408189047694
 10
10.7284640727969
 20
2.325595689047693
 10
10.7284640727969
 20
2.322783189047693
 10
10.7284640727969
 20
2.319970689047694
 10
10.7284640727969
 20
2.317158189047693
 10
10.7284640727969
 20
2.313783189047696
 10
10.6677140727969
 20
2.314345689047693
 10
10.6677140727969
 20
2.332908189047694
  0
LWPOLYLINE
  5
35F
330
1F
100
AcDbEntity
  8
7
  6
Continuous
100
AcDbPolyline
 90
       21
 70
     0
 43
0.0
 10
10.61258907279689
 20
2.219283189047693
 10
10.61258907279689
 20
2.221533189047693
 10
10.61258907279689
 20
2.223783189047694
 10
10.6137140727969
 20
2.226595689047694
 10
10.61540157279689
 20
2.228283189047693
 10
10.61765157279689
 20
2.228845689047693
 10
10.61990157279689
 20
2.228845689047693
 10
10.62215157279689
 20
2.228845689047693
 10
10.6238390727969
 20
2.228283189047693
 10
10.6249640727969
 20
2.226033189047694
 10
10.62552657279689
 20
2.223783189047694
 10
10.62552657279689
 20
2.220970689047693
 10
10.62552657279689
 20
2.218158189047693
 10
10.62271407279689
 20
2.218158189047693
 10
10.6193390727969
 20
2.218158189047693
 10
10.61596407279689
 20
2.218158189047693
 10
10.61258907279689
 20
2.218158189047693
 10
10.61258907279689
 20
2.218158189047693
 10
10.61258907279689
 20
2.218720689047694
 10
10.61258907279689
 20
2.218720689047694
 10
10.61258907279689
 20
2.219283189047693
  0
LWPOLYLINE
  5
360
330
1F
100
AcDbEntity
  8
7
  6
Continuous
100
AcDbPolyline
 90
       20
 70
     0
 43
0.0
 10
10.59908907279689
 20
2.273845689047694
 10
10.6193390727969
 20
2.273845689047694
 10
10.6193390727969
 20
2.276658189047693
 10
10.6193390727969
 20
2.278908189047693
 10
10.6193390727969
 20
2.281720689047693
 10
10.6193390727969
 20
2.284533189047694
 10
10.6193390727969
 20
2.287345689047693
 10
10.6193390727969
 20
2.290158189047693
 10
10.6193390727969
 20
2.292408189047693
 10
10.6193390727969
 20
2.295220689047694
 10
10.59908907279689
 20
2.295220689047694
 10
10.59908907279689
 20
2.317158189047693
 10
10.65983907279689
 20
2.317158189047693
 10
10.65983907279689
 20
2.295220689047694
 10
10.6373390727969
 20
2.295220689047694
 10
10.63790157279689
 20
2.273845689047694
 10
10.65983907279689
 20
2.274408189047693
 10
10.65983907279689
 20
2.251345689047693
 10
10.59908907279689
 20
2.251345689047693
 10
10.59908907279689
 20
2.273845689047694
  0
LWPOLYLINE
  5
361
330
1F
100
AcDbEntity
  8
7
  6
Continuous
100
AcDbPolyline
 90
       32
 70
     0
 43
0.0
 10
10.59852657279688
 20
2.195658189047692
 10
10.59852657279688
 20
2.202970689047694
 10
10.59852657279688
 20
2.209158189047693
 10
10.59852657279688
 20
2.215908189047693
 10
10.59852657279688
 20
2.222095689047693
 10
10.59908907279689
 20
2.227720689047694
 10
10.60021407279689
 20
2.232783189047693
 10
10.60246407279689
 20
2.237283189047693
 10
10.60527657279688
 20
2.241783189047693
 10
10.61033907279689
 20
2.246283189047693
 10
10.61708907279689
 20
2.248533189047694
 10
10.62440157279689
 20
2.248533189047694
 10
10.63058907279688
 20
2.246845689047693
 10
10.63396407279689
 20
2.244595689047693
 10
10.63677657279689
 20
2.242345689047693
 10
10.63902657279689
 20
2.239533189047693
 10
10.6401515727969
 20
2.236158189047694
 10
10.64071407279689
 20
2.233908189047694
 10
10.6412765727969
 20
2.231658189047694
 10
10.6412765727969
 20
2.229408189047694
 10
10.64183907279689
 20
2.227158189047693
 10
10.64183907279689
 20
2.224345689047694
 10
10.64183907279689
 20
2.222095689047693
 10
10.64183907279689
 20
2.219845689047693
 10
10.64183907279689
 20
2.217595689047693
 10
10.65983907279689
 20
2.217595689047693
 10
10.66040157279688
 20
2.195658189047692
 10
10.59852657279688
 20
2.195658189047692
 10
10.59852657279688
 20
2.195658189047692
 10
10.59852657279688
 20
2.195658189047692
 10
10.59852657279688
 20
2.195658189047692
 10
10.59852657279688
 20
2.195658189047692
  0
LWPOLYLINE
  5
362
330
1F
100
AcDbEntity
  8
7
  6
Continuous
100
AcDbPolyline
 90
       34
 70
     0
 43
0.0
 10
10.6142765727969
 20
2.074720689047692
 10
10.6142765727969
 20
2.110720689047694
 10
10.6142765727969
 20
2.111845689047694
 10
10.61483907279689
 20
2.112408189047694
 10
10.61540157279689
 20
2.112970689047695
 10
10.61652657279688
 20
2.112970689047695
 10
10.63396407279689
 20
2.112970689047695
 10
10.63452657279689
 20
2.112970689047695
 10
10.63452657279689
 20
2.112970689047695
 10
10.63508907279689
 20
2.112408189047694
 10
10.63565157279689
 20
2.112408189047694
 10
10.63958907279689
 20
2.107345689047694
 10
10.64352657279689
 20
2.103408189047692
 10
10.64915157279688
 20
2.101158189047692
 10
10.65533907279689
 20
2.101158189047692
 10
10.66152657279689
 20
2.102845689047696
 10
10.66658907279689
 20
2.106783189047694
 10
10.67052657279689
 20
2.110720689047694
 10
10.67502657279689
 20
2.114095689047694
 10
10.7110265727969
 20
2.114095689047694
 10
10.71215157279689
 20
2.114095689047694
 10
10.7127140727969
 20
2.113533189047694
 10
10.71327657279689
 20
2.112408189047694
 10
10.71327657279689
 20
2.111845689047694
 10
10.71327657279689
 20
2.074720689047692
 10
10.71327657279689
 20
2.073595689047694
 10
10.7127140727969
 20
2.073033189047693
 10
10.7115890727969
 20
2.072470689047693
 10
10.71046407279689
 20
2.071908189047696
 10
10.61708907279689
 20
2.071908189047696
 10
10.61596407279689
 20
2.071908189047696
 10
10.61483907279689
 20
2.072470689047693
 10
10.6142765727969
 20
2.073595689047694
 10
10.6142765727969
 20
2.074720689047692
  0
LWPOLYLINE
  5
363
330
1F
100
AcDbEntity
  8
7
  6
Continuous
100
AcDbPolyline
 90
       21
 70
     0
 43
0.0
 10
10.59852657279688
 20
2.064033189047694
 10
10.59852657279688
 20
2.178783189047694
 10
10.59908907279689
 20
2.181033189047694
 10
10.60021407279689
 20
2.183283189047695
 10
10.60246407279689
 20
2.184970689047694
 10
10.60527657279688
 20
2.185533189047695
 10
10.72283907279689
 20
2.185533189047695
 10
10.72565157279689
 20
2.184970689047694
 10
10.7279015727969
 20
2.183283189047695
 10
10.7290265727969
 20
2.181033189047694
 10
10.7295890727969
 20
2.178783189047694
 10
10.7295890727969
 20
2.064033189047694
 10
10.7290265727969
 20
2.061220689047694
 10
10.7279015727969
 20
2.058970689047697
 10
10.72565157279689
 20
2.057845689047693
 10
10.72283907279689
 20
2.057283189047693
 10
10.60527657279688
 20
2.057283189047693
 10
10.60246407279689
 20
2.057845689047693
 10
10.60021407279689
 20
2.058970689047697
 10
10.59908907279689
 20
2.061220689047694
 10
10.59852657279688
 20
2.064033189047694
  0
LWPOLYLINE
  5
364
330
1F
100
AcDbEntity
  8
7
  6
Continuous
100
AcDbPolyline
 90
       49
 70
     0
 43
0.0
 10
10.61315157279689
 20
2.129283189047693
 10
10.61315157279689
 20
2.134345689047694
 10
10.6137140727969
 20
2.138845689047694
 10
10.61483907279689
 20
2.143345689047693
 10
10.61596407279689
 20
2.147283189047692
 10
10.6182140727969
 20
2.151783189047693
 10
10.62046407279689
 20
2.155158189047694
 10
10.6232765727969
 20
2.158533189047694
 10
10.62665157279689
 20
2.161908189047694
 10
10.63452657279689
 20
2.167533189047693
 10
10.64352657279689
 20
2.170908189047692
 10
10.65308907279689
 20
2.172033189047692
 10
10.66265157279689
 20
2.171470689047692
 10
10.6671515727969
 20
2.169783189047692
 10
10.67165157279689
 20
2.168095689047695
 10
10.67502657279689
 20
2.165845689047694
 10
10.67896407279689
 20
2.163595689047695
 10
10.68233907279688
 20
2.160220689047694
 10
10.6851515727969
 20
2.157408189047695
 10
10.68740157279689
 20
2.154033189047694
 10
10.6896515727969
 20
2.150095689047692
 10
10.6907765727969
 20
2.147283189047692
 10
10.69190157279688
 20
2.144470689047693
 10
10.69246407279689
 20
2.141658189047694
 10
10.69302657279688
 20
2.138845689047694
 10
10.69358907279689
 20
2.136033189047694
 10
10.69358907279689
 20
2.133220689047694
 10
10.69358907279689
 20
2.130970689047694
 10
10.69302657279688
 20
2.128158189047693
 10
10.68852657279689
 20
2.125908189047692
 10
10.68346407279689
 20
2.125345689047692
 10
10.67896407279689
 20
2.124783189047696
 10
10.67446407279688
 20
2.125345689047692
 10
10.66996407279688
 20
2.129845689047694
 10
10.66602657279689
 20
2.133783189047694
 10
10.66096407279689
 20
2.137720689047696
 10
10.6547765727969
 20
2.138845689047694
 10
10.64690157279688
 20
2.137158189047695
 10
10.6412765727969
 20
2.133220689047694
 10
10.63677657279689
 20
2.128720689047694
 10
10.63115157279689
 20
2.124783189047696
 10
10.62608907279688
 20
2.124783189047696
 10
10.62102657279688
 20
2.124783189047696
 10
10.61652657279688
 20
2.125908189047692
 10
10.61315157279689
 20
2.128720689047694
 10
10.61315157279689
 20
2.128720689047694
 10
10.61315157279689
 20
2.129283189047693
 10
10.61315157279689
 20
2.129283189047693
 10
10.61315157279689
 20
2.129283189047693
  0
LWPOLYLINE
  5
365
330
1F
100
AcDbEntity
  8
7
  6
Continuous
100
AcDbPolyline
 90
       42
 70
     0
 43
0.0
 10
10.59852657279688
 20
2.345845689047694
 10
10.59852657279688
 20
2.407720689047693
 10
10.61315157279689
 20
2.407720689047693
 10
10.61315157279689
 20
2.383533189047693
 10
10.62215157279689
 20
2.383533189047693
 10
10.62215157279689
 20
2.407720689047693
 10
10.63565157279689
 20
2.407720689047693
 10
10.63565157279689
 20
2.383533189047693
 10
10.6452140727969
 20
2.383533189047693
 10
10.6452140727969
 20
2.386345689047693
 10
10.6452140727969
 20
2.389720689047694
 10
10.6452140727969
 20
2.392533189047694
 10
10.6452140727969
 20
2.395345689047693
 10
10.6452140727969
 20
2.398158189047693
 10
10.6452140727969
 20
2.401533189047693
 10
10.6452140727969
 20
2.404345689047693
 10
10.6452140727969
 20
2.407720689047693
 10
10.65983907279689
 20
2.407720689047693
 10
10.65983907279689
 20
2.398720689047694
 10
10.65983907279689
 20
2.391970689047693
 10
10.65983907279689
 20
2.385783189047693
 10
10.65983907279689
 20
2.380158189047693
 10
10.65983907279689
 20
2.373970689047693
 10
10.65983907279689
 20
2.366095689047694
 10
10.65983907279689
 20
2.357095689047694
 10
10.65983907279689
 20
2.344720689047693
 10
10.65646407279689
 20
2.339658189047693
 10
10.65308907279689
 20
2.335158189047694
 10
10.65027657279689
 20
2.331783189047693
 10
10.64746407279689
 20
2.328970689047697
 10
10.64408907279689
 20
2.326720689047697
 10
10.6401515727969
 20
2.325033189047693
 10
10.63565157279689
 20
2.323908189047694
 10
10.63002657279689
 20
2.323345689047693
 10
10.62215157279689
 20
2.323908189047694
 10
10.61596407279689
 20
2.325595689047693
 10
10.61146407279689
 20
2.327845689047693
 10
10.60752657279689
 20
2.330658189047694
 10
10.60471407279689
 20
2.334033189047693
 10
10.60246407279689
 20
2.337408189047693
 10
10.60077657279689
 20
2.341908189047694
 10
10.59852657279688
 20
2.345845689047694
  0
LWPOLYLINE
  5
366
330
1F
100
AcDbEntity
  8
7
  6
Continuous
100
AcDbPolyline
 90
       26
 70
     0
 43
0.0
 10
10.59908907279689
 20
2.412220689047694
 10
10.59908907279689
 20
2.431345689047693
 10
10.6232765727969
 20
2.455533189047693
 10
10.6232765727969
 20
2.456095689047693
 10
10.6232765727969
 20
2.456095689047693
 10
10.6232765727969
 20
2.456658189047693
 10
10.6232765727969
 20
2.456658189047693
 10
10.59908907279689
 20
2.456658189047693
 10
10.59908907279689
 20
2.479158189047693
 10
10.66096407279689
 20
2.479158189047693
 10
10.66096407279689
 20
2.462845689047694
 10
10.63565157279689
 20
2.435283189047694
 10
10.63565157279689
 20
2.435283189047694
 10
10.63565157279689
 20
2.435283189047694
 10
10.63565157279689
 20
2.435283189047694
 10
10.63565157279689
 20
2.435283189047694
 10
10.66096407279689
 20
2.435283189047694
 10
10.66096407279689
 20
2.432470689047693
 10
10.66096407279689
 20
2.429658189047694
 10
10.66096407279689
 20
2.426845689047693
 10
10.66096407279689
 20
2.424033189047693
 10
10.66096407279689
 20
2.421220689047693
 10
10.66096407279689
 20
2.418408189047694
 10
10.66096407279689
 20
2.415595689047693
 10
10.66096407279689
 20
2.412783189047694
 10
10.59908907279689
 20
2.412220689047694
  0
LWPOLYLINE
  5
367
330
1F
100
AcDbEntity
  8
7
  6
Continuous
100
AcDbPolyline
 90
       30
 70
     0
 43
0.0
 10
10.59908907279689
 20
2.537095689047694
 10
10.61258907279689
 20
2.547783189047693
 10
10.59908907279689
 20
2.557908189047693
 10
10.59908907279689
 20
2.584345689047693
 10
10.62777657279689
 20
2.561845689047693
 10
10.6592765727969
 20
2.585470689047694
 10
10.6592765727969
 20
2.582658189047693
 10
10.65983907279689
 20
2.579845689047693
 10
10.65983907279689
 20
2.576470689047694
 10
10.65983907279689
 20
2.573658189047693
 10
10.65983907279689
 20
2.570845689047693
 10
10.65983907279689
 20
2.568033189047694
 10
10.65983907279689
 20
2.564658189047693
 10
10.65983907279689
 20
2.561845689047693
 10
10.65590157279689
 20
2.557908189047693
 10
10.65196407279689
 20
2.554533189047694
 10
10.64802657279688
 20
2.551720689047694
 10
10.64408907279689
 20
2.548345689047693
 10
10.64802657279688
 20
2.544970689047693
 10
10.65196407279689
 20
2.542158189047693
 10
10.65590157279689
 20
2.539345689047694
 10
10.66040157279688
 20
2.536533189047693
 10
10.66040157279688
 20
2.511220689047694
 10
10.66040157279688
 20
2.511220689047694
 10
10.65983907279689
 20
2.511783189047693
 10
10.65983907279689
 20
2.511783189047693
 10
10.6592765727969
 20
2.511783189047693
 10
10.62833907279689
 20
2.534283189047693
 10
10.59908907279689
 20
2.511220689047694
 10
10.59908907279689
 20
2.537095689047694
  0
LWPOLYLINE
  5
368
330
1F
100
AcDbEntity
  8
7
  6
Continuous
100
AcDbPolyline
 90
       25
 70
     0
 43
0.0
 10
10.61652657279688
 20
2.350908189047693
 10
10.61652657279688
 20
2.353720689047693
 10
10.61652657279688
 20
2.356533189047693
 10
10.61765157279689
 20
2.358783189047693
 10
10.61877657279689
 20
2.360470689047693
 10
10.62271407279689
 20
2.362158189047693
 10
10.62721407279688
 20
2.362720689047693
 10
10.6317140727969
 20
2.362720689047693
 10
10.63565157279689
 20
2.361595689047693
 10
10.63790157279689
 20
2.360470689047693
 10
10.63958907279689
 20
2.358783189047693
 10
10.6412765727969
 20
2.357095689047694
 10
10.64183907279689
 20
2.354845689047694
 10
10.64183907279689
 20
2.352033189047693
 10
10.6412765727969
 20
2.349783189047693
 10
10.64071407279689
 20
2.347533189047693
 10
10.63902657279689
 20
2.345845689047694
 10
10.63452657279689
 20
2.343595689047694
 10
10.63002657279689
 20
2.343033189047694
 10
10.6249640727969
 20
2.343033189047694
 10
10.62102657279688
 20
2.344720689047693
 10
10.6193390727969
 20
2.346408189047694
 10
10.61765157279689
 20
2.348095689047694
 10
10.61708907279689
 20
2.349220689047693
 10
10.61652657279688
 20
2.350908189047693
  0
LWPOLYLINE
  5
369
330
1F
100
AcDbEntity
  8
7
  6
Continuous
100
AcDbPolyline
 90
        5
 70
     0
 43
0.0
 10
10.66040157279688
 20
2.506720689047694
 10
10.66040157279688
 20
2.484783189047694
 10
10.59908907279689
 20
2.484783189047694
 10
10.59908907279689
 20
2.506720689047694
 10
10.66040157279688
 20
2.506720689047694
  0
CIRCLE
  5
36A
330
1F
100
AcDbEntity
  8
0
100
AcDbCircle
 10
10.95831383469372
 20
1.226506900060154
 30
0.0
 40
0.0578923055131888
  0
LINE
  5
36B
330
1F
100
AcDbEntity
  8
HOUSING
100
AcDbLine
 10
11.19213491388318
 20
1.115735572575927
 30
0.0
 11
11.58324602499429
 21
1.555735572575924
 31
0.0
  0
LWPOLYLINE
  5
36C
330
1F
100
AcDbEntity
  8
HOUSING
100
AcDbPolyline
 90
        2
 70
     0
 43
0.0
 10
11.60213491388319
 20
1.295735572575924
 10
11.8332460249943
 20
1.555735572575924
  0
LWPOLYLINE
  5
36D
330
1F
100
AcDbEntity
  8
HOUSING
100
AcDbPolyline
 90
        2
 70
     0
 43
0.0
 10
11.47713491388319
 20
1.295735572575924
 10
11.70824602499429
 20
1.555735572575924
  0
LINE
  5
36E
330
1F
100
AcDbEntity
  8
0
  6
ByBlock
 62
     0
100
AcDbLine
 10
13.69467538786667
 20
0.0974686309708011
 30
0.0
 11
11.95791344705863
 21
0.0974686309708011
 31
0.0
  0
POINT
  5
36F
330
1F
100
AcDbEntity
  8
DEFPOINTS
  6
ByBlock
 62
     0
100
AcDbPoint
 10
13.79467538786667
 20
0.0974686309708011
 30
0.0
  0
POINT
  5
370
330
1F
100
AcDbEntity
  8
DEFPOINTS
  6
ByBlock
 62
     0
100
AcDbPoint
 10
13.79467538786667
 20
1.070504439911154
 30
0.0
  0
SOLID
  5
371
330
1F
100
AcDbEntity
  8
0
  6
ByBlock
 62
     0
100
AcDbTrace
 10
13.69467538786667
 20
0.1141352976374672
 30
0.0
 11
13.69467538786667
 21
0.080801964304134
 31
0.0
 12
13.79467538786667
 22
0.0974686309708011
 32
0.0
 13
13.79467538786667
 23
0.0974686309708011
 33
0.0
  0
LINE
  5
372
330
1F
100
AcDbEntity
  8
0
  6
ByBlock
 62
     0
100
AcDbLine
 10
13.79467538786667
 20
1.008004439911154
 30
0.0
 11
13.79467538786667
 21
-0.0025313690292004
 31
0.0
  0
CIRCLE
  5
373
330
1F
100
AcDbEntity
  8
0
100
AcDbCircle
 10
13.19952107301862
 20
1.226506900060154
 30
0.0
 40
0.0578923055131888
  0
LINE
  5
374
330
1F
100
AcDbEntity
  8
HOUSING
100
AcDbLine
 10
13.1432460249943
 20
1.125735572575925
 30
0.0
 11
13.53991477282329
 21
1.125735572575925
 31
0.0
  0
TEXT
  5
375
330
1F
100
AcDbEntity
  8
BORDER
100
AcDbText
 10
12.2665050325678
 20
2.343133495725214
 30
0.0
 40
0.052734375
  1
GND 1
 50
90.0
  7
ROMANS
100
AcDbText
  0
TEXT
  5
376
330
1F
100
AcDbEntity
  8
BORDER
100
AcDbText
 10
12.13975297625139
 20
2.343133495725214
 30
0.0
 40
0.052734375
  1
IN I
 50
90.0
  7
ROMANS
100
AcDbText
  0
TEXT
  5
377
330
1F
100
AcDbEntity
  8
BORDER
100
AcDbText
 10
12.27306307521211
 20
2.108591098169037
 30
0.0
 40
0.052734375
  1
 2
 50
90.0
  7
ROMANS
100
AcDbText
  0
TEXT
  5
378
330
1F
100
AcDbEntity
  8
BORDER
100
AcDbText
 10
12.14784415467236
 20
2.108591098169037
 30
0.0
 40
0.052734375
  1
 1
 50
90.0
  7
ROMANS
100
AcDbText
  0
CIRCLE
  5
379
330
1F
100
AcDbEntity
  8
0
100
AcDbCircle
 10
12.12424529001727
 20
2.172388538268425
 30
0.0
 40
0.0497299020175812
  0
CIRCLE
  5
37A
330
1F
100
AcDbEntity
  8
0
100
AcDbCircle
 10
12.24946421055701
 20
2.172388538268425
 30
0.0
 40
0.0497299020175812
  0
LINE
  5
37B
330
1F
100
AcDbEntity
  8
HOUSING
100
AcDbLine
 10
12.76102380277207
 20
1.555735572575924
 30
0.0
 11
13.1432460249943
 21
1.125735572575925
 31
0.0
  0
LWPOLYLINE
  5
37C
330
1F
100
AcDbEntity
  8
HOUSING
100
AcDbPolyline
 90
        2
 70
     0
 43
0.0
 10
11.85213491388318
 20
1.295735572575924
 10
12.0832460249943
 20
1.555735572575924
  0
LWPOLYLINE
  5
37D
330
1F
100
AcDbEntity
  8
HOUSING
100
AcDbPolyline
 90
        2
 70
     0
 43
0.0
 10
11.97713491388319
 20
1.295735572575924
 10
12.20824602499429
 20
1.555735572575924
  0
LWPOLYLINE
  5
37E
330
1F
100
AcDbEntity
  8
HOUSING
100
AcDbPolyline
 90
        2
 70
     0
 43
0.0
 10
12.10213491388319
 20
1.295735572575924
 10
12.33324602499429
 20
1.555735572575924
  0
LWPOLYLINE
  5
37F
330
1F
100
AcDbEntity
  8
HOUSING
100
AcDbPolyline
 90
        2
 70
     0
 43
0.0
 10
12.22713491388319
 20
1.295735572575924
 10
12.4582460249943
 20
1.555735572575924
  0
LWPOLYLINE
  5
380
330
1F
100
AcDbEntity
  8
HOUSING
100
AcDbPolyline
 90
        2
 70
     0
 43
0.0
 10
12.72713491388319
 20
1.295735572575924
 10
12.85963491388318
 20
1.444798072575926
  0
LWPOLYLINE
  5
381
330
1F
100
AcDbEntity
  8
HOUSING
100
AcDbPolyline
 90
        2
 70
     0
 43
0.0
 10
12.85213491388319
 20
1.295735572575924
 10
12.92213491388318
 20
1.374485572575925
  0
LWPOLYLINE
  5
382
330
1F
100
AcDbEntity
  8
HOUSING
100
AcDbPolyline
 90
        2
 70
     0
 43
0.0
 10
12.60213491388319
 20
1.295735572575924
 10
12.79713491388318
 20
1.515110572575926
  0
LWPOLYLINE
  5
383
330
1F
100
AcDbEntity
  8
HOUSING
100
AcDbPolyline
 90
        2
 70
     0
 43
0.0
 10
12.35213491388319
 20
1.295735572575924
 10
12.5832460249943
 20
1.555735572575924
  0
LWPOLYLINE
  5
384
330
1F
100
AcDbEntity
  8
HOUSING
100
AcDbPolyline
 90
        2
 70
     0
 43
0.0
 10
12.47713491388318
 20
1.295735572575924
 10
12.7082460249943
 20
1.555735572575924
  0
ARC
  5
385
330
1F
100
AcDbEntity
  8
BOARD
100
AcDbCircle
 10
13.32706749340488
 20
1.962671252239265
 30
0.0
 40
0.0178197780725754
100
AcDbArc
 50
284.1187614307676
 51
0.7385018944358971
  0
CIRCLE
  5
386
330
1F
100
AcDbEntity
  8
0
100
AcDbCircle
 10
13.38973336726391
 20
1.788643429096604
 30
0.0
 40
0.0578923055131888
  0
ARC
  5
387
330
1F
100
AcDbEntity
  8
BOARD
100
AcDbCircle
 10
13.39898530268712
 20
1.911725180402723
 30
0.0
 40
0.02
100
AcDbArc
 50
285.8876831058129
 51
0.0
  0
LINE
  5
388
330
1F
100
AcDbEntity
  8
HOUSING
100
AcDbLine
 10
13.53991477282329
 20
1.125735572575925
 30
0.0
 11
13.68993491388319
 21
1.345735572575924
 31
0.0
  0
LINE
  5
389
330
1F
100
AcDbEntity
  8
HOUSING
100
AcDbLine
 10
13.32991477282329
 20
1.125735572575925
 30
0.0
 11
13.53993491388318
 21
1.250735572575925
 31
0.0
  0
LINE
  5
38A
330
1F
100
AcDbEntity
  8
HOUSING
100
AcDbLine
 10
13.53993491388318
 20
1.345735572575927
 30
0.0
 11
13.79493491388318
 21
1.345735572575924
 31
0.0
  0
LWPOLYLINE
  5
38B
330
1F
100
AcDbEntity
  8
HOUSING
100
AcDbPolyline
 90
        9
 70
     0
 43
0.0
 10
13.53993491388318
 20
2.231324517442934
 10
13.57626717084509
 20
2.231324517442934
 10
13.59575659779453
 20
2.324126463496701
 10
13.76713436019732
 20
2.232697556108703
 10
13.76713436019732
 20
2.203735572575925
 10
13.79493491388318
 20
2.203735572575925
 10
13.79493491388318
 20
1.175735572575924
 10
13.76193491388318
 20
1.175735572575925
 10
13.76193491388318
 20
1.345735572575924
  0
LWPOLYLINE
  5
38C
330
1F
100
AcDbEntity
  8
HOUSING
100
AcDbPolyline
 90
        3
 70
     0
 43
0.0
 10
10.48460509811617
 20
3.790466363147549
 10
10.74076527332181
 20
3.952308147482493
 10
13.33153475457288
 20
3.952308147482493
  0
TEXT
  5
38D
330
1F
100
AcDbEntity
  8
BORDER
100
AcDbText
 10
11.45690306453448
 20
5.186452108388336
 30
0.0
 40
0.1
  1
RIGHT VIEW
  7
ROMANS
100
AcDbText
  0
LWPOLYLINE
  5
38E
330
1F
100
AcDbEntity
  8
HOUSING
100
AcDbPolyline
 90
        3
 70
     0
 43
0.0
 10
10.40816352042587
 20
3.835478267758452
 10
10.67780581011602
 20
4.005838040742601
 10
13.40493157985398
 20
4.005838040742601
  0
LINE
  5
38F
330
1F
100
AcDbEntity
  8
HOUSING
100
AcDbLine
 10
12.76102380277207
 20
4.355735572575922
 30
0.0
 11
11.58324602499429
 21
4.355735572575922
 31
0.0
  0
LWPOLYLINE
  5
390
330
1F
100
AcDbEntity
  8
HOUSING
100
AcDbPolyline
 90
        2
 70
     0
 43
0.0
 10
11.72713491388319
 20
4.615735572575925
 10
11.9582460249943
 20
4.355735572575922
  0
LWPOLYLINE
  5
391
330
1F
100
AcDbEntity
  8
HOUSING
100
AcDbPolyline
 90
        2
 70
     0
 43
0.0
 10
11.35213491388318
 20
4.615735572575925
 10
12.99213491388318
 20
4.615735572575925
  0
LINE
  5
392
330
1F
100
AcDbEntity
  8
BOARD
100
AcDbLine
 10
10.02263620155869
 20
4.552566699604375
 30
0.0
 11
10.12239019531855
 21
4.903041748934196
 31
0.0
  0
LINE
  5
393
330
1F
100
AcDbEntity
  8
HOUSING
100
AcDbLine
 10
10.81993491388319
 20
4.905735572575921
 30
0.0
 11
10.81993491388319
 21
4.24548452655082
 31
0.0
  0
LINE
  5
394
330
1F
100
AcDbEntity
  8
HOUSING
100
AcDbLine
 10
11.58324602499429
 20
4.355735572575922
 30
0.0
 11
11.19213491388318
 21
4.795735572575924
 31
0.0
  0
LINE
  5
395
330
1F
100
AcDbEntity
  8
HOUSING
100
AcDbLine
 10
10.81993491388319
 20
4.24548452655082
 30
0.0
 11
9.569934913883187
 21
3.455735572575926
 31
0.0
  0
ARC
  5
396
330
1F
100
AcDbEntity
  8
HOUSING
100
AcDbCircle
 10
10.49475349344151
 20
3.774403671208761
 30
0.0
 40
0.019
100
AcDbArc
 50
122.2846630111053
 51
180.0
  0
LINE
  5
397
330
1F
100
AcDbEntity
  8
BOARD
100
AcDbLine
 10
9.466693137694877
 20
4.538041748934197
 30
0.0
 11
10.00340019794994
 21
4.538041748934197
 31
0.0
  0
ARC
  5
398
330
1F
100
AcDbEntity
  8
BOARD
100
AcDbCircle
 10
10.00340019794994
 20
4.558041748934197
 30
0.0
 40
0.02
100
AcDbArc
 50
270.0
 51
344.112316894187
  0
LINE
  5
399
330
1F
100
AcDbEntity
  8
HOUSING
100
AcDbLine
 10
9.346159602625194
 20
4.223267220206533
 30
0.0
 11
9.447742125244554
 21
4.52443386338153
 31
0.0
  0
ARC
  5
39A
330
1F
100
AcDbEntity
  8
0
100
AcDbCircle
 10
9.466693137694877
 20
4.518041748934198
 30
0.0
 40
0.02
100
AcDbArc
 50
90.0
 51
161.3609176728703
  0
ARC
  5
39B
330
1F
100
AcDbEntity
  8
HOUSING
100
AcDbCircle
 10
10.41884604182097
 20
3.818570170980779
 30
0.0
 40
0.02
100
AcDbArc
 50
122.2846630111053
 51
180.0
  0
LINE
  5
39C
330
1F
100
AcDbEntity
  8
0
100
AcDbLine
 10
11.0756758783437
 20
3.341084391055998
 30
0.0
 11
11.11503519504434
 21
3.319683376994665
 31
0.0
  0
TEXT
  5
39D
330
1F
100
AcDbEntity
  8
BORDER
100
AcDbText
 10
11.21453968055946
 20
3.273754394741349
 30
0.0
 40
0.1265625
  1
~
 50
90.0
  7
ROMANS
100
AcDbText
  0
TEXT
  5
39E
330
1F
100
AcDbEntity
  8
BORDER
100
AcDbText
 10
11.14840815809621
 20
3.273754394741349
 30
0.0
 40
0.1265625
  1
~
 50
90.0
  7
ROMANS
100
AcDbText
  0
LINE
  5
39F
330
1F
100
AcDbEntity
  8
7
  6
Continuous
100
AcDbLine
 10
11.2010645868712
 20
3.008828731889491
 30
0.0
 11
11.10970098351831
 21
3.008828731889488
 31
0.0
  0
LINE
  5
3A0
330
1F
100
AcDbEntity
  8
7
  6
Continuous
100
AcDbLine
 10
11.11013281678743
 20
3.010252376958938
 30
0.0
 11
11.1539078358797
 21
3.089581117146122
 31
0.0
  0
LINE
  5
3A1
330
1F
100
AcDbEntity
  8
7
  6
Continuous
100
AcDbLine
 10
11.15390783587969
 20
3.0895811418417
 30
0.0
 11
11.2010645868712
 21
3.008828731889491
 31
0.0
  0
TEXT
  5
3A2
330
1F
100
AcDbEntity
  8
BORDER
100
AcDbText
 10
10.95489664573759
 20
3.204846442353229
 30
0.0
 40
0.052734375
  1
OUT
 50
90.0
  7
ROMANS
100
AcDbText
  0
CIRCLE
  5
3A3
330
1F
100
AcDbEntity
  8
0
100
AcDbCircle
 10
10.93193517484323
 20
3.42002543683465
 30
0.0
 40
0.0497299020175812
  0
SOLID
  5
3A4
330
1F
100
AcDbEntity
  8
0
100
AcDbTrace
 10
10.91843625640803
 20
3.488950926199795
 30
0.0
 11
10.94343625640803
 21
3.488950926199795
 31
0.0
 12
10.93093625640803
 22
3.544851583672028
 32
0.0
 13
10.93093625640803
 23
3.544851583672028
 33
0.0
  0
LINE
  5
3A5
330
1F
100
AcDbEntity
  8
0
100
AcDbLine
 10
10.93093625640803
 20
3.488950926199795
 30
0.0
 11
10.93093625640803
 21
3.423233847402311
 31
0.0
  0
LINE
  5
3A6
330
1F
100
AcDbEntity
  8
7
  6
Continuous
100
AcDbLine
 10
11.06147706572945
 20
3.419319140377576
 30
0.0
 11
11.25650210184407
 21
3.419319140377576
 31
0.0
  0
LINE
  5
3A7
330
1F
100
AcDbEntity
  8
7
  6
Continuous
100
AcDbLine
 10
11.06147706572945
 20
3.226311327877573
 30
0.0
 11
11.06147706572945
 21
3.419319140377576
 31
0.0
  0
LINE
  5
3A8
330
1F
100
AcDbEntity
  8
7
  6
Continuous
100
AcDbLine
 10
11.25650210184407
 20
3.226311327877573
 30
0.0
 11
11.06147706572945
 21
3.226311327877573
 31
0.0
  0
LINE
  5
3A9
330
1F
100
AcDbEntity
  8
7
  6
Continuous
100
AcDbLine
 10
11.25650210184407
 20
3.419319140377576
 30
0.0
 11
11.25650210184407
 21
3.226311327877573
 31
0.0
  0
LINE
  5
3AA
330
1F
100
AcDbEntity
  8
7
  6
Continuous
100
AcDbLine
 10
11.06147706572945
 20
3.147772125630573
 30
0.0
 11
11.25650210184407
 21
3.147772125630573
 31
0.0
  0
LINE
  5
3AB
330
1F
100
AcDbEntity
  8
7
  6
Continuous
100
AcDbLine
 10
11.06147706572945
 20
2.954764313130572
 30
0.0
 11
11.06147706572945
 21
3.147772125630573
 31
0.0
  0
LINE
  5
3AC
330
1F
100
AcDbEntity
  8
7
  6
Continuous
100
AcDbLine
 10
11.25650210184407
 20
2.954764313130572
 30
0.0
 11
11.06147706572945
 21
2.954764313130572
 31
0.0
  0
LINE
  5
3AD
330
1F
100
AcDbEntity
  8
7
  6
Continuous
100
AcDbLine
 10
11.25650210184407
 20
3.147772125630573
 30
0.0
 11
11.25650210184407
 21
2.954764313130572
 31
0.0
  0
LINE
  5
3AE
330
1F
100
AcDbEntity
  8
7
  6
Continuous
100
AcDbLine
 10
11.08120705240226
 20
3.419319140377576
 30
0.0
 11
11.08120705240226
 21
3.647177913320019
 31
0.0
  0
LINE
  5
3AF
330
1F
100
AcDbEntity
  8
7
  6
Continuous
100
AcDbLine
 10
11.21742947021759
 20
3.419319140377576
 30
0.0
 11
11.21742947021759
 21
3.647652834961857
 31
0.0
  0
CIRCLE
  5
3B0
330
1F
100
AcDbEntity
  8
0
100
AcDbCircle
 10
11.21617985286472
 20
3.698919700879024
 30
0.0
 40
0.0497299020175812
  0
TEXT
  5
3B1
330
1F
100
AcDbEntity
  8
BORDER
100
AcDbText
 10
11.24542597520116
 20
3.640765637029804
 30
0.0
 40
0.052734375
  1
 6
 50
90.0
  7
ROMANS
100
AcDbText
  0
TEXT
  5
3B2
330
1F
100
AcDbEntity
  8
BORDER
100
AcDbText
 10
11.10956822830043
 20
3.640765637029804
 30
0.0
 40
0.052734375
  1
 5
 50
90.0
  7
ROMANS
100
AcDbText
  0
CIRCLE
  5
3B3
330
1F
100
AcDbEntity
  8
0
100
AcDbCircle
 10
11.08032210596398
 20
3.698919700879024
 30
0.0
 40
0.0497299020175812
  0
LINE
  5
3B4
330
1F
100
AcDbEntity
  8
0
100
AcDbLine
 10
11.15341797159538
 20
3.226313639922721
 30
0.0
 11
11.15341797159538
 21
3.147774437675721
 31
0.0
  0
LWPOLYLINE
  5
3B5
330
1F
100
AcDbEntity
  8
7
  6
Continuous
100
AcDbPolyline
 90
        5
 70
     0
 43
0.0
 10
7.052212356799866
 20
3.124934868069429
 10
7.052212356799866
 20
2.931927055569429
 10
7.247237392914485
 20
2.931927055569429
 10
7.247237392914485
 20
3.124934868069429
 10
7.052212356799866
 20
3.124934868069429
  0
LWPOLYLINE
  5
3B6
330
1F
100
AcDbEntity
  8
7
  6
Continuous
100
AcDbPolyline
 90
        2
 70
     0
 43
0.0
 10
7.059654284302042
 20
3.124934868069429
 10
7.247237392914485
 20
2.939292008175488
  0
LINE
  5
3B7
330
1F
100
AcDbEntity
  8
7
  6
Continuous
100
AcDbLine
 10
7.226631302112369
 20
2.931927055569429
 30
0.0
 11
7.052212356799866
 21
3.09884411076096
 31
0.0
  0
LWPOLYLINE
  5
3B8
330
1F
100
AcDbEntity
  8
HOUSING
100
AcDbPolyline
 90
        2
 70
     0
 43
0.0
 10
11.60213491388319
 20
4.615735572575925
 10
11.8332460249943
 20
4.355735572575922
  0
LWPOLYLINE
  5
3B9
330
1F
100
AcDbEntity
  8
HOUSING
100
AcDbPolyline
 90
        2
 70
     0
 43
0.0
 10
11.47713491388319
 20
4.615735572575925
 10
11.70824602499429
 20
4.355735572575922
  0
LINE
  5
3BA
330
1F
100
AcDbEntity
  8
BOARD
100
AcDbLine
 10
10.12239019531855
 20
4.903041748934196
 30
0.0
 11
10.81993491388319
 21
4.903041748934196
 31
0.0
  0
CIRCLE
  5
3BB
330
1F
100
AcDbEntity
  8
0
100
AcDbCircle
 10
11.00078090784242
 20
4.730451660188216
 30
0.0
 40
0.0578923055131888
  0
LINE
  5
3BC
330
1F
100
AcDbEntity
  8
HOUSING
100
AcDbLine
 10
11.19213491388318
 20
4.905735572575921
 30
0.0
 11
10.81993491388319
 21
4.905735572575921
 31
0.0
  0
LINE
  5
3BD
330
1F
100
AcDbEntity
  8
HOUSING
100
AcDbLine
 10
11.19213491388318
 20
4.795735572575924
 30
0.0
 11
11.19213491388318
 21
4.905735572575921
 31
0.0
  0
CIRCLE
  5
3BE
330
1F
100
AcDbEntity
  8
0
100
AcDbCircle
 10
13.24127367042944
 20
4.673864860357922
 30
0.0
 40
0.0578923055131888
  0
LINE
  5
3BF
330
1F
100
AcDbEntity
  8
HOUSING
100
AcDbLine
 10
13.1432460249943
 20
4.785735572575922
 30
0.0
 11
12.76102380277207
 21
4.355735572575922
 31
0.0
  0
LINE
  5
3C0
330
1F
100
AcDbEntity
  8
HOUSING
100
AcDbLine
 10
13.68993491388319
 20
4.455735572575925
 30
0.0
 11
13.45993491388318
 21
4.785735572575922
 31
0.0
  0
LWPOLYLINE
  5
3C1
330
1F
100
AcDbEntity
  8
7
  6
Continuous
100
AcDbPolyline
 90
       13
 70
     0
 43
0.0
 10
13.18212932703233
 20
3.800446022970298
 10
13.1775782204956
 20
3.801014911287392
 10
13.17125009549559
 20
3.802218158956698
 10
13.1657129861206
 20
3.804450108938048
 10
13.1609668923706
 20
3.806032140188051
 10
13.1562207986206
 20
3.808405187063053
 10
13.15226572049559
 20
3.811569249563055
 10
13.1483106423706
 20
3.815524327688052
 10
13.14593759549559
 20
3.819479405813053
 10
13.1435645486206
 20
3.825016515188053
 10
13.14277353299559
 20
3.830553624563051
 10
13.1419825173706
 20
3.836881749563056
 10
13.1419825173706
 20
3.850625945252668
  0
LWPOLYLINE
  5
3C2
330
1F
100
AcDbEntity
  8
7
  6
Continuous
100
AcDbPolyline
 90
       34
 70
     0
 43
0.0
 10
13.1142969704956
 20
3.850625945252668
 10
13.1142969704956
 20
3.836273587759013
 10
13.1142969704956
 20
3.830736478384013
 10
13.11508798612059
 20
3.825990384634008
 10
13.1158790017456
 20
3.821244290884009
 10
13.1166700173706
 20
3.816498197134015
 10
13.11825204862059
 20
3.811752103384011
 10
13.1206250954956
 20
3.807797025259014
 10
13.12220712674559
 20
3.803841947134013
 10
13.12458017362059
 20
3.799886869009014
 10
13.13011728299559
 20
3.793558744009008
 10
13.1364454079956
 20
3.788021634634008
 10
13.1435645486206
 20
3.783275540884015
 10
13.1514747048706
 20
3.779320462759009
 10
13.15938486112059
 20
3.776947415884006
 10
13.1680860329956
 20
3.773133434652653
 10
13.18005992078771
 20
3.771930186983348
 10
13.1895521082877
 20
3.771139171358348
 10
13.19983531141271
 20
3.771930186983348
 10
13.2084278298706
 20
3.772919196230629
 10
13.2187110329956
 20
3.775506481527649
 10
13.22820322049559
 20
3.779320462759009
 10
13.23769540799559
 20
3.782484525259015
 10
13.24560556424559
 20
3.787230619009013
 10
13.25351572049559
 20
3.793558744009008
 10
13.2598438454956
 20
3.799886869009014
 10
13.2630079079956
 20
3.803841947134013
 10
13.26538095487059
 20
3.807797025259014
 10
13.26775400174559
 20
3.811752103384011
 10
13.26933603299559
 20
3.816498197134015
 10
13.27091806424559
 20
3.821244290884009
 10
13.27170907987059
 20
3.825990384634008
 10
13.2725000954956
 20
3.831527494009013
 10
13.2725000954956
 20
3.837064603384013
  0
LWPOLYLINE
  5
3C3
330
1F
100
AcDbEntity
  8
7
  6
Continuous
100
AcDbPolyline
 90
       27
 70
     0
 43
0.0
 10
13.24639657987059
 20
3.700833751390288
 10
13.24639657987059
 20
3.687089555700674
 10
13.24639657987059
 20
3.683134477575674
 10
13.24560556424559
 20
3.678388383825677
 10
13.24402353299559
 20
3.674433305700671
 10
13.2424415017456
 20
3.671269243200668
 10
13.24006845487059
 20
3.668105180700671
 10
13.23769540799559
 20
3.664941118200673
 10
13.23453134549559
 20
3.662568071325678
 10
13.2305762673706
 20
3.660195024450671
 10
13.2218750954956
 20
3.654799011969313
 10
13.21238290799559
 20
3.652425965094312
 10
13.2020997048706
 20
3.650431701800011
 10
13.19102548612059
 20
3.649640686175006
 10
13.18390634549559
 20
3.650431701800011
 10
13.1775782204956
 20
3.651222717425012
 10
13.17125009549559
 20
3.652425965094318
 10
13.1657129861206
 20
3.654657915075667
 10
13.1609668923706
 20
3.656239946325671
 10
13.1562207986206
 20
3.658612993200674
 10
13.15226572049559
 20
3.661777055700674
 10
13.1483106423706
 20
3.665732133825671
 10
13.14593759549559
 20
3.669687211950674
 10
13.1435645486206
 20
3.675224321325674
 10
13.14277353299559
 20
3.680761430700671
 10
13.1419825173706
 20
3.687089555700674
 10
13.1419825173706
 20
3.700833751390288
  0
LWPOLYLINE
  5
3C4
330
1F
100
AcDbEntity
  8
7
  6
Continuous
100
AcDbPolyline
 90
       34
 70
     0
 43
0.0
 10
13.1142969704956
 20
3.700833751390288
 10
13.1142969704956
 20
3.686481393896633
 10
13.1142969704956
 20
3.680944284521633
 10
13.11508798612059
 20
3.676198190771628
 10
13.1158790017456
 20
3.671452097021628
 10
13.1166700173706
 20
3.666706003271634
 10
13.11825204862059
 20
3.661959909521631
 10
13.1206250954956
 20
3.658004831396634
 10
13.12220712674559
 20
3.654049753271633
 10
13.12458017362059
 20
3.650094675146634
 10
13.13011728299559
 20
3.643766550146628
 10
13.1364454079956
 20
3.638229440771628
 10
13.1435645486206
 20
3.633483347021634
 10
13.1514747048706
 20
3.629528268896628
 10
13.15938486112059
 20
3.627155222021627
 10
13.1680860329956
 20
3.623341240790274
 10
13.18005992078771
 20
3.62213799312097
 10
13.1895521082877
 20
3.621346977495966
 10
13.19983531141271
 20
3.62213799312097
 10
13.2084278298706
 20
3.623127002368249
 10
13.2187110329956
 20
3.62571428766527
 10
13.22820322049559
 20
3.629528268896628
 10
13.23769540799559
 20
3.632692331396634
 10
13.24560556424559
 20
3.637438425146631
 10
13.25351572049559
 20
3.643766550146628
 10
13.2598438454956
 20
3.650094675146634
 10
13.2630079079956
 20
3.654049753271633
 10
13.26538095487059
 20
3.658004831396634
 10
13.26775400174559
 20
3.661959909521631
 10
13.26933603299559
 20
3.666706003271634
 10
13.27091806424559
 20
3.671452097021628
 10
13.27170907987059
 20
3.676198190771628
 10
13.2725000954956
 20
3.681735300146633
 10
13.2725000954956
 20
3.687272409521631
  0
LINE
  5
3C5
330
1F
100
AcDbEntity
  8
0
100
AcDbLine
 10
12.06473607684789
 20
2.919664321291742
 30
0.0
 11
12.9039377187748
 21
2.919664321291742
 31
0.0
  0
TEXT
  5
3C6
330
1F
100
AcDbEntity
  8
BORDER
100
AcDbText
 10
12.2665050325678
 20
3.181145482217662
 30
0.0
 40
0.052734375
  1
GND 2
 50
90.0
  7
ROMANS
100
AcDbText
  0
TEXT
  5
3C7
330
1F
100
AcDbEntity
  8
BORDER
100
AcDbText
 10
12.13975297625139
 20
3.181145482217662
 30
0.0
 40
0.052734375
  1
OUT I
 50
90.0
  7
ROMANS
100
AcDbText
  0
LINE
  5
3C8
330
1F
100
AcDbEntity
  8
0
100
AcDbLine
 10
13.1142969704956
 20
3.850625945252668
 30
0.0
 11
13.1419825173706
 21
3.850625945252665
 31
0.0
  0
LINE
  5
3C9
330
1F
100
AcDbEntity
  8
0
100
AcDbLine
 10
13.1142969704956
 20
3.700833751390288
 30
0.0
 11
13.1419825173706
 21
3.700833751390286
 31
0.0
  0
TEXT
  5
3CA
330
1F
100
AcDbEntity
  8
BORDER
100
AcDbText
 10
12.26299121443424
 20
3.555869313888955
 30
0.0
 40
0.052734375
  1
 6
 50
90.0
  7
ROMANS
100
AcDbText
  0
TEXT
  5
3CB
330
1F
100
AcDbEntity
  8
BORDER
100
AcDbText
 10
12.13777229389449
 20
3.555869313888955
 30
0.0
 40
0.052734375
  1
 5
 50
90.0
  7
ROMANS
100
AcDbText
  0
CIRCLE
  5
3CC
330
1F
100
AcDbEntity
  8
0
100
AcDbCircle
 10
12.23939234977914
 20
3.619666753988338
 30
0.0
 40
0.0497299020175812
  0
CIRCLE
  5
3CD
330
1F
100
AcDbEntity
  8
0
100
AcDbCircle
 10
12.1141734292394
 20
3.619666753988338
 30
0.0
 40
0.0497299020175812
  0
LWPOLYLINE
  5
3CE
330
1F
100
AcDbEntity
  8
HOUSING
100
AcDbPolyline
 90
        2
 70
     0
 43
0.0
 10
11.97713491388319
 20
4.615735572575925
 10
12.20824602499429
 20
4.355735572575922
  0
LWPOLYLINE
  5
3CF
330
1F
100
AcDbEntity
  8
HOUSING
100
AcDbPolyline
 90
        2
 70
     0
 43
0.0
 10
12.22713491388319
 20
4.615735572575925
 10
12.4582460249943
 20
4.355735572575922
  0
LWPOLYLINE
  5
3D0
330
1F
100
AcDbEntity
  8
HOUSING
100
AcDbPolyline
 90
        2
 70
     0
 43
0.0
 10
12.10213491388319
 20
4.615735572575925
 10
12.33324602499429
 20
4.355735572575922
  0
LWPOLYLINE
  5
3D1
330
1F
100
AcDbEntity
  8
HOUSING
100
AcDbPolyline
 90
        2
 70
     0
 43
0.0
 10
11.85213491388318
 20
4.615735572575925
 10
12.0832460249943
 20
4.355735572575922
  0
LWPOLYLINE
  5
3D2
330
1F
100
AcDbEntity
  8
HOUSING
100
AcDbPolyline
 90
        2
 70
     0
 43
0.0
 10
12.85213491388319
 20
4.615735572575925
 10
12.92213491388318
 20
4.536985572575924
  0
LWPOLYLINE
  5
3D3
330
1F
100
AcDbEntity
  8
HOUSING
100
AcDbPolyline
 90
        2
 70
     0
 43
0.0
 10
12.72713491388319
 20
4.615735572575925
 10
12.85963491388318
 20
4.466673072575924
  0
LWPOLYLINE
  5
3D4
330
1F
100
AcDbEntity
  8
HOUSING
100
AcDbPolyline
 90
        2
 70
     0
 43
0.0
 10
12.60213491388319
 20
4.615735572575925
 10
12.79713491388318
 20
4.396360572575924
  0
LWPOLYLINE
  5
3D5
330
1F
100
AcDbEntity
  8
HOUSING
100
AcDbPolyline
 90
        2
 70
     0
 43
0.0
 10
12.47713491388318
 20
4.615735572575925
 10
12.7082460249943
 20
4.355735572575922
  0
LWPOLYLINE
  5
3D6
330
1F
100
AcDbEntity
  8
HOUSING
100
AcDbPolyline
 90
        2
 70
     0
 43
0.0
 10
12.35213491388319
 20
4.615735572575925
 10
12.5832460249943
 20
4.355735572575922
  0
LWPOLYLINE
  5
3D7
330
1F
100
AcDbEntity
  8
7
  6
Continuous
100
AcDbPolyline
 90
       14
 70
     0
 43
0.0
 10
13.24639657987059
 20
3.850625945252668
 10
13.24639657987059
 20
3.836881749563056
 10
13.24639657987059
 20
3.832926671438053
 10
13.24560556424559
 20
3.828180577688056
 10
13.24402353299559
 20
3.824225499563053
 10
13.2424415017456
 20
3.821061437063046
 10
13.24006845487059
 20
3.817897374563051
 10
13.23769540799559
 20
3.814733312063053
 10
13.23453134549559
 20
3.812360265188058
 10
13.2305762673706
 20
3.809987218313053
 10
13.2218750954956
 20
3.804591205831693
 10
13.21238290799559
 20
3.802218158956693
 10
13.2020997048706
 20
3.800223895662391
 10
13.20198305719092
 20
3.800215563685272
  0
LINE
  5
3D8
330
1F
100
AcDbEntity
  8
0
100
AcDbLine
 10
13.20198305719092
 20
3.841522553882887
 30
0.0
 11
13.2019830571909
 21
3.800215563685272
 31
0.0
  0
LINE
  5
3D9
330
1F
100
AcDbEntity
  8
0
100
AcDbLine
 10
13.18212932703233
 20
3.84152255388289
 30
0.0
 11
13.18212932703233
 21
3.800446022970298
 31
0.0
  0
LINE
  5
3DA
330
1F
100
AcDbEntity
  8
0
100
AcDbLine
 10
13.18212932703233
 20
3.84152255388289
 30
0.0
 11
13.20198305719092
 21
3.841522553882887
 31
0.0
  0
LINE
  5
3DB
330
1F
100
AcDbEntity
  8
0
100
AcDbLine
 10
13.24639657987059
 20
3.850625945252665
 30
0.0
 11
13.2725000954956
 21
3.850625945252665
 31
0.0
  0
LWPOLYLINE
  5
3DC
330
1F
100
AcDbEntity
  8
7
  6
Continuous
100
AcDbPolyline
 90
        2
 70
     0
 43
0.0
 10
13.2725000954956
 20
3.837064603384013
 10
13.2725000954956
 20
3.850625945252668
  0
LINE
  5
3DD
330
1F
100
AcDbEntity
  8
0
100
AcDbLine
 10
13.24639657987059
 20
3.700833751390286
 30
0.0
 11
13.2725000954956
 21
3.700833751390286
 31
0.0
  0
LWPOLYLINE
  5
3DE
330
1F
100
AcDbEntity
  8
7
  6
Continuous
100
AcDbPolyline
 90
        2
 70
     0
 43
0.0
 10
13.2725000954956
 20
3.687272409521631
 10
13.2725000954956
 20
3.700833751390288
  0
ARC
  5
3DF
330
1F
100
AcDbEntity
  8
BOARD
100
AcDbCircle
 10
13.32638187207314
 20
3.933959341308306
 30
0.0
 40
0.019
100
AcDbArc
 50
13.12159212279604
 51
74.11231689418705
  0
CIRCLE
  5
3E0
330
1F
100
AcDbEntity
  8
0
100
AcDbCircle
 10
13.41723230317976
 20
4.123638650522316
 30
0.0
 40
0.0578923055131888
  0
ARC
  5
3E1
330
1F
100
AcDbEntity
  8
BOARD
100
AcDbCircle
 10
13.39898530268712
 20
3.987306149688466
 30
0.0
 40
0.02
100
AcDbArc
 50
0.0
 51
74.11231689418706
  0
LINE
  5
3E2
330
1F
100
AcDbEntity
  8
HOUSING
100
AcDbLine
 10
13.68993491388319
 20
3.680735572575925
 30
0.0
 11
13.68993491388319
 21
4.455735572575925
 31
0.0
  0
LINE
  5
3E3
330
1F
100
AcDbEntity
  8
HOUSING
100
AcDbLine
 10
13.61721562718767
 20
3.680735572575925
 30
0.0
 11
13.68993491388319
 21
3.680735572575925
 31
0.0
  0
LINE
  5
3E4
330
1F
100
AcDbEntity
  8
HOUSING
100
AcDbLine
 10
13.61721562718767
 20
3.780735572575924
 30
0.0
 11
13.61721562718767
 21
3.680735572575925
 31
0.0
  0
LINE
  5
3E5
330
1F
100
AcDbEntity
  8
HOUSING
100
AcDbLine
 10
13.53993491388318
 20
3.780735572575924
 30
0.0
 11
13.61721562718767
 21
3.780735572575924
 31
0.0
  0
LINE
  5
3E6
330
1F
100
AcDbEntity
  8
HOUSING
100
AcDbLine
 10
13.45993491388318
 20
4.785735572575922
 30
0.0
 11
13.1432460249943
 21
4.785735572575922
 31
0.0
  0
ARC
  5
3E7
330
1F
100
AcDbEntity
  8
HOUSING
100
AcDbCircle
 10
9.819934913883187
 20
4.063464359023153
 30
0.0
 40
0.5
100
AcDbArc
 50
161.3609176728702
 51
180.0
  0
ARC
  5
3E8
330
1F
100
AcDbEntity
  8
HOUSING
100
AcDbCircle
 10
9.819934913883187
 20
1.841356998157861
 30
0.0
 40
0.5
100
AcDbArc
 50
180.0
 51
198.6390823271296
  0
LINE
  5
3E9
330
1F
100
AcDbEntity
  8
7
  6
Continuous
100
AcDbLine
 10
11.2010645868712
 20
3.092297379495918
 30
0.0
 11
11.10970098351831
 21
3.092297379495916
 31
0.0
  0
LINE
  5
3EA
330
1F
100
AcDbEntity
  8
0
100
AcDbLine
 10
11.15371979233303
 20
3.106310403006216
 30
0.0
 11
11.15371979233303
 21
2.997326032568433
 31
0.0
  0
TEXT
  5
3EB
330
1F
100
AcDbEntity
  8
BORDER
100
AcDbText
 10
11.11536437788822
 20
2.436259189996885
 30
0.0
 40
0.03955078125
  1
 =
 50
90.0
  7
ROMANS
100
AcDbText
  0
LINE
  5
3EC
330
1F
100
AcDbEntity
  8
0
100
AcDbLine
 10
11.13979242450443
 20
3.341084391055998
 30
0.0
 11
11.17915174120506
 21
3.319683376994665
 31
0.0
  0
TEXT
  5
3ED
330
1F
100
AcDbEntity
  8
BORDER
100
AcDbText
 10
11.2786562267202
 20
3.272981596116792
 30
0.0
 40
0.1265625
  1
~
 50
90.0
  7
ROMANS
100
AcDbText
  0
LWPOLYLINE
  5
3EE
330
1F
100
AcDbEntity
  8
7
  6
Continuous
100
AcDbPolyline
 90
       23
 70
     0
 43
0.0
 10
7.263719639709557
 20
2.102370460462648
 10
7.274613154156766
 20
2.102370460462648
 10
7.272503779156767
 20
2.102370460462648
 10
7.270394404156767
 20
2.102370460462648
 10
7.268285029156764
 20
2.102370460462648
 10
7.265753779156766
 20
2.102370460462648
 10
7.262970501951253
 20
2.102370460462648
 10
7.260691279156764
 20
2.105323585462643
 10
7.258160029156766
 20
2.108276710462649
 10
7.256050654156764
 20
2.111229835462648
 10
7.253519404156769
 20
2.114182960462648
 10
7.250988154156765
 20
2.111229835462648
 10
7.248878779156764
 20
2.108276710462649
 10
7.246769404156767
 20
2.105323585462643
 10
7.244660029156767
 20
2.101948585462646
 10
7.225675654156765
 20
2.101948585462646
 10
7.225675654156765
 20
2.101948585462646
 10
7.226097529156767
 20
2.102370460462648
 10
7.226097529156767
 20
2.102370460462648
 10
7.226097529156767
 20
2.102792335462648
 10
7.242972529156764
 20
2.125995460462647
 10
7.225675654156765
 20
2.147932960462647
 10
7.245081904156767
 20
2.147932960462647
  0
LINE
  5
3EF
330
1F
100
AcDbEntity
  8
0
100
AcDbLine
 10
7.088953502667784
 20
2.930066707532042
 30
0.0
 11
7.088953502667784
 21
2.864349628734558
 31
0.0
  0
LINE
  5
3F0
330
1F
100
AcDbEntity
  8
0
100
AcDbLine
 10
7.199751086045168
 20
2.930066707532042
 30
0.0
 11
7.199751086045168
 21
2.864349628734558
 31
0.0
  0
LINE
  5
3F1
330
1F
100
AcDbEntity
  8
0
100
AcDbLine
 10
7.199751086045168
 20
3.190488805086953
 30
0.0
 11
7.199751086045168
 21
3.124771726289471
 31
0.0
  0
LINE
  5
3F2
330
1F
100
AcDbEntity
  8
0
100
AcDbLine
 10
7.088953502667784
 20
3.190488805086953
 30
0.0
 11
7.088953502667784
 21
3.124771726289471
 31
0.0
  0
TEXT
  5
3F3
330
1F
100
AcDbEntity
  8
BORDER
100
AcDbText
 10
7.16129028224882
 20
3.611875743110568
 30
0.0
 40
0.052734375
  1
OUT
 50
90.0
  7
ROMANS
100
AcDbText
  0
LINE
  5
3F4
330
1F
100
AcDbEntity
  8
0
100
AcDbLine
 10
11.24296387999523
 20
2.498415631640937
 30
0.0
 11
11.24296387999523
 21
2.513442864256743
 31
0.0
  0
LINE
  5
3F5
330
1F
100
AcDbEntity
  8
0
100
AcDbLine
 10
11.24296387999523
 20
2.513442864256743
 30
0.0
 11
11.19910303505688
 21
2.513442864256743
 31
0.0
  0
LINE
  5
3F6
330
1F
100
AcDbEntity
  8
0
100
AcDbLine
 10
11.19910303505688
 20
2.513442864256743
 30
0.0
 11
11.19910303505688
 21
2.530974647989635
 31
0.0
  0
LINE
  5
3F7
330
1F
100
AcDbEntity
  8
0
100
AcDbLine
 10
11.19910303505688
 20
2.530974647989635
 30
0.0
 11
11.24296387999523
 21
2.530974647989635
 31
0.0
  0
LINE
  5
3F8
330
1F
100
AcDbEntity
  8
0
100
AcDbLine
 10
11.24296387999523
 20
2.530974647989635
 30
0.0
 11
11.24296387999523
 21
2.548506456418103
 31
0.0
  0
LINE
  5
3F9
330
1F
100
AcDbEntity
  8
0
100
AcDbLine
 10
11.24296387999523
 20
2.548506456418103
 30
0.0
 11
11.19910303505688
 21
2.548506456418103
 31
0.0
  0
LINE
  5
3FA
330
1F
100
AcDbEntity
  8
0
100
AcDbLine
 10
11.19910303505688
 20
2.548506456418103
 30
0.0
 11
11.19910303505688
 21
2.566038240151002
 31
0.0
  0
LINE
  5
3FB
330
1F
100
AcDbEntity
  8
0
100
AcDbLine
 10
11.19910303505688
 20
2.566038240151002
 30
0.0
 11
11.24296387999523
 21
2.566038240151002
 31
0.0
  0
LINE
  5
3FC
330
1F
100
AcDbEntity
  8
0
100
AcDbLine
 10
11.24296387999523
 20
2.566038240151002
 30
0.0
 11
11.24296387999523
 21
2.583570048579471
 31
0.0
  0
LINE
  5
3FD
330
1F
100
AcDbEntity
  8
0
100
AcDbLine
 10
11.24296387999523
 20
2.583570048579471
 30
0.0
 11
11.19910303505688
 21
2.583570048579471
 31
0.0
  0
LINE
  5
3FE
330
1F
100
AcDbEntity
  8
0
100
AcDbLine
 10
11.19910303505688
 20
2.583570048579471
 30
0.0
 11
11.19910303505688
 21
2.599849569101607
 31
0.0
  0
MTEXT
  5
3FF
102
{ACAD_XDICTIONARY
360
411
102
}
330
1F
100
AcDbEntity
  8
0
100
AcDbMText
 10
4.058914353459036
 20
8.538110994479037
 30
0.0
 40
0.2
 41
5.949290895966142
 71
     1
 72
     5
  1
{\Fromans|c0;\C2;MCR-1CLP-I/I-00 MODULE ASSEMBLY\P        P/N: 2814016}
 73
     1
 44
1.0
1001
ACAD
1000
ACAD_MTEXT_DEFINED_HEIGHT_BEGIN
1070
    46
1040
0.0
1000
ACAD_MTEXT_DEFINED_HEIGHT_END
1000
MTEXTBEGIN
1070
    73
1070
     1
1070
    44
1040
1.0
1070
    74
1070
     0
1000
MTEXTEND
  0
ENDSEC
  0
SECTION
  2
OBJECTS
  0
DICTIONARY
  5
C
330
0
100
AcDbDictionary
281
     1
  3
ACAD_COLOR
350
73
  3
ACAD_GROUP
350
D
  3
ACAD_LAYOUT
350
1A
  3
ACAD_MATERIAL
350
72
  3
ACAD_MLINESTYLE
350
17
  3
ACAD_PLOTSETTINGS
350
19
  3
ACAD_PLOTSTYLENAME
350
E
  3
ACAD_TABLESTYLE
350
86
  3
ACDBHEADERROUNDTRIPXREC
350
40A
  3
AcDbVariableDictionary
350
66
  3
DWGPROPS
350
409
  0
DICTIONARY
  5
411
330
3FF
100
AcDbDictionary
280
     1
281
     1
  3
ACAD_MTEXT_RT
360
412
  0
DICTIONARY
  5
73
102
{ACAD_REACTORS
330
C
102
}
330
C
100
AcDbDictionary
281
     1
  0
DICTIONARY
  5
D
102
{ACAD_REACTORS
330
C
102
}
330
C
100
AcDbDictionary
281
     1
  0
DICTIONARY
  5
1A
102
{ACAD_REACTORS
330
C
102
}
330
C
100
AcDbDictionary
281
     1
  3
Layout1
350
59
  3
Layout2
350
5E
  3
Model
350
22
  0
DICTIONARY
  5
72
102
{ACAD_REACTORS
330
C
102
}
330
C
100
AcDbDictionary
281
     1
  0
DICTIONARY
  5
17
102
{ACAD_REACTORS
330
C
102
}
330
C
100
AcDbDictionary
281
     1
  3
Standard
350
18
  0
DICTIONARY
  5
19
102
{ACAD_REACTORS
330
C
102
}
330
C
100
AcDbDictionary
281
     1
  0
ACDBDICTIONARYWDFLT
  5
E
102
{ACAD_REACTORS
330
C
102
}
330
C
100
AcDbDictionary
281
     1
  3
Normal
350
F
100
AcDbDictionaryWithDefault
340
F
  0
DICTIONARY
  5
86
102
{ACAD_REACTORS
330
C
102
}
330
C
100
AcDbDictionary
281
     1
  3
Standard
350
87
  0
DICTIONARY
  5
40A
102
{ACAD_REACTORS
330
C
102
}
330
C
100
AcDbDictionary
281
     1
  0
DICTIONARY
  5
66
102
{ACAD_REACTORS
330
C
102
}
330
C
100
AcDbDictionary
281
     1
  3
CTABLESTYLE
350
400
  3
DIMASSOC
350
67
  3
HIDETEXT
350
6B
  3
PROJECTNAME
350
407
  0
XRECORD
  5
409
102
{ACAD_REACTORS
330
C
102
}
330
C
100
AcDbXrecord
280
     1
  1
DWGPROPS COOKIE
  2

  3

  4

  6

  7

  8

  9

300
=
301
=
302
=
303
=
304
=
305
=
306
=
307
=
308
=
309
=
 40
0.0008025810185185
 41
2453927.448397061
 42
2453936.400885845
  1

 90
        0
  0
XRECORD
  5
412
102
{ACAD_REACTORS
330
411
102
}
330
411
100
AcDbXrecord
280
     1
 40
154399.0
  1
{\Fromans|c0;\C2;MCR-1CLP-I/I-00 MODULE ASSEMBLY\P^I^IP/N: 2814016}
  0
LAYOUT
  5
59
102
{ACAD_XDICTIONARY
360
40D
102
}
102
{ACAD_REACTORS
330
1A
102
}
330
1A
100
AcDbPlotSettings
  1

  2
None
  4

  6

 40
0.0
 41
0.0
 42
0.0
 43
0.0
 44
0.0
 45
0.0
 46
0.0
 47
0.0
 48
0.0
 49
0.0
140
0.0
141
0.0
142
1.0
143
1.0
 70
   688
 72
     0
 73
     0
 74
     5
  7

 75
    16
147
1.0
148
0.0
149
0.0
100
AcDbLayout
  1
Layout1
 70
     1
 71
     1
 10
0.0
 20
0.0
 11
12.0
 21
9.0
 12
0.0
 22
0.0
 32
0.0
 14
0.0
 24
0.0
 34
0.0
 15
0.0
 25
0.0
 35
0.0
146
0.0
 13
0.0
 23
0.0
 33
0.0
 16
1.0
 26
0.0
 36
0.0
 17
0.0
 27
1.0
 37
0.0
 76
     0
330
58
  0
LAYOUT
  5
5E
102
{ACAD_XDICTIONARY
360
40F
102
}
102
{ACAD_REACTORS
330
1A
102
}
330
1A
100
AcDbPlotSettings
  1

  2
None
  4

  6

 40
0.0
 41
0.0
 42
0.0
 43
0.0
 44
0.0
 45
0.0
 46
0.0
 47
0.0
 48
0.0
 49
0.0
140
0.0
141
0.0
142
1.0
143
1.0
 70
   688
 72
     0
 73
     0
 74
     5
  7

 75
    16
147
1.0
148
0.0
149
0.0
100
AcDbLayout
  1
Layout2
 70
     1
 71
     2
 10
0.0
 20
0.0
 11
12.0
 21
9.0
 12
0.0
 22
0.0
 32
0.0
 14
0.0
 24
0.0
 34
0.0
 15
0.0
 25
0.0
 35
0.0
146
0.0
 13
0.0
 23
0.0
 33
0.0
 16
1.0
 26
0.0
 36
0.0
 17
0.0
 27
1.0
 37
0.0
 76
     0
330
5D
  0
LAYOUT
  5
22
102
{ACAD_XDICTIONARY
360
40B
102
}
102
{ACAD_REACTORS
330
1A
102
}
330
1A
100
AcDbPlotSettings
  1

  2
none_device
  4
ANSI_A_(8.50_x_11.00_Inches)
  6

 40
6.349999904632567
 41
19.04999923706055
 42
6.350006103515625
 43
19.04998779296875
 44
215.8999938964844
 45
279.3999938964844
 46
0.0
 47
0.0
 48
0.0
 49
0.0
140
0.0
141
0.0
142
1.0
143
2.584895464708373
 70
 11952
 72
     0
 73
     1
 74
     0
  7

 75
     0
147
0.3868628397755418
148
0.0
149
0.0
100
AcDbLayout
  1
Model
 70
     1
 71
     0
 10
0.0
 20
0.0
 11
12.0
 21
9.0
 12
0.0
 22
0.0
 32
0.0
 14
0.0
 24
0.0
 34
0.0
 15
0.0
 25
0.0
 35
0.0
146
0.0
 13
0.0
 23
0.0
 33
0.0
 16
1.0
 26
0.0
 36
0.0
 17
0.0
 27
1.0
 37
0.0
 76
     0
330
1F
  0
MLINESTYLE
  5
18
102
{ACAD_REACTORS
330
17
102
}
330
17
100
AcDbMlineStyle
  2
STANDARD
 70
     0
  3

 62
   256
 51
90.0
 52
90.0
 71
     2
 49
0.5
 62
   256
  6
BYLAYER
 49
-0.5
 62
   256
  6
BYLAYER
  0
ACDBPLACEHOLDER
  5
F
102
{ACAD_REACTORS
330
E
102
}
330
E
  0
TABLESTYLE
  5
87
102
{ACAD_REACTORS
330
86
102
}
330
86
100
AcDbTableStyle
  3
Standard
 70
     0
 71
     0
 40
0.06
 41
0.06
280
     0
281
     0
  7
Standard
140
0.18
170
     2
 62
     0
 63
     7
283
     0
274
    -2
284
     1
 64
     0
275
    -2
285
     1
 65
     0
276
    -2
286
     1
 66
     0
277
    -2
287
     1
 67
     0
278
    -2
288
     1
 68
     0
279
    -2
289
     1
 69
     0
  7
Standard
140
0.25
170
     5
 62
     0
 63
     7
283
     0
274
    -2
284
     1
 64
     0
275
    -2
285
     1
 65
     0
276
    -2
286
     1
 66
     0
277
    -2
287
     1
 67
     0
278
    -2
288
     1
 68
     0
279
    -2
289
     1
 69
     0
  7
Standard
140
0.18
170
     5
 62
     0
 63
     7
283
     0
274
    -2
284
     1
 64
     0
275
    -2
285
     1
 65
     0
276
    -2
286
     1
 66
     0
277
    -2
287
     1
 67
     0
278
    -2
288
     1
 68
     0
279
    -2
289
     1
 69
     0
  0
DICTIONARYVAR
  5
400
102
{ACAD_REACTORS
330
66
102
}
330
66
100
DictionaryVariables
280
     0
  1
STANDARD
  0
DICTIONARYVAR
  5
67
102
{ACAD_REACTORS
330
66
102
}
330
66
100
DictionaryVariables
280
     0
  1
2
  0
DICTIONARYVAR
  5
6B
102
{ACAD_REACTORS
330
66
102
}
330
66
100
DictionaryVariables
280
     0
  1
1
  0
DICTIONARYVAR
  5
407
102
{ACAD_REACTORS
330
66
102
}
330
66
100
DictionaryVariables
280
     0
  1

  0
DICTIONARY
  5
40D
330
59
100
AcDbDictionary
280
     1
281
     1
  3
ACAD_XREC_ROUNDTRIP
360
40E
  0
DICTIONARY
  5
40F
330
5E
100
AcDbDictionary
280
     1
281
     1
  3
ACAD_XREC_ROUNDTRIP
360
410
  0
DICTIONARY
  5
40B
330
22
100
AcDbDictionary
280
     1
281
     1
  3
ACAD_XREC_ROUNDTRIP
360
40C
  0
XRECORD
  5
40E
102
{ACAD_REACTORS
330
40D
102
}
330
40D
100
AcDbXrecord
280
     1
102
SHADEPLOT
 70
     0
102
SHADEPLOTRESLEVEL
 70
     2
102
SHADEPLOTCUSTOMDPI
 70
   300
  0
XRECORD
  5
410
102
{ACAD_REACTORS
330
40F
102
}
330
40F
100
AcDbXrecord
280
     1
102
SHADEPLOT
 70
     0
102
SHADEPLOTRESLEVEL
 70
     2
102
SHADEPLOTCUSTOMDPI
 70
   300
  0
XRECORD
  5
40C
102
{ACAD_REACTORS
330
40B
102
}
330
40B
100
AcDbXrecord
280
     1
102
SHADEPLOT
 70
     0
102
SHADEPLOTRESLEVEL
 70
     2
102
SHADEPLOTCUSTOMDPI
 70
   300
  0
ENDSEC
  0
EOF
