  0
SECTION
  2
HEADER
  9
$ACADVER
  1
AC1009
  9
$DWGCODEPAGE
  3
ansi_1252
  9
$INSBASE
 10
0.0
 20
0.0
 30
0.0
  9
$EXTMIN
 10
0.0
 20
-41.49999999998967
 30
0.0
  9
$EXTMAX
 10
8.15000000001396
 20
16.30000000000392
 30
0.0
  9
$LIMMIN
 10
0.0
 20
0.0
  9
$LIMMAX
 10
12.0
 20
9.0
  9
$ORTHOMODE
 70
     0
  9
$REGENMODE
 70
     1
  9
$FILLMODE
 70
     1
  9
$QTEXTMODE
 70
     0
  9
$MIRRTEXT
 70
     1
  9
$DRAGMODE
 70
     2
  9
$LTSCALE
 40
1.0
  9
$OSMODE
 70
    37
  9
$ATTMODE
 70
     1
  9
$TEXTSIZE
 40
0.2
  9
$TRACEWID
 40
0.05
  9
$TEXTSTYLE
  7
STANDARD
  9
$CLAYER
  8
0
  9
$CELTYPE
  6
BYLAYER
  9
$CECOLOR
 62
   256
  9
$DIMSCALE
 40
1.0
  9
$DIMASZ
 40
0.18
  9
$DIMEXO
 40
0.0625
  9
$DIMDLI
 40
0.38
  9
$DIMRND
 40
0.0
  9
$DIMDLE
 40
0.0
  9
$DIMEXE
 40
0.18
  9
$DIMTP
 40
0.0
  9
$DIMTM
 40
0.0
  9
$DIMTXT
 40
0.18
  9
$DIMCEN
 40
0.09
  9
$DIMTSZ
 40
0.0
  9
$DIMTOL
 70
     0
  9
$DIMLIM
 70
     0
  9
$DIMTIH
 70
     1
  9
$DIMTOH
 70
     1
  9
$DIMSE1
 70
     0
  9
$DIMSE2
 70
     0
  9
$DIMTAD
 70
     0
  9
$DIMZIN
 70
     0
  9
$DIMBLK
  1

  9
$DIMASO
 70
     1
  9
$DIMSHO
 70
     1
  9
$DIMPOST
  1

  9
$DIMAPOST
  1

  9
$DIMALT
 70
     0
  9
$DIMALTD
 70
     2
  9
$DIMALTF
 40
25.4
  9
$DIMLFAC
 40
1.0
  9
$DIMTOFL
 70
     0
  9
$DIMTVP
 40
0.0
  9
$DIMTIX
 70
     0
  9
$DIMSOXD
 70
     0
  9
$DIMSAH
 70
     0
  9
$DIMBLK1
  1

  9
$DIMBLK2
  1

  9
$DIMSTYLE
  2
STANDARD
  9
$DIMCLRD
 70
     0
  9
$DIMCLRE
 70
     0
  9
$DIMCLRT
 70
     0
  9
$DIMTFAC
 40
1.0
  9
$DIMGAP
 40
0.09
  9
$LUNITS
 70
     2
  9
$LUPREC
 70
     4
  9
$SKETCHINC
 40
0.1
  9
$FILLETRAD
 40
0.5
  9
$AUNITS
 70
     0
  9
$AUPREC
 70
     0
  9
$MENU
  1
.
  9
$ELEVATION
 40
0.0
  9
$PELEVATION
 40
0.0
  9
$THICKNESS
 40
0.0
  9
$LIMCHECK
 70
     0
  9
$CHAMFERA
 40
0.5
  9
$CHAMFERB
 40
0.5
  9
$SKPOLY
 70
     0
  9
$TDCREATE
 40
2453755.640971921
  9
$TDUPDATE
 40
2453755.640971933
  9
$TDINDWG
 40
0.0000000116
  9
$TDUSRTIMER
 40
0.0000000116
  9
$USRTIMER
 70
     1
  9
$ANGBASE
 50
0.0
  9
$ANGDIR
 70
     0
  9
$PDMODE
 70
     0
  9
$PDSIZE
 40
0.0
  9
$PLINEWID
 40
0.0
  9
$COORDS
 70
     1
  9
$SPLFRAME
 70
     0
  9
$SPLINETYPE
 70
     6
  9
$SPLINESEGS
 70
     8
  9
$ATTDIA
 70
     0
  9
$ATTREQ
 70
     1
  9
$HANDLING
 70
     1
  9
$HANDSEED
  5
9E
  9
$SURFTAB1
 70
     6
  9
$SURFTAB2
 70
     6
  9
$SURFTYPE
 70
     6
  9
$SURFU
 70
     6
  9
$SURFV
 70
     6
  9
$UCSNAME
  2

  9
$UCSORG
 10
0.0
 20
0.0
 30
0.0
  9
$UCSXDIR
 10
1.0
 20
0.0
 30
0.0
  9
$UCSYDIR
 10
0.0
 20
1.0
 30
0.0
  9
$PUCSNAME
  2

  9
$PUCSORG
 10
0.0
 20
0.0
 30
0.0
  9
$PUCSXDIR
 10
1.0
 20
0.0
 30
0.0
  9
$PUCSYDIR
 10
0.0
 20
1.0
 30
0.0
  9
$USERI1
 70
     0
  9
$USERI2
 70
     0
  9
$USERI3
 70
     0
  9
$USERI4
 70
     0
  9
$USERI5
 70
     0
  9
$USERR1
 40
13.01
  9
$USERR2
 40
0.0
  9
$USERR3
 40
0.0
  9
$USERR4
 40
0.0
  9
$USERR5
 40
0.0
  9
$WORLDVIEW
 70
     1
  9
$SHADEDGE
 70
     3
  9
$SHADEDIF
 70
    70
  9
$TILEMODE
 70
     1
  9
$MAXACTVP
 70
    64
  9
$PLIMCHECK
 70
     0
  9
$PEXTMIN
 10
1.00000000000000E+20
 20
1.00000000000000E+20
 30
1.00000000000000E+20
  9
$PEXTMAX
 10
-1.00000000000000E+20
 20
-1.00000000000000E+20
 30
-1.00000000000000E+20
  9
$PLIMMIN
 10
0.0
 20
0.0
  9
$PLIMMAX
 10
12.0
 20
9.0
  9
$UNITMODE
 70
     0
  9
$VISRETAIN
 70
     1
  9
$PLINEGEN
 70
     0
  9
$PSLTSCALE
 70
     1
  0
ENDSEC
  0
SECTION
  2
TABLES
  0
TABLE
  2
VPORT
 70
     2
  0
VPORT
  2
*ACTIVE
 70
     0
 10
0.0
 20
0.0
 11
1.0
 21
1.0
 12
4.07500000000698
 22
-12.59999999999288
 13
0.0
 23
0.0
 14
0.5
 24
0.5
 15
0.5
 25
0.5
 16
0.0
 26
0.0
 36
1.0
 17
0.0
 27
0.0
 37
0.0
 40
63.57999999999295
 41
1.60267857142857
 42
50.0
 43
0.0
 44
0.0
 50
0.0
 51
0.0
 71
     0
 72
   100
 73
     1
 74
     3
 75
     0
 76
     0
 77
     0
 78
     0
  0
ENDTAB
  0
TABLE
  2
LTYPE
 70
     8
  0
LTYPE
  2
CONTINUOUS
 70
     0
  3
Solid line
 72
    65
 73
     0
 40
0.0
  0
LTYPE
  2
DASHED
 70
     0
  3
Dashed
 72
    65
 73
     2
 40
15.0
 49
7.0
 49
-8.0
  0
LTYPE
  2
DOTTED
 70
     0
  3
Dotted
 72
    65
 73
     2
 40
1.0
 49
0.0
 49
-1.0
  0
LTYPE
  2
DOT_CENTER
 70
     0
  3
Dot_Center
 72
    65
 73
     4
 40
14.0
 49
12.0
 49
-1.0
 49
0.0
 49
-1.0
  0
LTYPE
  2
LONG_DASHED
 70
     0
  3
Long_Dashed
 72
    65
 73
     2
 40
15.0
 49
10.0
 49
-5.0
  0
LTYPE
  2
DASH_CENTER
 70
     0
  3
Dash_Center
 72
    65
 73
     4
 40
14.0
 49
11.0
 49
-1.0
 49
1.0
 49
-1.0
  0
LTYPE
  2
PHANTOM
 70
     0
  3
Phantom
 72
    65
 73
     6
 40
13.0
 49
10.0
 49
-1.0
 49
0.0
 49
-1.0
 49
0.0
 49
-1.0
  0
LTYPE
  2
CENTER_DASH_DASH
 70
     0
  3
Center_Dash_Dash
 72
    65
 73
     6
 40
14.0
 49
9.0
 49
-1.0
 49
1.0
 49
-1.0
 49
1.0
 49
-1.0
  0
ENDTAB
  0
TABLE
  2
LAYER
 70
     2
  0
LAYER
  2
0
 70
     0
 62
     7
  6
CONTINUOUS
  0
LAYER
  2
1
 70
     0
 62
     7
  6
CONTINUOUS
  0
ENDTAB
  0
TABLE
  2
STYLE
 70
     1
  0
STYLE
  2
STANDARD
 70
     0
 40
0.0
 41
1.0
 50
0.0
 71
     0
 42
0.2
  3
txt
  4

  0
ENDTAB
  0
TABLE
  2
VIEW
 70
     0
  0
ENDTAB
  0
TABLE
  2
UCS
 70
     0
  0
ENDTAB
  0
TABLE
  2
APPID
 70
     1
  0
APPID
  2
ACAD
 70
     0
  0
ENDTAB
  0
TABLE
  2
DIMSTYLE
 70
     1
  0
DIMSTYLE
  2
STANDARD
 70
     0
  3

  4

  5

  6

  7

 40
1.0
 41
0.18
 42
0.0625
 43
0.38
 44
0.18
 45
0.0
 46
0.0
 47
0.0
 48
0.0
140
0.18
141
0.09
142
0.0
143
25.4
144
1.0
145
0.0
146
1.0
147
0.09
 71
     0
 72
     0
 73
     1
 74
     1
 75
     0
 76
     0
 77
     0
 78
     0
170
     0
171
     2
172
     0
173
     0
174
     0
175
     0
176
     0
177
     0
178
     0
  0
ENDTAB
  0
ENDSEC
  0
SECTION
  2
BLOCKS
  0
BLOCK
  8
0
  2
$MODEL_SPACE
 70
     0
 10
0.0
 20
0.0
 30
0.0
  3
$MODEL_SPACE
  1

  0
ENDBLK
  5
21
  8
0
  0
BLOCK
 67
     1
  8
0
  2
$PAPER_SPACE
 70
     0
 10
0.0
 20
0.0
 30
0.0
  3
$PAPER_SPACE
  1

  0
ENDBLK
  5
1D
 67
     1
  8
0
  0
BLOCK
  8
0
  2
_RAHMEN__1
 70
     0
 10
108.4956521739117
 20
22.79891304347859
 30
0.0
  3
_RAHMEN__1
  1

  0
POINT
  5
4A
  8
1
 62
     3
 10
44.99565217391407
 20
49.04891304347858
 30
0.0
  0
ENDBLK
  5
38
  8
0
  0
BLOCK
  8
0
  2
A4I
 70
     0
 10
108.4956521739117
 20
22.79891304347859
 30
0.0
  3
A4I
  1

  0
INSERT
  5
3A
  8
1
  2
_RAHMEN__1
 10
108.4956521739117
 20
22.79891304347859
 30
0.0
  0
ENDBLK
  5
3C
  8
0
  0
BLOCK
  8
0
  2
_RAHMEN__2
 70
     0
 10
108.4956521739117
 20
22.79891304347859
 30
0.0
  3
_RAHMEN__2
  1

  0
POINT
  5
4B
  8
1
 62
     3
 10
44.99565217391404
 20
49.04891304347802
 30
0.0
  0
ENDBLK
  5
3F
  8
0
  0
BLOCK
  8
0
  2
A3I
 70
     0
 10
108.4956521739117
 20
22.79891304347859
 30
0.0
  3
A3I
  1

  0
INSERT
  5
41
  8
1
  2
_RAHMEN__2
 10
108.4956521739117
 20
22.79891304347859
 30
0.0
  0
ENDBLK
  5
43
  8
0
  0
BLOCK
  8
0
  2
0056720___00___0035957____
 70
     0
 10
108.4956521739117
 20
22.79891304347859
 30
0.0
  3
0056720___00___0035957____
  1

  0
INSERT
  5
45
  8
0
  2
A4I
 10
108.4956521739117
 20
22.79891304347859
 30
0.0
  0
INSERT
  5
46
  8
0
  2
A3I
 10
108.4956521739117
 20
22.79891304347859
 30
0.0
  0
ENDBLK
  5
48
  8
0
  0
ENDSEC
  0
SECTION
  2
ENTITIES
  0
INSERT
  5
49
  8
0
  2
0056720___00___0035957____
 10
108.4956521739117
 20
22.79891304347859
 30
0.0
  0
POINT
  5
4C
  8
1
 62
     7
 10
0.0
 20
0.0
 30
0.0
  0
LINE
  5
4D
  8
1
  6
CONTINUOUS
 62
     7
 10
1.15375170298837
 20
6.57861300738069
 30
0.0
 11
8.14999999999668
 21
6.57861300738069
 31
0.0
  0
LINE
  5
4E
  8
1
  6
CONTINUOUS
 62
     7
 10
1.15000000001697
 20
8.54681740340328
 30
0.0
 11
1.15375170298837
 21
6.57861300738069
 31
0.0
  0
LINE
  5
4F
  8
1
  6
CONTINUOUS
 62
     7
 10
3.34999999854668
 20
-33.5314092168347
 30
0.0
 11
3.34340679810182
 21
-30.3989247305948
 31
0.0
  0
LINE
  5
50
  8
1
  6
CONTINUOUS
 62
     7
 10
4.80000000143738
 20
-33.5314092168347
 30
0.0
 11
4.80565258895582
 21
-30.3989247305948
 31
0.0
  0
LINE
  5
51
  8
1
  6
CONTINUOUS
 62
     7
 10
0.0
 20
-30.3989247305948
 30
0.0
 11
8.14999999999668
 21
-30.3989247305948
 31
0.0
  0
LINE
  5
52
  8
1
  6
CONTINUOUS
 62
     7
 10
1.35000000047509
 20
-26.43140922073063
 30
0.0
 11
1.35625226181303
 21
-21.51296954002051
 31
0.0
  0
LINE
  5
53
  8
1
  6
CONTINUOUS
 62
     7
 10
6.79999999997628
 20
-26.43140922073103
 30
0.0
 11
6.79280712524459
 21
-21.5129695400205
 31
0.0
  0
LINE
  5
54
  8
1
  6
CONTINUOUS
 62
     7
 10
0.0
 20
-21.51296954002051
 30
0.0
 11
8.14999999999668
 21
-21.5129695400205
 31
0.0
  0
LINE
  5
55
  8
1
  6
CONTINUOUS
 62
     7
 10
0.0
 20
-14.6329156266432
 30
0.0
 11
8.14999999999668
 21
-14.6329156266432
 31
0.0
  0
LINE
  5
56
  8
1
  6
CONTINUOUS
 62
     7
 10
3.22499999998868
 20
-12.53140922628153
 30
0.0
 11
3.22499999998829
 21
-4.13140922628143
 31
0.0
  0
LINE
  5
57
  8
1
  6
CONTINUOUS
 62
     7
 10
4.92499999998839
 20
-4.13140922628149
 30
0.0
 11
4.92499999998859
 21
-12.53140922628124
 31
0.0
  0
LINE
  5
58
  8
1
  6
CONTINUOUS
 62
     7
 10
0.0
 20
11.3875607541949
 30
0.0
 11
8.14999999999668
 21
11.3875607541949
 31
0.0
  0
LINE
  5
59
  8
1
  6
CONTINUOUS
 62
     7
 10
1.36243758139969
 20
9.54625764516064
 30
0.0
 11
8.14999999999668
 21
9.54625764516064
 31
0.0
  0
LINE
  5
5A
  8
1
  6
CONTINUOUS
 62
     7
 10
1.15000000001308
 20
5.75554469007008
 30
0.0
 11
1.15000000001328
 21
3.9699308992585
 31
0.0
  0
LINE
  5
5B
  8
1
  6
CONTINUOUS
 62
     7
 10
5.64999999700677
 20
5.75554469007028
 30
0.0
 11
5.64999999700669
 21
3.9699308992585
 31
0.0
  0
LINE
  5
5C
  8
1
  6
CONTINUOUS
 62
     7
 10
8.14999999999668
 20
-32.3507914514374
 30
0.0
 11
7.15000000001146
 21
-32.3507914514374
 31
0.0
  0
LINE
  5
5D
  8
1
  6
CONTINUOUS
 62
     7
 10
8.14999999999668
 20
-32.6654784247678
 30
0.0
 11
7.15000000001146
 21
-32.6654784247678
 31
0.0
  0
LINE
  5
5E
  8
1
  6
CONTINUOUS
 62
     7
 10
0.0
 20
-32.3088331883267
 30
0.0
 11
1.0000000000116
 21
-32.3088331883267
 31
0.0
  0
LINE
  5
5F
  8
1
  6
CONTINUOUS
 62
     7
 10
0.0
 20
-32.6025410301017
 30
0.0
 11
1.0000000000116
 21
-32.6025410301017
 31
0.0
  0
LINE
  5
60
  8
1
  6
CONTINUOUS
 62
     7
 10
1.0000000000116
 20
-33.3750000000007
 30
0.0
 11
1.0000000000116
 21
-31.6750000000007
 31
0.0
  0
LINE
  5
61
  8
1
  6
CONTINUOUS
 62
     7
 10
7.15000000001146
 20
-33.37499999999928
 30
0.0
 11
7.15000000001146
 21
-31.77499999999927
 31
0.0
  0
LINE
  5
62
  8
1
  6
CONTINUOUS
 62
     7
 10
1.9000000000118
 20
-33.37500000000058
 30
0.0
 11
1.9000000000118
 21
-31.77500000000058
 31
0.0
  0
LINE
  5
63
  8
1
  6
CONTINUOUS
 62
     7
 10
6.25000000001
 20
-33.37499999999967
 30
0.0
 11
6.25000000001
 21
-31.77499999999967
 31
0.0
  0
LINE
  5
64
  8
1
  6
CONTINUOUS
 62
     7
 10
4.80000000143738
 20
-33.5314092168347
 30
0.0
 11
3.34999999854668
 21
-33.5314092168347
 31
0.0
  0
LINE
  5
65
  8
1
  6
CONTINUOUS
 62
     7
 10
1.15000000001538
 20
-27.23140922073064
 30
0.0
 11
1.15000000001538
 21
-29.33140921683223
 31
0.0
  0
LINE
  5
66
  8
1
  6
CONTINUOUS
 62
     7
 10
8.14999999999668
 20
-19.9940829653284
 30
0.0
 11
0.0
 21
-19.9940829653284
 31
0.0
  0
LINE
  5
67
  8
1
  6
CONTINUOUS
 62
     7
 10
6.29999999998327
 20
-16.13140923152263
 30
0.0
 11
8.14999999999668
 21
-16.13140923152263
 31
0.0
  0
LINE
  5
68
  8
1
  6
CONTINUOUS
 62
     7
 10
0.0
 20
16.30000000000031
 30
0.0
 11
0.0
 21
-41.49999999998967
 31
0.0
  0
LINE
  5
69
  8
1
  6
CONTINUOUS
 62
     7
 10
8.14999999999668
 20
16.30000000000392
 30
0.0
 11
8.14999999999668
 21
-41.49999999998967
 31
0.0
  0
LINE
  5
6A
  8
0
  6
CONTINUOUS
 62
     7
 10
0.0
 20
-11.9498962308963
 30
0.0
 11
0.0
 21
5.27867965645761
 31
0.0
  0
LINE
  5
6B
  8
0
  6
CONTINUOUS
 62
     7
 10
7.15000000001146
 20
-33.37499999999928
 30
0.0
 11
6.25000000001
 21
-33.37499999999967
 31
0.0
  0
LINE
  5
6C
  8
0
  6
CONTINUOUS
 62
     7
 10
1.0000000000116
 20
-33.3750000000007
 30
0.0
 11
1.9000000000118
 21
-33.37500000000058
 31
0.0
  0
LINE
  5
6D
  8
0
  6
CONTINUOUS
 62
     7
 10
8.14999999999509
 20
12.89987752008092
 30
0.0
 11
0.0
 21
12.89987752008362
 31
0.0
  0
LINE
  5
6E
  8
0
  6
CONTINUOUS
 62
     7
 10
0.00000000000011
 20
14.80710678118952
 30
0.0
 11
8.14999999999486
 21
14.8071067811883
 31
0.0
  0
LINE
  5
6F
  8
0
  6
CONTINUOUS
 62
     7
 10
8.14999999999577
 20
10.98232998978089
 30
0.0
 11
1.66768418128186
 21
10.98232998978141
 31
0.0
  0
LINE
  5
70
  8
0
  6
CONTINUOUS
 62
     7
 10
0.00000000000023
 20
15.1000000000026
 30
0.0
 11
8.14999999999486
 21
15.10000000000152
 31
0.0
  0
LINE
  5
71
  8
0
  6
CONTINUOUS
 62
     7
 10
4.14999999999509
 20
16.30000000000031
 30
0.0
 11
0.0
 21
16.30000000000031
 31
0.0
  0
LINE
  5
72
  8
0
  6
CONTINUOUS
 62
     7
 10
8.14999999999668
 20
16.30000000000392
 30
0.0
 11
4.14999999999509
 21
16.30000000000031
 31
0.0
  0
LINE
  5
73
  8
0
  6
CONTINUOUS
 62
     7
 10
0.0
 20
-41.49999999998967
 30
0.0
 11
8.14999999999668
 21
-41.49999999998967
 31
0.0
  0
LINE
  5
74
  8
0
  6
CONTINUOUS
 62
     7
 10
0.0
 20
-40.81715728751159
 30
0.0
 11
8.14999999999668
 21
-40.81715728751159
 31
0.0
  0
LINE
  5
75
  8
0
  6
CONTINUOUS
 62
     7
 10
8.15000000001328
 20
-38.16985614029302
 30
0.0
 11
0.0
 21
-38.16985614029171
 31
0.0
  0
LINE
  5
76
  8
0
  6
CONTINUOUS
 62
     7
 10
8.15000000001339
 20
-37.09987752007898
 30
0.0
 11
0.0
 21
-37.0998775200779
 31
0.0
  0
LINE
  5
77
  8
0
  6
CONTINUOUS
 62
     7
 10
8.15000000001282
 20
-35.80830312184868
 30
0.0
 11
0.0
 21
-35.8083031218476
 31
0.0
  0
LINE
  5
78
  8
0
  6
CONTINUOUS
 62
     7
 10
8.15000000001396
 20
-39.00710678118789
 30
0.0
 11
0.0
 21
-39.00710678118658
 31
0.0
  0
LINE
  5
79
  8
0
  6
CONTINUOUS
 62
     7
 10
6.79999999997628
 20
-26.43140922073103
 30
0.0
 11
1.35000000047509
 21
-26.43140922073063
 31
0.0
  0
LINE
  5
7A
  8
0
  6
CONTINUOUS
 62
     7
 10
1.15000000001538
 20
-27.23140922073064
 30
0.0
 11
6.79999999997608
 21
-27.23140922073053
 31
0.0
  0
LINE
  5
7B
  8
0
  6
CONTINUOUS
 62
     7
 10
0.05000000000308
 20
-28.4314092168356
 30
0.0
 11
1.15000000001538
 21
-28.4314092168356
 31
0.0
  0
LINE
  5
7C
  8
0
  6
CONTINUOUS
 62
     7
 10
3.34999999854668
 20
-31.30978074508504
 30
0.0
 11
0.05000000000368
 21
-31.30978074508333
 31
0.0
  0
LINE
  5
7D
  8
0
  6
CONTINUOUS
 62
     7
 10
1.15000000001538
 20
-29.33140921683223
 30
0.0
 11
6.79999999997568
 21
-29.3314092168345
 31
0.0
  0
LINE
  5
7E
  8
0
  6
CONTINUOUS
 62
     7
 10
1.15000000001308
 20
5.75554469007008
 30
0.0
 11
5.64999999700677
 21
5.75554469007028
 31
0.0
  0
LINE
  5
7F
  8
0
  6
CONTINUOUS
 62
     7
 10
5.64999999700669
 20
3.9699308992585
 30
0.0
 11
1.15000000001328
 21
3.9699308992585
 31
0.0
  0
LINE
  5
80
  8
0
  6
CONTINUOUS
 62
     7
 10
8.09999999998408
 20
-11.86890922324379
 30
0.0
 11
6.99999999997269
 21
-11.86890922324373
 31
0.0
  0
LINE
  5
81
  8
0
  6
CONTINUOUS
 62
     7
 10
0.05000000000967
 20
2.56859077848158
 30
0.0
 11
8.09999999998718
 21
2.56859077848158
 31
0.0
  0
LINE
  5
82
  8
0
  6
CONTINUOUS
 62
     7
 10
6.99999999997428
 20
-4.63140922628109
 30
0.0
 11
8.09999999998684
 21
-4.63140922628158
 31
0.0
  0
LINE
  5
83
  8
0
  6
CONTINUOUS
 62
     7
 10
8.09999999998118
 20
-31.30978074508754
 30
0.0
 11
4.80000000143738
 21
-31.30978074508583
 31
0.0
  0
LINE
  5
84
  8
0
  6
CONTINUOUS
 62
     7
 10
6.79999999997588
 20
-28.43140921683543
 30
0.0
 11
8.09999999998038
 21
-28.43140921683543
 31
0.0
  0
LINE
  5
85
  8
0
  6
CONTINUOUS
 62
     7
 10
6.79999999997608
 20
-27.23140922073053
 30
0.0
 11
6.79999999997568
 21
-29.3314092168345
 31
0.0
  0
LINE
  5
86
  8
0
  6
CONTINUOUS
 62
     7
 10
6.29999999998248
 20
-19.99390922191644
 30
0.0
 11
6.29999999998327
 21
-16.13140923152263
 31
0.0
  0
LINE
  5
87
  8
0
  6
CONTINUOUS
 62
     7
 10
6.99999999997269
 20
-11.86890922324373
 30
0.0
 11
6.99999999997428
 21
-4.63140922628109
 31
0.0
  0
LINE
  5
88
  8
0
  6
CONTINUOUS
 62
     7
 10
5.47499999999508
 20
-29.3314092168341
 30
0.0
 11
5.47499999999508
 21
-27.23140922073053
 31
0.0
  0
LINE
  5
89
  8
0
  6
CONTINUOUS
 62
     7
 10
6.79999999997708
 20
-22.4314092207304
 30
0.0
 11
1.35000000047597
 21
-22.43140922073063
 31
0.0
  0
LINE
  5
8A
  8
0
  6
CONTINUOUS
 62
     7
 10
0.05000000000638
 20
-13.05640922497842
 30
0.0
 11
8.09999999998368
 21
-13.05640922497882
 31
0.0
  0
LINE
  5
8B
  8
0
  6
CONTINUOUS
 62
     7
 10
0.05000000000638
 20
-13.97190807934543
 30
0.0
 11
8.09999999998368
 21
-13.9719080793456
 31
0.0
  0
LINE
  5
8C
  8
0
  6
CONTINUOUS
 62
     7
 10
8.09999999998217
 20
-20.56591036714529
 30
0.0
 11
0.05000000000467
 21
-20.56591036831473
 31
0.0
  0
LINE
  5
8D
  8
0
  6
CONTINUOUS
 62
     7
 10
0.05000000000979
 20
3.18275520963978
 30
0.0
 11
8.09999999998718
 21
3.18275520964006
 31
0.0
  0
LINE
  5
8E
  8
0
  6
CONTINUOUS
 62
     7
 10
0.05000000000979
 20
3.66594807376858
 30
0.0
 11
8.09999999998718
 21
3.66594807376886
 31
0.0
  0
LINE
  5
8F
  8
0
  6
CONTINUOUS
 62
     7
 10
4.92499999998847
 20
-9.48707165407153
 30
0.0
 11
3.22499999998848
 21
-9.48707165407113
 31
0.0
  0
LINE
  5
90
  8
0
  6
CONTINUOUS
 62
     7
 10
3.22499999998829
 20
-4.13140922628143
 30
0.0
 11
4.92499999998839
 21
-4.13140922628149
 31
0.0
  0
LINE
  5
91
  8
0
  6
CONTINUOUS
 62
     7
 10
4.92499999998839
 20
-4.63140922628143
 30
0.0
 11
3.22499999998837
 21
-4.63140922628143
 31
0.0
  0
LINE
  5
92
  8
0
  6
CONTINUOUS
 62
     7
 10
3.22499999998868
 20
-12.53140922628153
 30
0.0
 11
4.92499999998859
 21
-12.53140922628124
 31
0.0
  0
LINE
  5
93
  8
0
  6
CONTINUOUS
 62
     7
 10
4.92499999998847
 20
-10.74273407770794
 30
0.0
 11
3.22499999998848
 21
-10.74273407770794
 31
0.0
  0
LINE
  5
94
  8
0
  6
CONTINUOUS
 62
     7
 10
3.22499999998848
 20
-11.75309705032883
 30
0.0
 11
4.92499999998847
 21
-11.75309705032923
 31
0.0
  0
LINE
  5
95
  8
0
  6
CONTINUOUS
 62
     7
 10
1.77652844416178
 20
12.29440199340309
 30
0.0
 11
1.77652844416178
 21
11.49440198617009
 31
0.0
  0
LINE
  5
96
  8
0
  6
CONTINUOUS
 62
     7
 10
0.05000000001158
 20
12.29440199340309
 30
0.0
 11
1.77652844416178
 21
12.29440199340309
 31
0.0
  0
LINE
  5
97
  8
0
  6
CONTINUOUS
 62
     7
 10
1.77652844416178
 20
11.49440198617009
 30
0.0
 11
1.15000000001697
 21
8.54681740340328
 31
0.0
  0
ENDSEC
  0
EOF
