  0
SECTION
  2
HEADER
  9
$ACADVER
  1
AC1009
  9
$INSBASE
 10
0
 20
0
  9
$EXTMIN
 10
-3.012701199622825e-12
 20
-41.49999999999102
  9
$EXTMAX
 10
6.150000000006969
 20
16.30000000000899
  9
$LIMMIN
 10
-3.012701199622825e-12
 20
-41.49999999999102
  9
$LIMMAX
 10
6.150000000006969
 20
16.30000000000899
  9
$VIEWCTR
 10
10
 20
10
  9
$VIEWSIZE
 40
10
  9
$SNAPMODE
 70
0
  9
$SNAPUNIT
 10
1
 20
1
  9
$SNAPBASE
 10
0
 20
0
  9
$SNAPANG
 50
0
  9
$SNAPSTYLE
 70
0
  9
$SNAPISOPAIR
 70
0
  9
$GRIDMODE
 70
0
  9
$GRIDUNIT
 10
0
 20
0
  9
$ORTHOMODE
 70
0
  9
$REGENMODE
 70
1
  9
$FILLMODE
 70
1
  9
$QTEXTMODE
 70
0
  9
$DRAGMODE
 70
2
  9
$LTSCALE
 40
1
  9
$OSMODE
 70
0
  9
$ATTMODE
 70
1
  9
$TEXTSIZE
 40
3.5
  9
$TRACEWID
 40
0.5
  9
$TEXTSTYLE
  7
STANDARD
  9
$CLAYER
  8
0
  9
$CELTYPE
  6
BYLAYER
  9
$CECOLOR
 62
256
  9
$DIMSCALE
 40
1
  9
$DIMASZ
 40
0.18
  9
$DIMEXO
 40
0.0625
  9
$DIMDLI
 40
0.38
  9
$DIMRND
 40
0
  9
$DIMDLE
 40
0
  9
$DIMEXE
 40
0.18
  9
$DIMTP
 40
0
  9
$DIMTM
 40
0
  9
$DIMTXT
 40
0.18
  9
$DIMCEN
 40
0.09
  9
$DIMTSZ
 40
0
  9
$DIMTOL
 70
0
  9
$DIMLIM
 70
0
  9
$DIMTIH
 70
1
  9
$DIMTOH
 70
1
  9
$DIMSE1
 70
0
  9
$DIMSE2
 70
0
  9
$DIMTAD
 70
0
  9
$DIMZIN
 70
0
  9
$DIMBLK
  1

  9
$DIMASO
 70
1
  9
$DIMSHO
 70
1
  9
$DIMPOST
  1

  9
$DIMAPOST
  1

  9
$DIMALT
 70
0
  9
$DIMALTD
 70
2
  9
$DIMALTF
 40
25.4
  9
$DIMLFAC
 40
1
  9
$DIMTOFL
 70
0
  9
$DIMTVP
 40
0
  9
$DIMTIX
 70
0
  9
$DIMSOXD
 70
0
  9
$DIMSAH
 70
0
  9
$DIMBLK1
  1

  9
$DIMBLK2
  1

  9
$DIMSTYLE
  2
*UNNAMED
  9
$DIMCLRD
 70
0
  9
$DIMCLRE
 70
0
  9
$DIMCLRT
 70
0
  9
$DIMTFAC
 40
1
  9
$DIMGAP
 40
0.09
  9
$LUNITS
 70
2
  9
$LUPREC
 70
4
  9
$AXISMODE
 70
0
  9
$AXISUNIT
 10
0
 20
0
  9
$SKETCHINC
 40
0.1
  9
$FILLETRAD
 40
2
  9
$AUNITS
 70
0
  9
$AUPREC
 70
0
  9
$MENU
  1
ACAD
  9
$ELEVATION
 40
0
  9
$THICKNESS
 40
0
  9
$VIEWDIR
 10
0
 20
0
 30
1
  9
$LIMCHECK
 70
0
  9
$BLIPMODE
 70
1
  9
$CHAMFERA
 40
0
  9
$CHAMFERB
 40
0
  9
$FASTZOOM
 70
1
  9
$SKPOLY
 70
0
  9
$ANGBASE
 50
0
  9
$ANGDIR
 70
0
  9
$PDMODE
 70
0
  9
$PDSIZE
 40
0
  9
$PLINEWID
 40
0
  9
$COORDS
 70
2
  0
ENDSEC
  0
SECTION
  2
TABLES
  0
TABLE
  2
DIMSTYLE
 70
0
  0
ENDTAB
  0
TABLE
  2
LTYPE
 70
9
  0
LTYPE
  2
CONTINUOUS
 70
64
  3
Solid line
 72
65
 73
0
 40
0
  0
LTYPE
  2
BORDER
 70
64
  3
__ __ . __ __ .
 72
65
 73
6
 40
2.661842105263158
 49
0.7605263157894738
 49
-0.3802631578947369
 49
0.7605263157894738
 49
-0.3802631578947369
 49
0
 49
-0.3802631578947369
  0
LTYPE
  2
CENTER
 70
64
  3
____ _ ____ _
 72
65
 73
4
 40
3.042105263157895
 49
1.901315789473685
 49
-0.3802631578947369
 49
0.3802631578947369
 49
-0.3802631578947369
  0
LTYPE
  2
DASHDOT
 70
64
  3
__ . __ . __ .
 72
65
 73
4
 40
1.521052631578948
 49
0.7605263157894738
 49
-0.3802631578947369
 49
0
 49
-0.3802631578947369
  0
LTYPE
  2
DASHED
 70
64
  3
__ __ __ __ __
 72
65
 73
2
 40
1.140789473684211
 49
0.7605263157894738
 49
-0.3802631578947369
  0
LTYPE
  2
DIVIDE
 70
64
  3
__ . . __ . . 
 72
65
 73
6
 40
1.901315789473685
 49
0.7605263157894738
 49
-0.3802631578947369
 49
0
 49
-0.3802631578947369
 49
0
 49
-0.3802631578947369
  0
LTYPE
  2
DOT
 70
64
  3
..............
 72
65
 73
4
 40
0.7605263157894738
 49
0
 49
-0.3802631578947369
 49
0
 49
-0.3802631578947369
  0
LTYPE
  2
HIDDEN
 70
64
  3
_ _ _ _ _ _ _
 72
65
 73
2
 40
0.5703947368421054
 49
0.3802631578947369
 49
-0.1901315789473685
  0
LTYPE
  2
PHANTOM
 70
64
  3
_____ _ _ _____ _ _ 
 72
65
 73
6
 40
3.802631578947369
 49
1.901315789473685
 49
-0.3802631578947369
 49
0.3802631578947369
 49
-0.3802631578947369
 49
0.3802631578947369
 49
-0.3802631578947369
  0
ENDTAB
  0
TABLE
  2
LAYER
 70
4
  0
LAYER
  2
1
 70
0
 62
7
  6
CONTINUOUS
  0
LAYER
  2
CONSTRUCTION
 70
0
 62
7
  6
CONTINUOUS
  0
LAYER
  2
0
 70
0
 62
7
  6
CONTINUOUS
  0
ENDTAB
  0
TABLE
  2
STYLE
 70
4
  0
STYLE
  2
STANDARD
 70
0
 40
0
 41
1
 50
0
 71
0
 42
3.5
  3
txt
  4

  0
STYLE
  2
SIMPLEX
 70
0
 40
0
 41
1
 50
0
 71
0
 42
3.5
  3
simplex
  4

  0
STYLE
  2
COMPLEX
 70
0
 40
0
 41
1
 50
0
 71
0
 42
3.5
  3
complex
  4

  0
STYLE
  2
ITALIC
 70
0
 40
0
 41
1
 50
0
 71
0
 42
3.5
  3
italic
  4

  0
ENDTAB
  0
TABLE
  2
VIEW
 70
0
  0
ENDTAB
  0
ENDSEC
  0
SECTION
  2
BLOCKS
  0
ENDSEC
  0
SECTION
  2
ENTITIES
  0
POINT
  8
1
 62
7
  6
CENTER
 10
0
 20
0
 30
0
  0
LINE
  8
0
 62
7
 10
6.150000000006969
 20
15.100000000009
 30
0
 11
1.080024958355352e-12
 21
15.100000000009
 31
0
  0
LINE
  8
1
 62
7
 10
3.150000000002194
 20
16.30000000000877
 30
0
 11
3.150000000002194
 21
15.100000000009
 31
0
  0
LINE
  8
1
 62
7
 10
1.623988473416882e-13
 20
2.128807466646771
 30
0
 11
6.150000000005483
 21
2.128807466646771
 31
0
  0
LINE
  8
1
 62
7
 10
-2.508686975890716e-14
 20
-0.4474194657758517
 30
0
 11
6.150000000005188
 21
-0.4474194657758517
 31
0
  0
LINE
  8
1
 62
7
 10
3.89539558625034
 20
-5.39671148389525
 30
0
 11
3.89539558625034
 21
-12.4658201111316
 31
0
  0
LINE
  8
1
 62
7
 10
2.33750821398124
 20
-5.39671148389525
 30
0
 11
2.33750821398124
 21
-12.4658201111316
 31
0
  0
LINE
  8
1
 62
7
 10
-1.017460411590836e-12
 20
-14.0835485801836
 30
0
 11
6.150000000003407
 21
-14.0835485801836
 31
0
  0
LINE
  8
1
 62
7
 10
-1.459238676267765e-12
 20
-20.15399000484409
 30
0
 11
6.150000000002667
 21
-20.15399000484409
 31
0
  0
LINE
  8
1
 62
7
 10
-1.572970717923081e-12
 20
-21.71677331080989
 30
0
 11
6.150000000002477
 21
-21.71677331080989
 31
0
  0
LINE
  8
1
 62
7
 10
-1.761037189626315e-12
 20
-24.3009803479124
 30
0
 11
6.150000000002161
 21
-24.3009803479124
 31
0
  0
LINE
  8
1
 62
7
 10
3.81046556726648
 20
-28.7537678579967
 30
0
 11
3.81046556726648
 21
-30.30429208025808
 31
0
  0
LINE
  8
1
 62
7
 10
-2.197930070044586e-12
 20
-30.30429208025808
 30
0
 11
6.150000000001429
 21
-30.30429208025808
 31
0
  0
LINE
  8
1
 62
7
 10
2.29969837634503
 20
-28.7537678579967
 30
0
 11
2.29969837634503
 21
-30.30429208025808
 31
0
  0
LINE
  8
1
 62
7
 10
-2.085090187022655e-12
 20
-28.7537678579967
 30
0
 11
6.150000000001618
 21
-28.7537678579967
 31
0
  0
LINE
  8
1
 62
7
 10
1.193711796076968e-12
 20
16.30000000000899
 30
0
 11
-3.012701199622825e-12
 21
-41.49999999999056
 31
0
  0
LINE
  8
1
 62
7
 10
6.150000000000063
 20
-41.49999999999102
 30
0
 11
6.150000000006969
 21
15.100000000009
 31
0
  0
LINE
  8
0
 62
7
 10
6.150000000001569
 20
-39.00710678117764
 30
0
 11
-2.842170943040401e-12
 21
-39.00710678117764
 31
0
  0
LINE
  8
0
 62
7
 10
1.193711796076968e-12
 20
16.30000000000899
 30
0
 11
3.150000000002194
 21
16.30000000000877
 31
0
  0
LINE
  8
0
 62
7
 10
-3.012701199622825e-12
 20
-41.49999999999056
 30
0
 11
6.150000000000063
 21
-41.49999999999102
 31
0
  0
LINE
  8
0
 62
7
 10
4.547473508864641e-13
 20
8.305374727615799
 30
0
 11
6.15000000000606
 21
8.305374727615799
 31
0
  0
LINE
  8
0
 62
7
 10
6.149999999999665
 20
-37.09987752006867
 30
0
 11
-2.728484105318785e-12
 21
-37.09987752006867
 31
0
  0
LINE
  8
0
 62
7
 10
6.150000000006969
 20
13.96985614029933
 30
0
 11
9.663381206337363e-13
 21
13.96985614029933
 31
0
  0
ARC
  8
1
 62
7
 10
3.11645190011579
 20
-12.2898488874942
 30
0
 40
0.7985731887042818
 50
192.7300044966213
 51
347.2699955033787
  0
ARC
  8
1
 62
7
 10
3.11645190011579
 20
-5.434186806460199
 30
0
 40
0.7798446422013985
 50
2.754401280117966
 51
177.245598719882
  0
CIRCLE
  8
0
 62
7
 10
3.07500000000158
 20
4.025000000011119
 30
0
 40
1.859999999999956
  0
CIRCLE
  8
0
 62
7
 10
3.0750000000005
 20
-26.62499999999324
 30
0
 40
1.860000000000021
  0
ENDSEC
  0
EOF
