  0
SECTION
  2
HEADER
  9
$ACADVER
  1
AC1009
  9
$INSBASE
 10
0
 20
0
  9
$EXTMIN
 10
0
 20
-42.03762908520716
  9
$EXTMAX
 10
9.5
 20
6.562370914792751
  9
$LIMMIN
 10
0
 20
-42.03762908520716
  9
$LIMMAX
 10
9.5
 20
6.562370914792751
  9
$VIEWCTR
 10
10
 20
10
  9
$VIEWSIZE
 40
10
  9
$SNAPMODE
 70
0
  9
$SNAPUNIT
 10
1
 20
1
  9
$SNAPBASE
 10
0
 20
0
  9
$SNAPANG
 50
0
  9
$SNAPSTYLE
 70
0
  9
$SNAPISOPAIR
 70
0
  9
$GRIDMODE
 70
0
  9
$GRIDUNIT
 10
0
 20
0
  9
$ORTHOMODE
 70
0
  9
$REGENMODE
 70
1
  9
$FILLMODE
 70
1
  9
$QTEXTMODE
 70
0
  9
$DRAGMODE
 70
2
  9
$LTSCALE
 40
1
  9
$OSMODE
 70
0
  9
$ATTMODE
 70
1
  9
$TEXTSIZE
 40
3.5
  9
$TRACEWID
 40
0.5
  9
$TEXTSTYLE
  7
STANDARD
  9
$CLAYER
  8
0
  9
$CELTYPE
  6
BYLAYER
  9
$CECOLOR
 62
256
  9
$DIMSCALE
 40
1
  9
$DIMASZ
 40
0.18
  9
$DIMEXO
 40
0.0625
  9
$DIMDLI
 40
0.38
  9
$DIMRND
 40
0
  9
$DIMDLE
 40
0
  9
$DIMEXE
 40
0.18
  9
$DIMTP
 40
0
  9
$DIMTM
 40
0
  9
$DIMTXT
 40
0.18
  9
$DIMCEN
 40
0.09
  9
$DIMTSZ
 40
0
  9
$DIMTOL
 70
0
  9
$DIMLIM
 70
0
  9
$DIMTIH
 70
1
  9
$DIMTOH
 70
1
  9
$DIMSE1
 70
0
  9
$DIMSE2
 70
0
  9
$DIMTAD
 70
0
  9
$DIMZIN
 70
0
  9
$DIMBLK
  1

  9
$DIMASO
 70
1
  9
$DIMSHO
 70
1
  9
$DIMPOST
  1

  9
$DIMAPOST
  1

  9
$DIMALT
 70
0
  9
$DIMALTD
 70
2
  9
$DIMALTF
 40
25.4
  9
$DIMLFAC
 40
1
  9
$DIMTOFL
 70
0
  9
$DIMTVP
 40
0
  9
$DIMTIX
 70
0
  9
$DIMSOXD
 70
0
  9
$DIMSAH
 70
0
  9
$DIMBLK1
  1

  9
$DIMBLK2
  1

  9
$DIMSTYLE
  2
*UNNAMED
  9
$DIMCLRD
 70
0
  9
$DIMCLRE
 70
0
  9
$DIMCLRT
 70
0
  9
$DIMTFAC
 40
1
  9
$DIMGAP
 40
0.09
  9
$LUNITS
 70
2
  9
$LUPREC
 70
4
  9
$AXISMODE
 70
0
  9
$AXISUNIT
 10
0
 20
0
  9
$SKETCHINC
 40
0.1
  9
$FILLETRAD
 40
2
  9
$AUNITS
 70
0
  9
$AUPREC
 70
0
  9
$MENU
  1
ACAD
  9
$ELEVATION
 40
0
  9
$THICKNESS
 40
0
  9
$VIEWDIR
 10
0
 20
0
 30
1
  9
$LIMCHECK
 70
0
  9
$BLIPMODE
 70
1
  9
$CHAMFERA
 40
0
  9
$CHAMFERB
 40
0
  9
$FASTZOOM
 70
1
  9
$SKPOLY
 70
0
  9
$ANGBASE
 50
0
  9
$ANGDIR
 70
0
  9
$PDMODE
 70
0
  9
$PDSIZE
 40
0
  9
$PLINEWID
 40
0
  9
$COORDS
 70
2
  0
ENDSEC
  0
SECTION
  2
TABLES
  0
TABLE
  2
DIMSTYLE
 70
0
  0
ENDTAB
  0
TABLE
  2
LTYPE
 70
9
  0
LTYPE
  2
CONTINUOUS
 70
64
  3
Solid line
 72
65
 73
0
 40
0
  0
LTYPE
  2
BORDER
 70
64
  3
__ __ . __ __ .
 72
65
 73
6
 40
2.238157894736838
 49
0.6394736842105251
 49
-0.3197368421052625
 49
0.6394736842105251
 49
-0.3197368421052625
 49
0
 49
-0.3197368421052625
  0
LTYPE
  2
CENTER
 70
64
  3
____ _ ____ _
 72
65
 73
4
 40
2.5578947368421
 49
1.598684210526313
 49
-0.3197368421052625
 49
0.3197368421052625
 49
-0.3197368421052625
  0
LTYPE
  2
DASHDOT
 70
64
  3
__ . __ . __ .
 72
65
 73
4
 40
1.27894736842105
 49
0.6394736842105251
 49
-0.3197368421052625
 49
0
 49
-0.3197368421052625
  0
LTYPE
  2
DASHED
 70
64
  3
__ __ __ __ __
 72
65
 73
2
 40
0.9592105263157876
 49
0.6394736842105251
 49
-0.3197368421052625
  0
LTYPE
  2
DIVIDE
 70
64
  3
__ . . __ . . 
 72
65
 73
6
 40
1.598684210526313
 49
0.6394736842105251
 49
-0.3197368421052625
 49
0
 49
-0.3197368421052625
 49
0
 49
-0.3197368421052625
  0
LTYPE
  2
DOT
 70
64
  3
..............
 72
65
 73
4
 40
0.6394736842105251
 49
0
 49
-0.3197368421052625
 49
0
 49
-0.3197368421052625
  0
LTYPE
  2
HIDDEN
 70
64
  3
_ _ _ _ _ _ _
 72
65
 73
2
 40
0.4796052631578938
 49
0.3197368421052625
 49
-0.1598684210526313
  0
LTYPE
  2
PHANTOM
 70
64
  3
_____ _ _ _____ _ _ 
 72
65
 73
6
 40
3.197368421052626
 49
1.598684210526313
 49
-0.3197368421052625
 49
0.3197368421052625
 49
-0.3197368421052625
 49
0.3197368421052625
 49
-0.3197368421052625
  0
ENDTAB
  0
TABLE
  2
LAYER
 70
3
  0
LAYER
  2
0
 70
0
 62
7
  6
CONTINUOUS
  0
LAYER
  2
1
 70
0
 62
7
  6
CONTINUOUS
  0
ENDTAB
  0
TABLE
  2
STYLE
 70
4
  0
STYLE
  2
STANDARD
 70
0
 40
0
 41
1
 50
0
 71
0
 42
3.5
  3
txt
  4

  0
STYLE
  2
SIMPLEX
 70
0
 40
0
 41
1
 50
0
 71
0
 42
3.5
  3
simplex
  4

  0
STYLE
  2
COMPLEX
 70
0
 40
0
 41
1
 50
0
 71
0
 42
3.5
  3
complex
  4

  0
STYLE
  2
ITALIC
 70
0
 40
0
 41
1
 50
0
 71
0
 42
3.5
  3
italic
  4

  0
ENDTAB
  0
TABLE
  2
VIEW
 70
0
  0
ENDTAB
  0
ENDSEC
  0
SECTION
  2
BLOCKS
  0
ENDSEC
  0
SECTION
  2
ENTITIES
  0
POINT
  8
1
 62
7
  6
DOT
 10
0
 20
0
 30
0
  0
LINE
  8
0
 62
7
 10
0
 20
-42.03762908520716
 30
0
 11
9.5
 21
-42.03762908520716
 31
0
  0
LINE
  8
0
 62
7
 10
9.5
 20
-34.80183498827202
 30
0
 11
0
 21
-34.80183498827202
 31
0
  0
LINE
  8
0
 62
7
 10
9.5
 20
-37.99645159514611
 30
0
 11
0
 21
-37.99645159514611
 31
0
  0
LINE
  8
0
 62
7
 10
1
 20
-27.73762908520715
 30
0
 11
1
 21
-21.73762908520715
 31
0
  0
LINE
  8
0
 62
7
 10
6.149999999999977
 20
-26.27253921506323
 30
0
 11
6.154811853121998
 21
-26.27245522385462
 31
0
  0
LINE
  8
0
 62
7
 10
6.15053207809899
 20
-26.26817544883122
 30
0
 11
6.15053207809899
 21
-22.90708272158255
 31
0
  0
LINE
  8
0
 62
7
 10
3.349492271250995
 20
-26.26815109948214
 30
0
 11
3.345188146878002
 21
-26.27245522385462
 31
0
  0
LINE
  8
0
 62
7
 10
6.154811853121998
 20
-26.27245522385462
 30
0
 11
6.15053207809899
 21
-26.26817544883122
 31
0
  0
LINE
  8
0
 62
7
 10
6.149999999999977
 20
-26.43836233188134
 30
0
 11
3.349999999999966
 21
-26.43836233188134
 31
0
  0
LINE
  8
0
 62
7
 10
3.345188146878002
 20
-26.27245522385462
 30
0
 11
3.349999999999966
 21
-26.27253921506323
 31
0
  0
LINE
  8
0
 62
7
 10
3.349999999999966
 20
-26.27253921506323
 30
0
 11
3.349999999999966
 21
-26.43836233188134
 31
0
  0
LINE
  8
0
 62
7
 10
3.349492271250995
 20
-22.90710707093163
 30
0
 11
3.349492271250995
 21
-26.26815109948214
 31
0
  0
LINE
  8
0
 62
7
 10
6.149999999999977
 20
-26.43836233188134
 30
0
 11
6.149999999999977
 21
-26.27253921506323
 31
0
  0
LINE
  8
0
 62
7
 10
8.5
 20
-27.73762908520715
 30
0
 11
8.5
 21
-21.73762908520715
 31
0
  0
LINE
  8
0
 62
7
 10
3.349999999999966
 20
-22.73689583853243
 30
0
 11
3.349999999999966
 21
-22.90708272158255
 31
0
  0
LINE
  8
0
 62
7
 10
6.149999999999977
 20
-22.90708272158255
 30
0
 11
6.149999999999977
 21
-22.73689583853243
 31
0
  0
LINE
  8
0
 62
7
 10
6.149999999999977
 20
-22.90708272158255
 30
0
 11
6.15053207809899
 21
-22.90708272158255
 31
0
  0
LINE
  8
0
 62
7
 10
3.349999999999966
 20
-22.73689583853243
 30
0
 11
6.149999999999977
 21
-22.73689583853243
 31
0
  0
LINE
  8
0
 62
7
 10
3.349492271250995
 20
-22.90710707093163
 30
0
 11
3.349999999999966
 21
-22.90708272158255
 31
0
  0
LINE
  8
0
 62
7
 10
6.150507728749972
 20
-9.20710707093221
 30
0
 11
6.154811853121998
 21
-9.202802946559729
 31
0
  0
LINE
  8
0
 62
7
 10
8.5
 20
-7.737629085207146
 30
0
 11
8.5
 21
-13.73762908520715
 31
0
  0
LINE
  8
0
 62
7
 10
6.154811853121998
 20
-9.202802946559729
 30
0
 11
6.149999999999977
 21
-9.20271895535106
 31
0
  0
LINE
  8
0
 62
7
 10
6.150507728749972
 20
-12.56815109948272
 30
0
 11
6.149999999999977
 21
-12.56817544883185
 31
0
  0
LINE
  8
0
 62
7
 10
6.149999999999977
 20
-12.73836233188192
 30
0
 11
6.149999999999977
 21
-12.56817544883185
 31
0
  0
LINE
  8
0
 62
7
 10
0
 20
2.521193424731763
 30
0
 11
9.5
 21
2.521193424731763
 31
0
  0
LINE
  8
0
 62
7
 10
0
 20
-0.6734231821423293
 30
0
 11
9.5
 21
-0.6734231821423293
 31
0
  0
LINE
  8
0
 62
7
 10
1
 20
-7.737629085207146
 30
0
 11
1
 21
-13.73762908520715
 31
0
  0
LINE
  8
0
 62
7
 10
3.349999999999966
 20
-12.56817544883185
 30
0
 11
3.349999999999966
 21
-12.73836233188192
 31
0
  0
LINE
  8
0
 62
7
 10
3.349999999999966
 20
-12.56817544883185
 30
0
 11
3.349467921901976
 21
-12.56817544883185
 31
0
  0
LINE
  8
0
 62
7
 10
3.349999999999966
 20
-9.20271895535106
 30
0
 11
3.345188146878002
 21
-9.202802946559729
 31
0
  0
LINE
  8
0
 62
7
 10
3.349467921901976
 20
-9.207082721583134
 30
0
 11
3.349467921901976
 21
-12.56817544883185
 31
0
  0
LINE
  8
0
 62
7
 10
3.349999999999966
 20
-9.036895838533013
 30
0
 11
3.349999999999966
 21
-9.20271895535106
 31
0
  0
LINE
  8
0
 62
7
 10
3.345188146878002
 20
-9.202802946559729
 30
0
 11
3.349467921901976
 21
-9.207082721583134
 31
0
  0
LINE
  8
0
 62
7
 10
6.150507728749972
 20
-12.56815109948272
 30
0
 11
6.150507728749972
 21
-9.20710707093221
 31
0
  0
LINE
  8
0
 62
7
 10
6.149999999999977
 20
-12.73836233188192
 30
0
 11
3.349999999999966
 21
-12.73836233188192
 31
0
  0
LINE
  8
0
 62
7
 10
6.149999999999977
 20
-9.20271895535106
 30
0
 11
6.149999999999977
 21
-9.036895838533013
 31
0
  0
LINE
  8
0
 62
7
 10
3.349999999999966
 20
-9.036895838533013
 30
0
 11
6.149999999999977
 21
-9.036895838533013
 31
0
  0
LINE
  8
0
 62
7
 10
9.5
 20
6.562370914792751
 30
0
 11
0
 21
6.562370914792751
 31
0
  0
LINE
  8
1
 62
7
 10
0
 20
6.562370914792751
 30
0
 11
0
 21
-42.03762908520716
 31
0
  0
LINE
  8
1
 62
7
 10
9.5
 20
6.562370914792751
 30
0
 11
9.5
 21
-42.03762908520716
 31
0
  0
LINE
  8
1
 62
7
 10
8.5
 20
-7.737629085207146
 30
0
 11
9.5
 21
-7.737629085207146
 31
0
  0
LINE
  8
1
 62
7
 10
8.5
 20
-13.73762908520715
 30
0
 11
9.5
 21
-13.73762908520715
 31
0
  0
LINE
  8
1
 62
7
 10
1
 20
-7.737629085207146
 30
0
 11
0
 21
-7.737629085207146
 31
0
  0
LINE
  8
1
 62
7
 10
1
 20
-13.73762908520715
 30
0
 11
0
 21
-13.73762908520715
 31
0
  0
LINE
  8
1
 62
7
 10
8.5
 20
-21.73762908520715
 30
0
 11
9.5
 21
-21.73762908520715
 31
0
  0
LINE
  8
1
 62
7
 10
8.5
 20
-27.73762908520715
 30
0
 11
9.5
 21
-27.73762908520715
 31
0
  0
LINE
  8
1
 62
7
 10
1
 20
-21.73762908520715
 30
0
 11
0
 21
-21.73762908520715
 31
0
  0
LINE
  8
1
 62
7
 10
1
 20
-27.73762908520715
 30
0
 11
0
 21
-27.73762908520715
 31
0
  0
LINE
  8
1
 62
7
 10
1.79196010845022
 20
-17.23762908520712
 30
0
 11
7.708039891549836
 21
-17.23762908520712
 31
0
  0
LINE
  8
1
 62
7
 10
7.708039891549837
 20
-18.23762908520712
 30
0
 11
1.79196010845022
 21
-18.23762908520712
 31
0
  0
CIRCLE
  8
1
 62
7
 10
4.750000000000028
 20
-17.73762908520712
 30
0
 40
3.359999999999992
  0
CIRCLE
  8
1
 62
7
 10
4.750000000000028
 20
-17.73762908520712
 30
0
 40
3
  0
ENDSEC
  0
EOF
